Oops, an error
Loading. Please wait.

Get In The Ring Tab

ver3
ver3

Whole song

More versions @911Tabs.com
7,211 views 12 this week
8 commentsread comments
1 2 3 4 5
accurate
x 9
Autoscroll
+/-
esc
set tempo
stop
Contributor
WARNING: You are trying to view
                                    content from Ultimate-Guitar.com
                                    in an unauthorized application,
                                    which is prohibited.

                                    Please use an official Ultimate
                                    Guitar Tabs application for iPhone,
                                    iPad or Android to access legitimate
                                    chords, guitar, bass, and drum tabs
                                    from Ultimate-Guitar.com database.

                                    Type "ultimate guitar tabs" in Apple
                                    App Store's or Android Market's
                                    search to find the application.
Intro (Half-Time Feel)
  Fast Rock Q=180(8=s8)
  N.C.
 4/4
               Gtr I
  Wx7           W                           W
              Gtr III
|               ~~~
| Wx7           Q.    E  E  e E  E         +Q    +E  E  E     +E  E  E
|------------|--------------------------|----------------------------------|
|------------|--------------------------|----------------------------------|
|------------|--------------------------|----------------------------------|
|------------|----------12-15---15pb17==|=(15)r=(15)-----------------------|
|------------|-13----13-----------------|--------------15b16r(15)---15b16==|
|------------|--------------------------|----------------------------------|


  Eb5
    H            H        E  E E E  E    E     E  E
|---------------------|-------------------------------|
|---------------------|-------------------------------|
|---------------------|-------------------------------|
|---8------------8----|---8--8---8-------8-----8------|
|---6------------6----|---6--6---6-------6-----6------|
|---------------------|---------------------------6---|
|
|   H            H       +H         H
|---------------------|-------------------------------|
|---------------------|-------------------------------|
|---------------------|-------------------------------|
|---8------------8----|--(8)--------8-----------------|
|---6------------6----|--(6)--------6-----------------|
|---------------------|-------------------------------|
|
|            ~~~~~~~~~~~~~~~~
|                                   |---3---|
|  +E   +E   H.          +H         E  E    E  E  E
|---------------------|-------------------------------|
|---------------------|-------------------------------|
|---------------------|-------------------------------|
|---------------------|-------------------------------|
|-(15)r(15)-13--------|-(13)---------------13-13-15---|
|---------------------|------------13h15--------------|


  Bb5
                     PM------
   H        Q.       E
|---------------------------|
|---------------------------|
|---------------------------|
|---------------------------|
|--8--------8---------------|
|--6--------6--------0------|
|
|  H        H
|---------------------------|
|---------------------------|
|---------------------------|
|---------------------------|
|--8--------8---------------|
|--6--------6---------------|
|
|  ~~~
|  Q.    E  E   e E  E
|---------------------------|
|---------------------------|
|---------------------------|
|----------12--15---15pb17==|
|-13----13------------------|
|---------------------------|


                Q=180                    Q=180(8=s8)
  F5                                     Eb5
 ---------------------------|
                  |----3----|
    E  E   E  E   Q         E  Q           E  E E E E E  E    E
|--------------------------------------|---------------------------|
|--------------------------------------|---------------------------|
|--------------------------------------|---------------------------|
|--------------------------------------|---8----x-x-x---------x----|
|---3------3------3------------3-------|---6----x-x-x---------x----|
|---1--0---1--0---1---------0--1-------|---------------------------|
|
|   H             H                        H        H
|--------------------------------------|---------------------------|
|--------------------------------------|---------------------------|
|--------------------------------------|---------------------------|
|--------------------------------------|---8--------8--------------|
|---3-------------3--------------------|---6--------6--------------|
|---1-------------1--------------------|---------------------------|
|
|                                                        |---3---|
|  +Q     +E  E   E     +E     E  E       +H        E E  E  E    E
|--------------------------------------|---------------------------|
|--------------------------------------|---------------------------|
|--------------------------------17b18-|-(17)----------------------|
|-(15)r==(15)--------------------------|---------------------------|
|----------------15b16r(15)---13-------|----------------15------13-|
|--------------------------------------|--------------x----15------|


  Eb5                                Bb5
   E E  E    E     E    E     E  E    E  E E  E  Q    +Q
|----------------------------------|-------------------------------|
|----------------------------------|-------------------------------|
|----------------------------------|-------------------------------|
|--x-x--x----x-----x----x-----x--x-|--8----8-----8----(8)\---------|
|--x-x--x----x-----x----x-----x--x-|--8----8-----8----(8)\---------|
|----------------------------------|--6----6-----6----(6)\---------|
|
|  H               E    E     E  E    H          H
|----------------------------------|-------------------------------|
|----------------------------------|-------------------------------|
|----------------------------------|-------------------------------|
|--8-------------------------------|-------------------------------|
|--6-------------------------------|--8----------8-----------------|
|------------------4----4-----5--5-|--6----------6-----------------|
|
|  ~~                                 ~~~
|       |---3---|  |---3---|
|  Q    E  E    E  E  E    E  E  E    Q.      E  E  e  E    E
|----------------------------------|-------------------------------|
|----------------------------------|------------15-18------18pb20==|
|----------------------------17----|-15------15--------------------|
|--------------15-17-15---17----17-|-------------------------------|
|-13---15s17-----------------------|-------------------------------|
|----------------------------------|-------------------------------|


  F5
    W
|-----------------------------------|
|-----------------------------------|
|-----------------------------------|
|---3-------------------------------|
|---3-------------------------------|
|---1-------------------------------|
|
|   H          H
|-----------------------------------|
|-----------------------------------|
|-----------------------------------|
|-----------------------------------|
|---3----------3--------------------|
|---1----------1--------------------|
|
|  +Q    +Q    E      +E   E  E
|-----------------------------------|
|-(18)r=(18)------------------------|
|-------------15pb16r(15)-13-15b17==|
|-----------------------------------|
|-----------------------------------|
|-----------------------------------|


  Eb5
    H                  H
|---------------------------------------|
|---------------------------------------|
|---------------------------------------|
|---8------------------8----------------|
|---6------------------6----------------|
|---------------------------------------|
|
|   H                  H
|---------------------------------------|
|---------------------------------------|
|---------------------------------------|
|---8------------------8----------------|
|---6------------------6----------------|
|---------------------------------------|
|
|             |--3--|  |3-|  |---3----|
|  +E   +E    E  E  E  E  Q  E  E     E
|---------------------------------------|
|------------15-18-16-15-16-15-------15-|
|-(15)-(15)r-------------------17b19----|
|---------------------------------------|
|---------------------------------------|
|---------------------------------------|


                                                     Bb5
   E       E        Q           Q             Q       H         H
|--------------------------------------------------|----------------------------|
|--------------------------------------------------|----------------------------|
|--------------------------------------------------|----------------------------|
|--8-------8---------------------------------------|----------------------------|
|--6-------6---------------------------------------|--8---------8---------------|
|-------------------3-----------4-------------5----|--6---------6---------------|
|
|  H                            H                     H         Q     Q
|--------------------------------------------------|----------------------------|
|--------------------------------------------------|----------------------------|
|--------------------------------------------------|----------------------------|
|--8----------------------------8------------------|--8-------------------------|
|--6----------------------------6------------------|--6-------------------------|
|--------------------------------------------------|------------------6S========|
|
|                                                     ~~~
|  |----3-----|     |---3----|  |----3-----|
|  E     E    E     E  E     E  E     +E   E  E  E    Q.    E   E   e E  E
|--------------------------------------------------|----------------------------|
|-------15---------15-------15---------------------|----------[15]-18---18b20===|
|-17b19------17b19----17b19----17b19r(17)p15-17----|-15-------------------------|
|-----------------------------------------------17-|-------17-------------------|
|--------------------------------------------------|----------------------------|
|--------------------------------------------------|----------------------------|


  F5                                 Eb5                          Bb5
    H              H                   W            +H..          E
|----------------------------------|-------------|------------------|
|----------------------------------|-------------|------------------|
|----------------------------------|-------------|------------------|
|----------------------------------|---8---------|--(8)-------------|
|---3--------------3---------------|---6---------|--(6)-----------8-|
|---1--------------1---------------|-------------|----------------6-|
|
|   W                                  W            +H..          E
|----------------------------------|-------------|------------------|
|----------------------------------|-------------|------------------|
|----------------------------------|-------------|------------------|
|----------------------------------|---8---------|--(8)-------------|
|----------------------------------|---6---------|--(6)-----------8-|
|---1------------------------------|-------------|----------------6-|
|
|  +E   E  E  +E   E  Q      E        +W            +H      Q  Q
|------18--------------------------|-------------|------------------|
|-(18)----18r(18)-15-18-----18-----|-(18)--------|-(18)-------------|
|--------------------17b19--17b19==|=(17)--------|-(17)r----xs=x\---|
|----------------------------------|-------------|----------xs=x\---|
|----------------------------------|-------------|------------------|
|----------------------------------|-------------|------------------|


  Straight Eight Feel Q=180
                     F5                  Eb5
  +H        E  E +E  E   +Q.     E Q   E E
|----------------------|-----------------------|
|----------------------|-----------------------|
|----------------------|-----------------------|
|----------------------|-----------------8-----|
|-(8)-------8--8-(8)s3-|-(3)-----3-3-----6-----|
|-(6)-------6--6-(6)s1-|-(1)-----1-1-----------|
|
|         PM                     PM
| +E  E E E Q.       E   +E  E E E Q.    E
|----------------------|-----------------------|
|----------------------|-----------------------|
|----------------------|-----------------------|
|----------------------|-----------------8-----|
|-(8)-8---8-8--------3-|-(3)-3---3-3-----6-----|
|-(6)-6---6-6--------1-|-(1)-1---1-1-----------|
|
|  W                      H        Q   E E
|----------------------|-----------------------|
|----------------------|-----------------9b11==|
|----------------------|-----------------------|
|----------------------|-----------------------|
|----------------------|-----------------------|
|----------------------|-----------------------|


                                              Bb5
  +E   E  E E E    E     E E   E E  E E E E E  E
|----------------------------|-------------------|
|----------------------------|-------------------|
|----------------------------|-------------------|
|-(8)--8-10-8-8----8----10-8-|-8-8-10-8-8-8------|
|-(6)--6--6-6-6----6-----6-6-|-6-6--6-6-6-6----8-|
|----------------------------|-----------------6-|
|
|         PM|            PM|
| +E   E  E E Q          E E   Q    E E E E E  E
|----------------------------|-------------------|
|----------------------------|-------------------|
|----------------------------|-------------------|
|-(8)--8--8-8-8----------8-8-|-8----8-8-7-8------|
|-(6)--6--6-6-6----------6-6-|-6----6-6-5-6-0--8-|
|----------------------------|-----------------6-|
|
| +E   E  E E E   +S  S  E E   E E  E E E E E  E
|------6---------------------|-------------------|
|-(9)r----9-6-8b9r(8)p6----6-|----------------11-|
|------------------------8---|-7----8---7-8-7----|
|----------------------------|---8----8----------|
|----------------------------|-------------------|
|----------------------------|-------------------|


                      F5                      Eb5
   +H        E  E +E  E    +Q.     E   Q    E E
|-----------------------|---------------------------|
|-----------------------|---------------------------|
|-----------------------|---------------------------|
|-----------------------|---------------------8-----|
|--(8)-------8--8-(8)s3-|--(3)-----3---3------6-----|
|--(6)-------6--6-(6)s1-|--(1)-----1---1------------|
|
|          PM                      PM
|  +E  E E E Q.       E    +E  E E E   Q.     E
|-----------------------|---------------------------|
|-----------------------|---------------------------|
|-----------------------|---------------------------|
|-----------------------|---------------------8-----|
|--(8)-8---8-8--------3-|--(3)-3---3---3------6-----|
|--(6)-6---6-6--------1-|--(1)-1---1---1------------|
|
|   ~~~~~~~~~~~~~~~~~~~~~~~~~~~
|  +W                      +H         +E  E E E
|-----------------------|---------------------8b10==|
|-(11)------------------|-(11)-------(11)s8-6-------|
|-----------------------|---------------------------|
|-----------------------|---------------------------|
|-----------------------|---------------------------|
|-----------------------|---------------------------|


                                                        Bb5
  +E   E  E E E    E  E E    E    E  E E   E     E    E E
|-------------------------|--------------------------------|
|-------------------------|--------------------------------|
|-------------------------|--------------------------------|
|-(8)--8-10-8-8----8-10-8-|--8----8-10-8---8-----8---------|
|-(6)--6--6-6-6----6--6-6-|--6----6--6-6---6-----6------8--|
|-------------------------|-----------------------------6--|
|
|         PM|      PM|            PM-----|
| +E   E  E E E    E  E E   +E    E  E S S E     E    E E
|-------------------------|--------------------------------|
|-------------------------|--------------------------------|
|-------------------------|--------------------------------|
|-(8)--8--8-8-8----8--8-8-|-(8)---8--8-8-8-8-----7---------|
|-(6)--6--6-6-6----6--6-6-|-(6)---6--6-6-6-6-----5----0-8--|
|-------------------------|-----------------------------6--|
|
| +Q      E E Q       E E    E    E  E E   E    +S  S E E
|-(8)r----8-6-8b10----6---|-------6------------------------|
|-----------------------6-|--9b11----9-6-------------------|
|-------------------------|----------------8b10r(8)p6------|
|-------------------------|---------------------------8-8--|
|-------------------------|--------------------------------|
|-------------------------|--------------------------------|


 1st Verse
                     F5                  Eb5
  +H        E  E +E  E   +Q.     E Q   E E
|----------------------|-------------------|
|----------------------|-------------------|
|----------------------|-------------------|
|----------------------|-----------------8-|
|-(8)-------8--8-(8)s3-|-(3)-----3-3-----6-|
|-(6)-------6--6-(6)s1-|-(1)-----1-1-------|
|
|         PM                     PM
| +E  E E E Q.       E   +E  E E E Q.    E
|----------------------|-------------------|
|----------------------|-------------------|
|----------------------|-------------------|
|----------------------|-----------------8-|
|-(8)-8---8-8--------3-|-(3)-3---3-3-----6-|
|-(6)-6---6-6--------1-|-(1)-1---1-1-------|
|
|                         >
|  ~~~~~~~~~~~~~~~~~~~~~~~~~~
| +W                     +W
|----------------------|-------------------|
|----------------------|-------------------|
|----------------------|-------------------|
|-(8)------------------|-(8)---------------|
|----------------------|-------------------|
|----------------------|-------------------|


                                           Bb5
  +E  E  E E E E  E E    E  E  E E   E E E E
|---------------------|----------------------|
|---------------------|----------------------|
|---------------------|----------------------|
|-(8)-8-10-8-8-8-10-8-|--8--8-10-8---8-8-----|
|-(6)-6--6-6-6-6--6-6-|--6--6--6-6---6-6---8-|
|---------------------|--------------------6-|
|
|        PM|   PM|          PM-----|
| +E  E  E E E E  E E   +E  E  E S S E E E E
|---------------------|----------------------|
|---------------------|----------------------|
|---------------------|----------------------|
|-(8)-8--8-8-8-8--8-8-|-(8)-8--8-8-8-8-7-----|
|-(6)-6--6-6-6-6--6-6-|-(6)-6--6-6-6-6-5-0-8-|
|---------------------|--------------------6-|
|
|  W                     W
|---------------------|----------------------|
|---------------------|----------------------|
|---------------------|----------------------|
|---------------------|----------------------|
|---------------------|----------------------|
|---------------------|----------------------|


                     F5                  Eb5
  Gtr I
  +H        E  E +E  E   +Q.     E Q   E E
|----------------------|-------------------|
|----------------------|-------------------|
|----------------------|-------------------|
|----------------------|-----------------8-|
|-(8)-------8--8-(8)s3-|-(3)-----3-3-----6-|
|-(6)-------6--6-(6)s1-|-(1)-----1-1-------|
|
| Gtr II
|         PM                     PM
| +E  E E E Q.       E   +E  E E E Q.    E
|----------------------|-------------------|
|----------------------|-------------------|
|----------------------|-------------------|
|----------------------|-----------------8-|
|-(8)-8---8-8--------3-|-(3)-3---3-3-----6-|
|-(6)-6---6-6--------1-|-(1)-1---1-1-------|


                                           Bb5
  +E  E  E E E E  E E    E  E  E E   E E E E
|---------------------|----------------------|
|---------------------|----------------------|
|---------------------|----------------------|
|-(8)-8-10-8-8-8-10-8-|--8--8-10-8---8-8-----|
|-(6)-6--6-6-6-6--6-6-|--6--6--6-6---6-6---8-|
|---------------------|--------------------6-|
|
|        PM|   PM|          PM-----|
| +E  E  E E E E  E E   +E  E  E S S E E E E
|---------------------|----------------------|
|---------------------|----------------------|
|---------------------|----------------------|
|-(8)-8--8-8-8-8--8-8-|-(8)-8--8-8-8-8-7-----|
|-(6)-6--6-6-6-6--6-6-|-(6)-6--6-6-6-6-5-0-8-|
|---------------------|--------------------6-|


                     F5                  Eb5
  +H        E  E +E  E   +Q.     E Q   E E
|----------------------|-------------------|
|----------------------|-------------------|
|----------------------|-------------------|
|----------------------|-----------------8-|
|-(8)-------8--8-(8)s3-|-(3)-----3-3-----6-|
|-(6)-------6--6-(6)s1-|-(1)-----1-1-------|
|
|         PM                     PM
| +E  E E E Q.       E   +E  E E E Q.    E
|----------------------|-------------------|
|----------------------|-------------------|
|----------------------|-------------------|
|----------------------|-----------------8-|
|-(8)-8---8-8--------3-|-(3)-3---3-3-----6-|
|-(6)-6---6-6--------1-|-(1)-1---1-1-------|


                                           Bb5
  +E  E  E E E E  E E    E  E  E E   E E E E
|---------------------|----------------------|
|---------------------|----------------------|
|---------------------|----------------------|
|-(8)-8-10-8-8-8-10-8-|--8--8-10-8---8-8-----|
|-(6)-6--6-6-6-6--6-6-|--6--6--6-6---6-6---8-|
|---------------------|--------------------6-|
|
|        PM|   PM|          PM-----|
| +E  E  E E E E  E E   +E  E  E S S E E E E
|---------------------|----------------------|
|---------------------|----------------------|
|---------------------|----------------------|
|-(8)-8--8-8-8-8--8-8-|-(8)-8--8-8-8-8-7-----|
|-(6)-6--6-6-6-6--6-6-|-(6)-6--6-6-6-6-5-0-8-|
|---------------------|--------------------6-|


                     F5                  Eb5
  +H        E  E +E  E   +Q.     E Q   E E
|----------------------|-------------------|
|----------------------|-------------------|
|----------------------|-------------------|
|----------------------|-----------------8-|
|-(8)-------8--8-(8)s3-|-(3)-----3-3-----6-|
|-(6)-------6--6-(6)s1-|-(1)-----1-1-------|
|
|         PM                     PM
| +E  E E E Q.       E   +E  E E E Q.    E
|----------------------|-------------------|
|----------------------|-------------------|
|----------------------|-------------------|
|----------------------|-----------------8-|
|-(8)-8---8-8--------3-|-(3)-3---3-3-----6-|
|-(6)-6---6-6--------1-|-(1)-1---1-1-------|


                                       C5
  +W                  +H..              E
|-------------------|----------------------|
|-------------------|----------------------|
|-------------------|----------------------|
|-(8)---------------|-(8)--------------10--|
|-(6)---------------|-(6)--------------10--|
|-------------------|-------------------8--|
|
| +E  E E E E E E E   +E   E E E E E E  E
|-------------------|----------------------|
|-------------------|----------------------|
|-------------------|-------------------5--|
|-(8)-8-8-8-8-8-8-8-|-(8)--8-8-8-8-7----5--|
|-(6)-6-6-6-6-6-6-6-|-(6)--6-6-6-6-5-0--3--|
|-------------------|----------------------|


                                   F5(type
   +H..            E    +H..        E
|--------------------|----------------|
|--------------------|----------------|
|--------------------|-------------10-|
|-(10)------------10-|-(10)--------10-|
|-(10)------------10-|-(10)---------8-|
|--(8)-------------8-|--(8)-----------|
|
|  +E   E Q  E Q   E    +H..        E
|--------------------|----------------|
|--------------------|----------------|
|--(5)--5-5--5-5---5-|--(5)--------10-|
|--(5)--5-5--5-5---5-|--(5)--------10-|
|--(3)--3-3--3-3---3-|--(3)---------8-|
|--------------------|----------------|


     2)                                               C5
   +E   E  E  E  E  Q   E    +E  E  E  E   E   Q       E
|-------------------------|-------------------------------|
|-------------------------|-------------------------------|
|-(10)-10-10-10-10-10--10-|-(10)10-10-10--10--10----------|
|-(10)-10-10-10-10-10--10-|-(10)10-10-10--10--10------10--|
|--(8)--8--8--8--8--8---8-|--(8)-8--8--8---8---8------10--|
|-------------------------|----------------------------8--|
|
|  +E   E  E  E  E  Q   E     E  E  E  E  +Q       E   E
|-------------------------|-------------------------------|
|-------------------------|--11p10----------------10------|
|-(10)-10-10-10-10-10--10-|--------10-------------10---5--|
|-(10)-10-10-10-10-10--10-|-----------10-(10)----(10)--5--|
|--(8)--8--8--8--8--8---8-|----------------------------3--|
|-------------------------|-------------------------------|


                                          F5(type
   +H..             E    +H..              E
|---------------------|----------------------|
|---------------------|----------------------|
|---------------------|-------------------10-|
|-(10)-------------10-|-(10)--------------10-|
|-(10)-------------10-|-(10)---------------8-|
|--(8)--------------8-|--(8)-----------------|
|
|  +E   E Q  E Q.         Q.    S S E E E  E
|---------------------|----------------------|
|---------------------|----------------------|
|--(5)--5-5--5-5------|---5---------5-5---10-|
|--(5)--5-5--5-5------|---5-----x-x-5-5---10-|
|--(3)--3-3--3-3------|---3-----x-x-3-3----8-|
|---------------------|----------------------|


     2)                                             Bb5
   +E   E  E  E  E  Q     E    +E    E  E  E  E  Q  E
|---------------------------|-------------------------|
|---------------------------|-------------------------|
|-(10)-10-10-10-10-10----10-|-(10)--10-10-10-10-10----|
|-(10)-10-10-10-10-10----10-|-(10)--10-10-10-10-10--8-|
|--(8)--8--8--8--8--8-----8-|--(8)---8--8--8--8--8--8-|
|---------------------------|-----------------------6-|
|
|  +E   E  E  E  E  E  E  E     H..                 E
|---------------------------|-------------------------|
|---------------------------|-------------------------|
|-(10)-10-10-10-10-10-10-10-|--10---------------------|
|-(10)-10-10-10-10-10-10-10-|--10---------------------|
|--(8)--8--8--8--8--8--8--8-|---8-------------------8-|
|---------------------------|-----------------------6-|


  +Q    Q     Q   E E   +Q    Q     Q   E E
|---------------------|---------------------|
|---------------------|---------------------|
|---------------------|---------------------|
|-(8)\--------------8-|-(8)\--------------8-|
|-(8)\--------------8-|-(8)\--------------8-|
|-(6)\--------------6-|-(6)\--------------6-|
|
|         PM|                   PM|
| +E  E E S S Q.    E   +E  E E S S Q.    E
|---------------------|---------------------|
|---------------------|---------------------|
|---------------------|---------------------|
|---------------------|---------------------|
|-(8)s9s8-9-9-8-----8-|-(8)s9s8-9-9-8-----8-|
|-(6)s7s6-7-7-6-----6-|-(6)s7s6-7-7-6-----6-|


                                         Eb5
  +Q    Q     Q   E E   +Q     Q   E E E E
|---------------------|--------------------|
|---------------------|--------------------|
|---------------------|--------------------|
|-(8)\--------------8-|-(8)\---------------|
|-(8)\--------------8-|-(8)\---------x-x-6-|
|-(6)\--------------6-|-(6)\---------------|
|
|         PM|       ~~~~~~~~~
| +E  E E S S Q.    E   +E   E E E E E E E
|---------------------|--------------------|
|---------------------|--------------------|
|---------------------|--------------------|
|-------------------8-|-(8)----------------|
|-(8)s9s8-9-9-8-------|------6-5-------5-6-|
|-(6)s7s6-7-7-6-------|----------6-6-8-----|


                                                                  Bb5
  +W                   +H                             Q         E E
|-------------------|-----------------------------------------------|
|-------------------|-----------------------------------------------|
|-------------------|-----------------------------------------------|
|-------------------|-----------------------------------------------|
|-(6)---------------|--(6)----------------------------------------8-|
|-------------------|---------------------------------------------6-|
|
|  ~~~~
| +H..        E        +E    +E       +E    +E       +E    +E   E E
|-------------------|-----------------------------------------------|
|-------------------|-----------------------------------------------|
|-------------------|-----------------------------------------------|
|-------------------|-----------------------------------------------|
|-(6)--------[6]b8==|=([6])r([6])b8==([6])r([6])b8==([6])r([6])-0-8-|
|-------------------|---------------------------------------------6-|


 2nd Verse
                     F5                  Eb5
  Gtr I
  +H        E  E +E  E   +Q.     E Q   E E
|----------------------|-------------------|
|----------------------|-------------------|
|----------------------|-------------------|
|----------------------|-----------------8-|
|-(8)-------8--8-(8)s3-|-(3)-----3-3-----6-|
|-(6)-------6--6-(6)s1-|-(1)-----1-1-------|
|
| Gtr II
|         PM                     PM
| +E  E E E Q.       E   +E  E E E Q.    E
|----------------------|-------------------|
|----------------------|-------------------|
|----------------------|-------------------|
|----------------------|-----------------8-|
|-(8)-8---8-8--------3-|-(3)-3---3-3-----6-|
|-(6)-6---6-6--------1-|-(1)-1---1-1-------|
|
| Gtr III
|  W                      W
|----------------------|-------------------|
|----------------------|-------------------|
|----------------------|-------------------|
|----------------------|-------------------|
|----------------------|-------------------|
|----------------------|-------------------|


                                                        Bb5
  +E  E  E E E E  E  E         E    E   E  E    E  E  E  E
|--------------------------|-------------------------------|
|--------------------------|-------------------------------|
|--------------------------|-------------------------------|
|-(8)-8-10-8-8-8-10--8-----|---8----8--10--8----8--8-------|
|-(6)-6--6-6-6-6--6--6-----|---6----6---6--6----6--6-----8-|
|--------------------------|-----------------------------6-|
|
|        PM|   PM|                  PM-------|
| +E  E  E E E E  E  E        +E    E   E  S S  E  E  E  E
|--------------------------|-------------------------------|
|--------------------------|-------------------------------|
|--------------------------|-------------------------------|
|-(8)-8--8-8-8-8--8--8-----|--(8)---8---8--8-8--8--7-------|
|-(6)-6--6-6-6-6--6--6-----|--(6)---6---6--6-6--6--5--0--8-|
|--------------------------|-----------------------------6-|
|
|  H         Q    E  E        +E   +E   E  E    E  E  E  E
|--------------------------|-------------------------------|
|--------------------------|-------------------------------|
|-------------------17b19==|=(17)r(17)-15------15-17-15----|
|-------------------17b19==|=(17)r(17)----17------------17-|
|--------------------------|-------------------------------|
|--------------------------|-------------------------------|


                            F5                       Eb5
  +H               E  E +E  E    +Q.     E   Q     E E
|-----------------------------|------------------------|
|-----------------------------|------------------------|
|-----------------------------|------------------------|
|-----------------------------|----------------------8-|
|-(8)--------------8--8-(8)s3-|--(3)-----3---3-------6-|
|-(6)--------------6--6-(6)s1-|--(1)-----1---1---------|
|
|              PM                        PM
| +E   E     E E   Q.       E    +E  E E E   Q.      E
|-----------------------------|------------------------|
|-----------------------------|------------------------|
|-----------------------------|------------------------|
|-----------------------------|----------------------8-|
|-(8)--8-------8---8--------3-|--(3)-3---3---3-------6-|
|-(6)--6-------6---6--------1-|--(1)-1---1---1---------|
|
|                  ~~~~~~~~~~~~~~~~~~
|  E   Q.         +H             +H         +H
|-----------------------------|------------------------|
|-----------------------------|------------------------|
|-15--17b19======(17)---------|-(17)-------(17)r\------|
|-----------------------------|------------------------|
|-----------------------------|------------------------|
|-----------------------------|------------------------|


                                                Bb5
  +E  E  E E E E  E E        E   E  E E   E E E E
|-------------------------|---------------------------|
|-------------------------|---------------------------|
|-------------------------|---------------------------|
|-(8)-8-10-8-8-8-10-8-----|--8---8-10-8---8-8---------|
|-(6)-6--6-6-6-6--6-6-----|--6---6--6-6---6-6---8-----|
|-------------------------|---------------------6-----|
|
|        PM|   PM|               PM-----|
| +E  E  E E E E  E E       +E   E  E S S E E E E
|-------------------------|---------------------------|
|-------------------------|---------------------------|
|-------------------------|---------------------------|
|-(8)-8--8-8-8-8--8-8-----|-(8)--8--8-8-8-8-7---------|
|-(6)-6--6-6-6-6--6-6-----|-(6)--6--6-6-6-6-5-0-8-----|
|-------------------------|---------------------6-----|
|
|  H         Q    E E       +Q      E E   E E E E
|-------------------------|---------6-------6---8b10==|
|-------------------9-----|-(9)-------6---9---6-------|
|-------------------8b10==|=(8)r----------------------|
|-------------------------|---------------------------|
|-------------------------|---------------------------|
|-------------------------|---------------------------|


                      F5                   Eb5
  +H         E  E +E  E   +Q.      E Q   E E
|-----------------------|--------------------|
|-----------------------|--------------------|
|-----------------------|--------------------|
|-----------------------|------------------8-|
|-(8)--------8--8-(8)s3-|-(3)------3-3-----6-|
|-(6)--------6--6-(6)s1-|-(1)------1-1-------|
|
|          PM                      PM
| +E   E E E Q.       E   +E   E E E Q.    E
|-----------------------|--------------------|
|-----------------------|--------------------|
|-----------------------|--------------------|
|-----------------------|------------------8-|
|-(8)--8---8-8--------3-|-(3)--3---3-3-----6-|
|-(6)--6---6-6--------1-|-(1)--1---1-1-------|
|
|            ~~
| +Q     E E H            +Q     Q   H
|-(8)r---6---6----------|-(6)\---------------|
|----------9------------|--------------------|
|-----------------------|--------------------|
|-----------------------|--------------------|
|-----------------------|--------------------|
|-----------------------|--------------------|


                                                Bb5
  +E  E  E E E E  E  E     E   E  E E    E E  E  E
|----------------------|---------------------------|
|----------------------|---------------------------|
|----------------------|---------------------------|
|-(8)-8-10-8-8-8-10--8-|---8---8-10-8----8-8-------|
|-(6)-6--6-6-6-6--6--6-|---6---6--6-6----6-6-----8-|
|----------------------|-------------------------6-|
|
|        PM|   PM|             PM-----|
| +E  E  E E E E  E  E    +E   E  E S S  E E  E  E
|----------------------|---------------------------|
|----------------------|---------------------------|
|----------------------|---------------------------|
|-(8)-8--8-8-8-8--8--8-|--(8)--8--8-8-8--8-7-------|
|-(6)-6--6-6-6-6--6--6-|--(6)--6--6-6-6--6-5--0--8-|
|----------------------|-------------------------6-|
|
|  E  E  E E E E  E  E    +E   E  E E    E E  E  E
|----------------------|---------------------------|
|-------------------18-|-(18)-18--------18---18-18-|
|--------x---x-x----18-|-(18)-18--------18---18-18-|
|-----x----x------x----|----------x-x------x-------|
|----------------------|---------------------------|
|----------------------|---------------------------|


                         F5                    Eb5
  +H            E  E +E  E    +Q.      E Q   E E
|--------------------------|---------------------|
|--------------------------|---------------------|
|--------------------------|---------------------|
|--------------------------|-------------------8-|
|-(8)-----------8--8-(8)s3-|--(3)------3-3-----6-|
|-(6)-----------6--6-(6)s1-|--(1)------1-1-------|
|
|           PM                         PM
| +E   E  E E   Q.       E    +E   E E E Q.    E
|--------------------------|---------------------|
|--------------------------|---------------------|
|--------------------------|---------------------|
|--------------------------|-------------------8-|
|-(8)--8----8---8--------3-|--(3)--3---3-3-----6-|
|-(6)--6----6---6--------1-|--(1)--1---1-1-------|
|
|      ~~~~~~~~~~~~
|  E   Q.      +H             +H         H
|--------------------------|---------------------|
|-18-----------------------|---------------------|
|-18-----------------------|---------------------|
|-----20------(20)---------|-(20)\---------------|
|--------------------------|---------------------|
|--------------------------|---------------------|


                                      C5
   E  E E E E E E E   +E  E E E E E E E
|-------------------|--------------------|
|-------------------|--------------------|
|-------------------|-----------------5--|
|--8--8-8-8-8-8-8-8-|-(8)-8-8-8-8-7---5--|
|--6--6-6-6-6-6-6-6-|-(6)-6-6-6-6-5-0-3--|
|-------------------|--------------------|
|
| +E  E E E E E E E   +E  E E E E E E E
|-------------------|--------------------|
|-------------------|--------------------|
|-------------------|-----------------5--|
|-(8)-8-8-8-8-8-8-8-|-(8)-8-8-8-8-7---5--|
|-(6)-6-6-6-6-6-6-6-|-(6)-6-6-6-6-5-0-3--|
|-------------------|--------------------|
|
|  W                   W
|-------------------|--------------------|
|-------------------|--------------------|
|-------------------|--------------------|
|-------------------|--------------------|
|-------------------|--------------------|
|-------------------|--------------------|


                                  F5(type
  Gtr I
  +H..            E    +H..        E
|-------------------|----------------|
|-------------------|----------------|
|-(5)---------------|-------------10-|
|-(5)------------10-|-(10)--------10-|
|-(3)------------10-|-(10)---------8-|
|-----------------8-|--(8)-----------|
|
| Gtr II
| +E   E Q  E Q   E    +H..        E
|-------------------|----------------|
|-------------------|----------------|
|-(5)--5-5--5-5---5-|--(5)--------10-|
|-(5)--5-5--5-5---5-|--(5)--------10-|
|-(3)--3-3--3-3---3-|--(3)---------8-|
|-------------------|----------------|


     2)                                               C5
   +E   E  E  E  E  Q   E    +E  E  E  E   E   Q       E
|-------------------------|-------------------------------|
|-------------------------|-------------------------------|
|-(10)-10-10-10-10-10--10-|-(10)10-10-10--10--10----------|
|-(10)-10-10-10-10-10--10-|-(10)10-10-10--10--10------10--|
|--(8)--8--8--8--8--8---8-|--(8)-8--8--8---8---8------10--|
|-------------------------|----------------------------8--|
|
|  +E   E  E  E  E  Q   E     E  E  E  E  +Q       E   E
|-------------------------|-------------------------------|
|-------------------------|--11p10----------------10------|
|-(10)-10-10-10-10-10--10-|--------10-------------10---5--|
|-(10)-10-10-10-10-10--10-|-----------10-(10)----(10)--5--|
|--(8)--8--8--8--8--8---8-|----------------------------3--|
|-------------------------|-------------------------------|


                                          F5(type
   +H..             E    +H..              E
|---------------------|----------------------|
|---------------------|----------------------|
|---------------------|-------------------10-|
|-(10)-------------10-|-(10)--------------10-|
|-(10)-------------10-|-(10)---------------8-|
|--(8)--------------8-|--(8)-----------------|
|
|  +E   E Q  E Q.         Q.    S S E E E  E
|---------------------|----------------------|
|---------------------|----------------------|
|--(5)--5-5--5-5------|---5---------5-5---10-|
|--(5)--5-5--5-5------|---5-----x-x-5-5---10-|
|--(3)--3-3--3-3------|---3-----x-x-3-3----8-|
|---------------------|----------------------|


     2)                                             Bb5
   +E   E  E  E  E  Q     E    +E    E  E  E  E  Q  E
|---------------------------|-------------------------|
|---------------------------|-------------------------|
|-(10)-10-10-10-10-10----10-|-(10)--10-10-10-10-10----|
|-(10)-10-10-10-10-10----10-|-(10)--10-10-10-10-10--8-|
|--(8)--8--8--8--8--8-----8-|--(8)---8--8--8--8--8--8-|
|---------------------------|-----------------------6-|
|
|  +E   E  E  E  E  E  E  E     H..                 E
|---------------------------|-------------------------|
|---------------------------|-------------------------|
|-(10)-10-10-10-10-10-10-10-|--10---------------------|
|-(10)-10-10-10-10-10-10-10-|--10---------------------|
|--(8)--8--8--8--8--8--8--8-|---8-------------------8-|
|---------------------------|-----------------------6-|


  +Q    Q     Q   E E   +Q    Q     Q   E E
|---------------------|---------------------|
|---------------------|---------------------|
|---------------------|---------------------|
|-(8)\--------------8-|-(8)\--------------8-|
|-(8)\--------------8-|-(8)\--------------8-|
|-(6)\--------------6-|-(6)\--------------6-|
|
|         PM|                   PM|
| +E  E E S S Q.    E   +E  E E S S Q.    E
|---------------------|---------------------|
|---------------------|---------------------|
|---------------------|---------------------|
|---------------------|---------------------|
|-(8)s9s8-9-9-8-----8-|-(8)s9s8-9-9-8-----8-|
|-(6)s7s6-7-7-6-----6-|-(6)s7s6-7-7-6-----6-|


                                          C5
  +Q    Q     Q   E E   +Q    Q     E E E  E
|---------------------|------------------------|
|---------------------|------------------------|
|---------------------|------------------------|
|-(8)\--------------8-|-(8)\--------------10---|
|-(8)\--------------8-|-(8)\----------x-x-10---|
|-(6)\--------------6-|-(6)\---------------8---|
|
|         PM|                   PM|
| +E  E E S S Q.    E   +E  E E S S E E E  E
|---------------------|------------------------|
|---------------------|------------------------|
|---------------------|------------------------|
|---------------------|--------------------5---|
|-(8)s9s8-9-9-8-----8-|-(8)s9s8-9-9-8-8-8--3---|
|-(6)s7s6-7-7-6-----6-|-(6)s7s6-7-7-6-6-6------|


 Bridge
                                           Eb5
   +W                  E  Q    E  +E   Q   E
|-------------------|------------------------|
|-------------------|------------------------|
|-------------------|----------------------8-|
|-(10)--------------|-10-10---10-(10)-10---8-|
|-(10)--------------|-10-10---10-(10)-10---6-|
|--(8)--------------|--8--8----8--(8)--8-----|
|
|  +Q   E E E E E E    E  E E  E   E   E E E
|-------------------|------------------------|
|-------------------|------------------------|
|-------------------|------------------------|
|--(5)------------5-|-------5------5-------8-|
|--(3)--3-3-3-3-3-3-|--3--3-3--3---3---3-3-6-|
|-------------------|------------------------|


                                         Bb5
  +E  Q   E +E  Q  E    Q    Q   E +E  E E
|--------------------|----------------------|
|--------------------|----------------------|
|-(8)-8---8-(8)-8--8-|--8----8---8-(8)------|
|-(8)-8---8-(8)-8--8-|--8----8---8-(8)---8--|
|-(6)-6---6-(6)-6--6-|-(6)---6---6-(6)---8--|
|--------------------|-------------------6--|
|
| +E  E Q    E  Q  E   +E  Q   E E  Q    E
|--------------------|----------------------|
|--------------------|----------------------|
|--------------------|----------------------|
|-(8)---8----8--8--8-|-(8)-8---8-8--6----3--|
|-(6)-6-6----6--6--6-|-(6)-6---6-6--4----1--|
|--------------------|----------------------|


                                    C5
  +H       E E E E   +Q   Q   E E E E
|------------------|------------------|
|------------------|------------------|
|------------------|----------------5-|
|-(8)------8-8-8-8-|-(8)--8---8-8---5-|
|-(8)------8-8-8-8-|-(8)--8---8-8---3-|
|-(6)------6-6-6-6-|-(6)--6---6-6-----|
|
| +Q   E E E E E E    Q   E E E Q   E
|------------------|------------------|
|------------------|------------------|
|------------------|------------------|
|-(3)------------3-|--3-------3-3---5-|
|-(1)--1-1-1-1-1-1-|--1---1-1-1-1---3-|
|------------------|------------------|


  +H        E E E E   +Q     E  E  E  E  E  E
|-------------------|--------------------------|
|-------------------|--------------------------|
|-(5)-------5-5-5-5-|-(5)----------------------|
|-(5)-------5-5-5-5-|-(5)---10-10-10-10-10-10--|
|-(3)-------3-3-3-3-|-(3)---10-10-10-10-10-10--|
|-------------------|--------8--8--8--8--8--8--|
|
| +E  E E E Q   E E    E  E  E  E  E  E  E  E
|-------------------|--------------------------|
|-------------------|--------------------------|
|-------------------|--------------------------|
|-(5)-------5-----5-|--5--5--------5--5-----5--|
|-(3)-3-3-3-3---3-3-|--3--3--3--3--3--3--0--3--|
|-------------------|--------------------------|


                                            Eb5
   +W                   E  Q    E  +E   Q   E
|--------------------|------------------------|
|--------------------|------------------------|
|--------------------|----------------------8-|
|-(10)---------------|-10-10---10-(10)-10---8-|
|-(10)---------------|-10-10---10-(10)-10---6-|
|--(8)---------------|--8--8----8--(8)--8-----|
|
|   E  E E E E E E E    E  E E  E   E   E E E
|--------------------|------------------------|
|--------------------|------------------------|
|--------------------|------------------------|
|---5--------5-----5-|--5--5--------5---6-7-8-|
|---3--3-3-3-3-3-3-3-|--3--3-3--3---3---4-5-6-|
|--------------------|------------------------|


                                          Bb5
  +E  Q   E +E  Q   E    Q    Q   E +E  E E
|---------------------|----------------------|
|---------------------|----------------------|
|-(8)-8---8-(8)-8---8-|--8----8---8-(8)------|
|-(8)-8---8-(8)-8---8-|--8----8---8-(8)---8--|
|-(6)-6---6-(6)-6---6-|-(6)---6---6-(6)---8--|
|---------------------|-------------------6--|
|
| +E  E E E  E  E E E    E  E E E E  E  E E
|---------------------|----------------------|
|---------------------|----------------------|
|---------------------|----------------------|
|-(8)-8------8--8---8-|--8--8-7-8-6--5--4-3--|
|-(6)-6-6-6--6--6-6-6-|--6--6-5-6-4--3--2-1--|
|---------------------|----------------------|


                                     C5                                     D5
  +H       E E E E   +Q    Q   E E E E   +H       E E E E   +E  E E E E E E E
|------------------|-------------------|------------------|--------------------|
|------------------|-------------------|------------------|--------------------|
|------------------|-----------------5-|-(5)------5-5-5-5-|-(5)-6-5-6-5-5---7--|
|-(8)------8-8-8-8-|-(8)---8---8-8---5-|-(5)------5-5-5-5-|-(5)-6-5-6-5-5---7--|
|-(8)------8-8-8-8-|-(8)---8---8-8---3-|-(3)------3-3-3-3-|-(3)-4-3-4-3-3---5--|
|-(6)------6-6-6-6-|-(6)---6---6-6-----|------------------|--------------------|
|
| +Q   E E E E E E    E  E E E E E E E   +Q   E E Q   E E   +Q    E E E E E E
|------------------|-------------------|------------------|--------------------|
|------------------|-------------------|------------------|-----------------7--|
|------------------|-------------------|------------------|-----------------7--|
|-(3)------3-----3-|--3--3-----3-5-7-5-|-(5)------5-----5-|-(5)---5-5-5-5---7--|
|-(1)--1-1-1-1-1-1-|--1--1-1-1-1-3-5-3-|-(3)--3-3-3---3-3-|-(3)---3-3-3-3---5--|
|------------------|-------------------|------------------|--------------------|


  +H      +E  E E E   +H      +E  E E E
|-------------------|-------------------|
|-------------------|-------------------|
|-(7)-----(7)-x-x-7-|-(7)-----(7)-x-x-7-|
|-(7)-----(7)-x-x-7-|-(7)-----(7)-x-x-7-|
|-(5)-----(5)-x-x-5-|-(5)-----(5)-x-x-5-|
|-------------------|-------------------|
|
| +H..            E   +H..            E
|-------------------|-------------------|
|-(7)-------------7-|-(7)-------------7-|
|-(7)-------------7-|-(7)-------------7-|
|-(7)-------------7-|-(7)-------------7-|
|-(5)-------------5-|-(5)-------------5-|
|-------------------|-------------------|


  +Q    E E E E E E   +H      +E  E E E
|-------------------|--------------------|
|-------------------|--------------------|
|-(7)---7-7-7-7-7-7-|-(7)-----(7)-7-7-7--|
|-(7)---7-7-7-7-7-7-|-(7)-----(7)-7-7-7--|
|-(5)---5-5-5-5-5-5-|-(5)-----(5)-5-5-5--|
|-------------------|--------------------|
|
| +H..            E   +H..            E
|-------------------|--------------------|
|-(7)-------------7-|-(7)-------------8--|
|-(7)-------------7-|-(7)-------------7--|
|-(7)-------------7-|-(7)-------------7--|
|-(5)-------------5-|-(5)-------------5--|
|-------------------|--------------------|


                                                                   Bb5
  +H..       E   +H..       E   +W                  +H.          E E
|--------------|--------------|-------------------|-------------------|
|--------------|--------------|-------------------|-------------------|
|-(7)--------7-|-(7)--------7-|-(7)---------------|-(7)---------------|
|-(7)--------7-|-(7)--------7-|-(7)---------------|-(7)---------------|
|-(5)--------5-|-(5)--------5-|-(5)---------------|-(5)------------8--|
|--------------|--------------|-------------------|--------------8-6--|
|
| +H..       E   +W              Q   E E +E  E Q     E  Q  E Q   Q
|--------------|--------------|-------------------|-------------------|
|-(8)--------7-|-(7)----------|-------------------|-------------------|
|-(7)--------7-|-(7)----------|-------------------|-------------------|
|-(7)--------7-|-(7)----------|--7---7-5-(5)-5----|-------------------|
|-(5)--------5-|-(5)----------|--5---5-3-(3)-3-7--|--7--5--5-3--10----|
|--------------|--------------|----------------5--|--5--3--3-1---8----|


 Interlude
                     F5                  Eb5
  Gtr I
  +H        E  E +E  E   +Q.     E Q   E E
|----------------------|-------------------|
|----------------------|-------------------|
|----------------------|-------------------|
|----------------------|-----------------8-|
|-(8)-------8--8-(8)s3-|-(3)-----3-3-----6-|
|-(6)-------6--6-(6)s1-|-(1)-----1-1-------|
|
| Gtr II
|         PM                     PM
|  E  E E E Q.       E   +E  E E E Q.    E
|----------------------|-------------------|
|----------------------|-------------------|
|----------------------|-------------------|
|----------------------|-----------------8-|
|--8--8---8-8--------3-|-(3)-3---3-3-----6-|
|--6--6---6-6--------1-|-(1)-1---1-1-------|
|
| Gtr III
|  W                      W
|----------------------|-------------------|
|----------------------|-------------------|
|----------------------|-------------------|
|----------------------|-------------------|
|----------------------|-------------------|
|----------------------|-------------------|


                                                Bb5
  +E  E  E E E E  E  E     E   E  E E    E E  E  E
|----------------------|---------------------------|
|----------------------|---------------------------|
|----------------------|---------------------------|
|-(8)-8-10-8-8-8-10--8-|---8---8-10-8----8-8-------|
|-(6)-6--6-6-6-6--6--6-|---6---6--6-6----6-6-----8-|
|----------------------|-------------------------6-|
|
|        PM|   PM|             PM-----|
| +E  E  E E E E  E  E    +E   E  E S S  E E  E  E
|----------------------|---------------------------|
|----------------------|---------------------------|
|----------------------|---------------------------|
|-(8)-8--8-8-8-8--8--8-|--(8)--8--8-8-8--8-7-------|
|-(6)-6--6-6-6-6--6--6-|--(6)--6--6-6-6--6-5--0--8-|
|----------------------|-------------------------6-|
|
|  E  E  E E E E  E  E    +E   E  E E    E E  E  E
|----------------------|---------------------------|
|-------------------18-|-(18)-18--------18---18-18-|
|-----x--x-x-x-x--x-18-|-(18)-18--x-x---18-x-18-18-|
|----------------------|---------------------------|
|----------------------|---------------------------|
|----------------------|---------------------------|


                         F5                    Eb5
  +H            E  E +E  E    +Q.      E Q   E E
|--------------------------|---------------------|
|--------------------------|---------------------|
|--------------------------|---------------------|
|--------------------------|-------------------8-|
|-(8)-----------8--8-(8)s3-|--(3)------3-3-----6-|
|-(6)-----------6--6-(6)s1-|--(1)------1-1-------|
|
|           PM                         PM
| +E   E  E E   Q.       E    +E   E E E Q.    E
|--------------------------|---------------------|
|--------------------------|---------------------|
|--------------------------|---------------------|
|--------------------------|-------------------8-|
|-(8)--8----8---8--------3-|--(3)--3---3-3-----6-|
|-(6)--6----6---6--------1-|--(1)--1---1-1-------|
|
|      ~~~~~~~~~~~~
|  E   Q.      +H             +H         H
|--------------------------|---------------------|
|-18-----------------------|---------------------|
|-18-----------------------|---------------------|
|-----20------(20)---------|-(20)\---------------|
|--------------------------|---------------------|
|--------------------------|---------------------|


                                                     Bb5
  +E  E  E E E E  E  E    E    E  E E    E  E  E      E
|----------------------|---------------------------------|
|----------------------|---------------------------------|
|----------------------|---------------------------------|
|-(8)-8-10-8-8-8-10--8-|--8----8-10-8----8--8------------|
|-(6)-6--6-6-6-6--6--6-|--6----6--6-6----6--6---------8--|
|----------------------|------------------------------6--|
|
|        PM|   PM|             PM-----|
| +E  E  E E E E  E  E   +E    E  E S S  E  E  E      E
|----------------------|---------------------------------|
|----------------------|---------------------------------|
|----------------------|---------------------------------|
|-(8)-8--8-8-8-8--8--8-|-(8)---8--8-8-8--8--7------------|
|-(6)-6--6-6-6-6--6--6-|-(6)---6--6-6-6--6--5--0------8--|
|----------------------|------------------------------6--|
|
|  H         Q    E  E    Q       Q      E  E  E      E
|----------------------|-18b20---18-----16---------------|
|-------------------15-|-------------------18-16b17==16r-|
|----------------------|---------------------------------|
|----------------17----|---------------------------------|
|----------------------|---------------------------------|
|----------------------|---------------------------------|


                          F5                    Eb5
  +H             E  E +E  E    +Q.      E Q   E E
|---------------------------|---------------------|
|---------------------------|---------------------|
|---------------------------|---------------------|
|---------------------------|-------------------8-|
|-(8)------------8--8-(8)s3-|--(3)------3-3-----6-|
|-(6)------------6--6-(6)s1-|--(1)------1-1-------|
|
|            PM                         PM
| +E     E E E   Q.       E    +E   E E E Q.    E
|---------------------------|---------------------|
|---------------------------|---------------------|
|---------------------------|---------------------|
|---------------------------|-------------------8-|
|-(8)----8---8---8--------3-|--(3)--3---3-3-----6-|
|-(6)----6---6---6--------1-|--(1)--1---1-1-------|
|
|                ~~~~~~~~~~~~~~~~~~~
|  H            +H             +W
|---------------------------|---------------------|
|---------------------------|---------------------|
|-18b19========(18)---------|-(18)r---------------|
|---------------------------|---------------------|
|---------------------------|---------------------|
|---------------------------|---------------------|


                                            Bb5
  +E E  E E E E  E E    E  E  E E   E  E E  E
|--------------------|------------------------|
|--------------------|------------------------|
|--------------------|------------------------|
|-(8)8-10-8-8-8-10-8-|--8--8-10-8---8--8------|
|-(6)6--6-6-6-6--6-6-|--6--6--6-6---6--6----8-|
|--------------------|----------------------6-|
|
|       PM|   PM|          PM-----|
| +E E  E E E E  E E   +E  E  E S S E  E E  E
|--------------------|------------------------|
|--------------------|------------------------|
|--------------------|------------------------|
|-(8)8--8-8-8-8--8-8-|-(8)-8--8-8-8-8--7------|
|-(6)6--6-6-6-6--6-6-|-(6)-6--6-6-6-6--5-0--8-|
|--------------------|----------------------6-|
|
|  W                    H           Q    Q
|--------------------|------------------------|
|--------------------|------------------------|
|--------------------|-------------------x/---|
|--------------------|--------------xs===x/---|
|--------------------|--------------x/--------|
|-18s================|==6\--------------------|


                     F5                  Eb5
  Gtr I
  +H        E  E +E  E   +Q.     E Q   E E
|----------------------|-------------------|
|----------------------|-------------------|
|----------------------|-------------------|
|----------------------|-----------------8-|
|-(8)-------8--8-(8)s3-|-(3)-----3-3-----6-|
|-(6)-------6--6-(6)s1-|-(1)-----1-1-------|
|
| Gtr II
|         PM                     PM
| +E  E E E Q.       E   +E  E E E Q.    E
|----------------------|-------------------|
|----------------------|-------------------|
|----------------------|-------------------|
|----------------------|-----------------8-|
|-(8)-8---8-8--------3-|-(3)-3---3-3-----6-|
|-(6)-6---6-6--------1-|-(1)-1---1-1-------|


                                      C5
   E  E E E E E E E   +E  E E E E E E E
|-------------------|--------------------|
|-------------------|--------------------|
|-------------------|-----------------5--|
|--8--8-8-8-8-8-8-8-|-(8)-8-8-8-8-7---5--|
|--6--6-6-6-6-6-6-6-|-(6)-6-6-6-6-5-0-3--|
|-------------------|--------------------|
|
| +E  E E E E E E E   +E  E E E E E E E
|-------------------|--------------------|
|-------------------|--------------------|
|-------------------|-----------------5--|
|-(8)-8-8-8-8-8-8-8-|-(8)-8-8-8-8-7---5--|
|-(6)-6-6-6-6-6-6-6-|-(6)-6-6-6-6-5-0-3--|
|-------------------|--------------------|


                                  F5(type
  +H..            E    +H..        E
|-------------------|----------------|
|-------------------|----------------|
|-(5)---------------|-------------10-|
|-(5)------------10-|-(10)--------10-|
|-(3)------------10-|-(10)---------8-|
|-----------------8-|--(8)-----------|
|
| +E   E Q  E Q   E    +H..        E
|-------------------|----------------|
|-------------------|----------------|
|-(5)--5-5--5-5---5-|--(5)--------10-|
|-(5)--5-5--5-5---5-|--(5)--------10-|
|-(3)--3-3--3-3---3-|--(3)---------8-|
|-------------------|----------------|


     2)                                               C5
   +E   E  E  E  E  Q   E    +E  E  E  E   E   Q       E
|-------------------------|-------------------------------|
|-------------------------|-------------------------------|
|-(10)-10-10-10-10-10--10-|-(10)10-10-10--10--10----------|
|-(10)-10-10-10-10-10--10-|-(10)10-10-10--10--10------10--|
|--(8)--8--8--8--8--8---8-|--(8)-8--8--8---8---8------10--|
|-------------------------|----------------------------8--|
|
|  +E   E  E  E  E  Q   E     E  E  E  E  +Q       E   E
|-------------------------|-------------------------------|
|-------------------------|--11p10----------------10------|
|-(10)-10-10-10-10-10--10-|--------10-------------10---5--|
|-(10)-10-10-10-10-10--10-|-----------10-(10)----(10)--5--|
|--(8)--8--8--8--8--8---8-|----------------------------3--|
|-------------------------|-------------------------------|


                                          F5(type
   +H..             E    +H..              E
|---------------------|----------------------|
|---------------------|----------------------|
|---------------------|-------------------10-|
|-(10)-------------10-|-(10)--------------10-|
|-(10)-------------10-|-(10)---------------8-|
|--(8)--------------8-|--(8)-----------------|
|
|  +E   E Q  E Q.         Q.    S S E E E  E
|---------------------|----------------------|
|---------------------|----------------------|
|--(5)--5-5--5-5------|---5---------5-5---10-|
|--(5)--5-5--5-5------|---5-----x-x-5-5---10-|
|--(3)--3-3--3-3------|---3-----x-x-3-3----8-|
|---------------------|----------------------|


     2)                                             Bb5
   +E   E  E  E  E  Q     E    +E    E  E  E  E  Q  E
|---------------------------|-------------------------|
|---------------------------|-------------------------|
|-(10)-10-10-10-10-10----10-|-(10)--10-10-10-10-10----|
|-(10)-10-10-10-10-10----10-|-(10)--10-10-10-10-10--8-|
|--(8)--8--8--8--8--8-----8-|--(8)---8--8--8--8--8--8-|
|---------------------------|-----------------------6-|
|
|  +E   E  E  E  E  E  E  E     H..                 E
|---------------------------|-------------------------|
|---------------------------|-------------------------|
|-(10)-10-10-10-10-10-10-10-|--10---------------------|
|-(10)-10-10-10-10-10-10-10-|--10---------------------|
|--(8)--8--8--8--8--8--8--8-|---8-------------------8-|
|---------------------------|-----------------------6-|


  +Q    Q     Q   E E   +Q    Q     Q   E E
|---------------------|---------------------|
|---------------------|---------------------|
|---------------------|---------------------|
|-(8)\--------------8-|-(8)\--------------8-|
|-(8)\--------------8-|-(8)\--------------8-|
|-(6)\--------------6-|-(6)\--------------6-|
|
|         PM|                   PM|
| +E  E E S S Q.    E   +E  E E S S Q.    E
|---------------------|---------------------|
|---------------------|---------------------|
|---------------------|---------------------|
|---------------------|---------------------|
|-(8)s9s8-9-9-8-----8-|-(8)s9s8-9-9-8-----8-|
|-(6)s7s6-7-7-6-----6-|-(6)s7s6-7-7-6-----6-|


                                          C5
  +Q    Q     Q   E E   +Q    Q     Q   E  E
|---------------------|------------------------|
|---------------------|------------------------|
|---------------------|------------------------|
|-(8)\--------------8-|-(8)\--------------10---|
|-(8)\--------------8-|-(8)\--------------10---|
|-(6)\--------------6-|-(6)\---------------8---|
|
|         PM|                   PM|
| +E  E E S S Q.    E   +E  E E S S Q.     E
|---------------------|------------------------|
|---------------------|------------------------|
|---------------------|------------------------|
|---------------------|------------------------|
|-(8)s9s8-9-9-8-----8-|-(8)s9s8-9-9-8-----10---|
|-(6)s7s6-7-7-6-----6-|-(6)s7s6-7-7-6------8---|


  Gtr I
   +Q      Q        Q   E  E    +Q      Q        Q   E  E
|----------------------------|----------------------------|
|----------------------------|----------------------------|
|----------------------------|----------------------------|
|-(10)\-------------------10-|-(10)\-------------------10-|
|-(10)\-------------------10-|-(10)\-------------------10-|
|--(8)\--------------------8-|--(8)\--------------------8-|
|
| Gtr II
|             PM|                          PM|
|  +E   E  E  S  S  Q.     E    +E   E  E  S  S  Q.     E
|----------------------------|----------------------------|
|----------------------------|----------------------------|
|----------------------------|----------------------------|
|----------------------------|----------------------------|
|-(10)s11s10-11-11-10-----10-|-(10)s11s10-11-11-10-----10-|
|--(8)s=9s=8--9--9--8------8-|--(8)s=9s=8--9--9--8------8-|
|
| Gtr III
|   W                            W
|----------------------------|----------------------------|
|----------------------------|----------------------------|
|----------------------------|----------------------------|
|----------------------------|----------------------------|
|----------------------------|----------------------------|
|----------------------------|----------------------------|


                                                       D5
   +Q      Q        Q   E  E    +Q      Q        Q   E  E
|----------------------------|------------------------------|
|----------------------------|------------------------------|
|----------------------------|--------------------------7---|
|-(10)\-------------------10-|-(10)\--------------------7---|
|-(10)\-------------------10-|-(10)\--------------------5---|
|--(8)\--------------------8-|--(8)\------------------------|
|
|             PM|                          PM|
|  +E   E  E  S  S  Q.     E    +E   E  E  S  S  E E E  E
|----------------------------|------------------------------|
|------------------
8 comments total. Showing first comments.
0 reply
rayIII wrote on July 1 2006, 09:46 pm

THANK YOU. It's about time someone tabbed out the entire song... with IMO one of the most underrated riffs of all time... ***** (5 stars not wh0re lol)

0 reply
Rib5 wrote on August 8 2006, 10:55 pm

This song is just ****ing amazing

0 reply
slash&angus wrote on September 20 2006, 03:33 pm

great job i'm goiing to check it i'll give you five points for all your hard work:) go guns n' roses and buckethead_jr

I want to post or [tab]
guest
You may want to rate the tab now too:
select rating
Please do not post tabs as comments. Select "correction" instead!