Oops, an error
Loading. Please wait.

Gnr Lies Tab

41,578 views 12 this week
2 commentsread comments
1 2 3 4 5
accurate
x 9
Autoscroll
+/-
esc
set tempo
stop
Contributor
Hey! There's an official Ultimate Guitar app which is ideal
for learning songs when you're away from computer. Get the app
WARNING: You are trying to view
                                    content from Ultimate-Guitar.com
                                    in an unauthorized application,
                                    which is prohibited.

                                    Please use an official Ultimate
                                    Guitar Tabs application for iPhone,
                                    iPad or Android to access legitimate
                                    chords, guitar, bass, and drum tabs
                                    from Ultimate-Guitar.com database.

                                    Type "ultimate guitar tabs" in Apple
                                    App Store's or Android Market's
                                    search to find the application.
Band- Guns N' Roses
Album- GNR Lies

1.Reckless Life
2.Nice Boys
3.Move To The City
4.Mama Kin
5.Patience
6.Used To Love Her
7.You're Crazy
8.One In A Million

1.RECKLESS LIFE

Don't Know

2.NICE BOYS

intro
e-----------------------------------------------------------------------|
b-/16-16-16-16-16--------------14------14---------------9------9--------|
g-/16-16-16-16----16---------------14------14---------9---9------8/9----|
d-/16-16-16-16-------16\--/14-----------------14\--/9-------9---------9-|
a-----------------------------------------------------------------------|
e-----------------------------------------------------------------------|

e---------------------------------------------------------------------------|
b-9--9--------/16-16-16-16--------------/14-14-14-14-----------20/21--------|
g-9--9--8/9---/16-16-16-16----16--------/14-14-14-14--14-------------21-----|
d-------------/16-16-16-16-------16\----/14-14-14-14------14/-----------21\-|
a---------------------------------------------------------------------------|
e---------------------------------------------------------------------------|

e----------------------------------------------------------------|
b-20/21---------/16-16-16-16--------------/14-14-14-14-----------|
g-------21------/16-16-16-16----16--------/14-14-14-14--14-------|
d----------21\--/16-16-16-16-------16\----/14-14-14-14------14/--|
a----------------------------------------------------------------|
e----------------------------------------------------------------|

e-----------------9\7-(7)\----------------------------------------------------------------|
b-------9-(9)\-------------9\7---7/9--/16-16-16-16------------/14-------14-14----21-21~~~-|
g-9\7----------9---------------9------/16-16-16-16----16------/14-14-------14-------------|
d-----9-------------------------------/16-16-16-16-------16\--/14----14----14/21----------|
a-----------------------------------------------------------------------------------------|
e-----------------------------------------------------------------------------------------|

verse 1,2,3
B5                  A5           E5                                 A5 B5
she hit town like a rose in bloom, smellin sweet said sweet perfume
                         A5        E5                             A5 D
the colour faded and the petals died,down in the city no one cried
                              E5(7)           E    E5(7)  E
in the streets the garbage lies protected by a million flies
    B5                      A5                 E5
the roaches so big you know that they got bones
     E6  E E5      E6  E E5   E6   E5
theY moved in and made a tenement home

CHORUS:
    A5  B5                           A5   B A B A A
i said nice boys don't play rock and roll
B5                              A5           E5
nice boys don't play rock and roll i'm not a nice boy
    A5  B5                           A5   B A B A A
i said nice boys don't play rock and roll
B5                              A5           E5
nice boys don't play rock and roll i'm not a nice boy and i never was

[VERSE 2]

[CHORUS]

slide guitar solo
e------------------------------------------------------------------------------|
b------------------------------------------------------------------------------|
g-16\14--------14~~~-14-------14\13-------14--14-------------------------------|
d-------14/16-----------14-14-------13/14--------14-14-14\12-------14-14-------|
a------------------------------------------------------------12/14-------14-14-|
e------------------------------------------------------------------------------|

e--------------------------------------------------------------------------|
b-8/9----9-(9)/--------------16---------------------14------------------21-|
g-8/9--9--------16\14-----------16-----14\13-----------14------------21-21-|
d---------------------14/16--------16\-------13/14--------14\--14/21-------|
a--------------------------------------------------------------------------|
e--------------------------------------------------------------------------|

e-----------------------------------------------------------------------|
b----------19/21---------------17/18--(18)/(19)-------16-(16)/17--19/21-|
g-21----21-------21------19/20------------------17/18-------------------|
d----21-------------21\-------------------------------------------------|
a-----------------------------------------------------------------------|
e-----------------------------------------------------------------------|

e------------------24--24\-------------------17-------/19/24--(24)~~~~~-|
b---------------------------/16/19-19\-16/17-----17\------24--(24)------|
g-21--------------------------------------------------------------------|
d----21\19/21/x/--------------------------------------------------------|
a-----------------------------------------------------------------------|
e-----------------------------------------------------------------------|

[verse 3]

[chorus] 3x

3.MOVE TO THE CITY

Intro: Gtr.1
|-----------------------12-(12)----------------------12-(12)-|
|-x---x--x-x--x---x-x-x-12-(12)---14qb-12-14qb-12-14-12-(12)-|
|-x---x--x-x--x---x-x-x-12-(12)---14qb-12-14qb-12-14---------|
|------------------------------------------------------------|
|------------------------------------------------------------|
|------------------------------------------------------------|

|---------------------12--(12)------------------------------------12-(12)--|
|-14qbp12-14qbp12-14--12--(12)-14-12-14qb-12-14-12--12--12--x--x--12-(12)--|
|-14qbp12-14qbp12-14-----------14-12-14qb-12-14-12--12--12--x--x--12-(12)--|
|--------------------------------------------------------------------------|
|--------------------------------------------------------------------------|
|--------------------------------------------------------------------------|

|---------------------12-(12)----------------------12---(12)--|
|--14qb-12-14qb-12-14-12-(12)--14qbp12-14qbp12-14--12---(12)--|
|--14qb-12-14qb-12-14----------14qbp12-14qbp12-14-------------|
|-------------------------------------------------------------|
|-------------------------------------------------------------|
|-------------------------------------------------------------|

|------------------------------------------------12-(12)-12------------12-(12)-|
|-14qb-12-14qb-12-14p12-14hb-(14)-------rbp12-14-12-(12)-12-14-x-12-14-12-(12)-|
|-14qb-12-14qb-12-14p12-14fb-(14)-------rbp12-14-12-(12)----14-x-12-14-12-(12)-|
|------------------------------------------------------------------------------|
|------------------------------------------------------------------------------|
|------------------------------------------------------------------------------|

|----------------------12-(12)----------------------------------12-(12)-|
|-14qbp12-14qb-12-14qb-12-(12)-14-12-14qb-12-14-12--12--12--x-x-12-(12)-|
|-14qbp12-14qb-12-14qb---------14-12-14qb-12-14-12--12--12--x-x-12-(12)-|
|-----------------------------------------------------------------------|
|-----------------------------------------------------------------------|
|-----------------------------------------------------------------------|

|-----------------------12-(12)------------------12-14-12--12-(12)\---------------|
|----14qb-12-14qb-12-14-12-(12)-14-12-14qb-12-14-12----12--12-(12)\---0-3p2p0-----|
|----14qb-12-14qb-12-14---------14-12-14qb-12-14------------------------------2p0-|
|---------------------------------------------------------------------------------|
|---------------------------------------------------------------------------------|
|---------------------------------------------------------------------------------|

|---------------------------------------------------------------------------------------|
|-------------------9-9-----9-9----10-9--9-9--------------------------------------------|
|-------------------9-9-x-x-9-9-x-x-9-9--9-9--7-(7)-7-7-6--6-6-4-(4)-4-4---7--7-8-9-(9)-|
|-0-2p0-------------9-9-x-x-9-9-x-x-9-9--9-9--7-(7)-7-7-6--6-6-4-(4)-4-4---7--7-8-9-(9)-|
|-------0-----------7-7-x-x-7-7-x-x-7-7--7-7--5-(5)-5-5-4--4-4-2-(2)-2-2---5--5-6-7-(7)-|
|---------3qb-0-(0)---------------------------------------------------------------------|

|------------------------------------------------------------------------|
|-----9-------9-9-(9)---9-9-9-9------------------------------------------|
|-----9-------9-9-(9)---9-9-9-9----7-(7)-7-7-6--6-6-4-(4)-4-4---7--7-8-9-|
|-x-x-9--x-x--9-9-(9)-x-9-9-9-9----7-(7)-7-7-6--6-6-4-(4)-4-4---7--7-8-9-|
|-x-x-7--x-x--7-7-(7)-x-7-7-7-7----5-(5)-5-5-4--4-4-2-(2)-2-2---5--5-6-7-|
|------------------------------------------------------------------------|
                                                           trem.bar
 Guitar solo:                                                     \2 1/2
|---------------------------2-------2----------------------\--/--------------------------|
|-------------------------2---2-5fb---5-2-4hb---------------\/----/\---------------------|
|-4fb(slow bend)--4fb-(4)-----------------4hb--4fb-----(4)-------4---4hbrp2-4fb-2-(2)~~~-|
|----------------------------------------------------------------------------------------|
|----------------------------------------------------------------------------------------|
|----------------------------------------------------------------------------------------|

|------------------------------------------------------------------------------------|
|------------------------------------------------------------------------------------|
|-2-4p2------------------------------------------------------------------------16----|
|-------2--4p2---4----2-----2-------4-----------2/4--(4)~~~~-4\----14-16p14-16----16-|
|--------------4----3---3h4----3p2----4\2----------------------/16-------------------|
|------------------------------------------5-2---------------------------------------|

|------------14-----------14-----------------------|
|---------14----14--17fb-----17-14----------17fbr--|
|-14-16fb--------------------------16fbr-14--------|
|--------------------------------------------------|
|--------------------------------------------------|
|--------------------------------------------------|

4.MAMA KIN

Intro
|-----------|------------------------------------------------------|
|-----------|------------------------------------------------------|
|--x--x--x--|---9--9--9--9--9--------------------------------------|
|--x--x--x--|---9--9--9--9--9----9--9--9--9--9----7--7--7--7--7----|
|--x--x--x--|---7--7--7--7--7----9--9--9--9--9----7--7--7--7--7----|
|-----------|--------------------7--7--7--7--7----5--5--5--5--5----|

For the verses you play: (thanks Monica)
|-------------------------------------------------|
|-------------------------------------------------|
|-------------------------------------------------|
|--2-2--4--2-2---5-4--2-2-4-2-2-------------------|
|--2-2--4--2-2---5-4--2-2-4-2-2-------------------|
|-------------------------------------------------|

Chorus           Keepin' touch with mama kin...
|---------------|-----------------------------------|
|---------------|-----------------------------------|
|---------------|---------------------------9-------|
|-----2--2--2---|---------------------9--9--9-------|
|-----2--2--2---|---------------------9--9--7-------|
|-----0--0--0---|---------------------7--7----------|

Chords:
First verse:

E5            B5.                   A5                       E5.
it ain't easy livin' like a gypsy  tell ya honey how it feels

E5                  B5                      A5                            E5
i've been dreaming floatin' down stream and losin' touch with all that's real

                  B5                  A5                      E
whole lotta lover keepin' under cover never knowin' where you been

         E5                  B5                 A5
oo yeah  you've been fadin' always out paradin' keep in touch with mama

  E  F#5 G5 G#5   A5                            E5             A5
kin            you always got your tail on the wag    spittin' fire from your

               E5          F#5 G5 G#5    A5                    E5
mouth just like a drag - on         you act like a perpetual drag

   F#5
you better check it out cause someday soon you'll have to climb back on the

B5
wag - on.

 Guitar solo:
|-17--------17--------17--------17-17--------17--------17--------17--------17---------|
|----20p17-----20p17-----20p17--------20p17-----20p17-----20p17-----20p17-----20p17---|
|-------------------------------------------------------------------------------------|
|-------------------------------------------------------------------------------------|
|-------------------------------------------------------------------------------------|
|-------------------------------------------------------------------------------------|

|------------------------------------------------------------------------------17----20~~~|
|-17h20p17----17h20p17----17h20p17----17------------------------------------17----17-19~~~|
|----------20----------20----------20----20p19-17----19p17h18-19-17h18-17h18--------------|
|-------------------------------------------------19--------------------------------------|
|-----------------------------------------------------------------------------------------|
|-----------------------------------------------------------------------------------------|

Chords used : E5 = X799XX  B5 = 799XXX  F#5 = 244XXX  G5 = 355XXX  G#5 = 466XXX

5.PATIENCE

Quarter=120=----

>C---------------|----------------|G---------------|----------------|
>                |                |                |                |
>------0---0-----|----------------|----------------|----------------|
>------1---1-1-1-|3p1-1-0h1-1-1p0-|------0---------|1p0-------------|
>----0-------0-0-|0---0-0---0-0---|----0-----0-----|----0-2p0---0h2-|
>2-2---------2-2-|2---2-2---2-2---|--0---------0---|----------0-0h2-|
>3-----------3-3-|3---3-3---3-3---|2-------------2-|----------------|
>----------------|----------------|----------------|----------------|
>
>
>
>Av--------------|----------------|D---------------|----------------|
>                |                |                |                |
>----------------|----------------|2---2---2-2-----|3p2-2-0---2-----|
>----2---------0-|3p2---0h2-2-----|3-3---3-----3-3-|3---3-3---3-----|
>------2---2-----|----2-0h2-2-2-0-|2-------------2-|2---2-2---2-----|
>--------2---2---|----2-------2-0-|0-------------0-|0---0-0---0-----|
>0---------------|----------------|----------------|------------0-2-|
>----------------|----------------|----------------|----------------|
>                |                |                |                |
>----------------|----------------|----------------|----------------|
>----------------|----------------|----------------|----------------|
>----------------|----------------|----------------|------------7---|
>----------------|----------------|----------------|----------------|
>----------------|----------------|----------------|----------------|
>----------------|----------------|----------------|----------------|
>
>
>
>C---------------|----------------|G---------------|----------------|
>                |                |                |                |
>------0---0-----|----------------|----------------|----------------|
>------1---1-1-1-|3p1-1-0h1-1-1p0-|------0---------|1p0-------------|
>----0-------0-0-|0---0-0---0-0---|----0-----0-----|----0-2p0---0h2-|
>2-2---------2-2-|2---2-2---2-2---|--0---------0---|----------0-0h2-|
>3-----------3-3-|3---3-3---3-3---|2-------------2-|----------------|
>----------------|----------------|----------------|----------------|
>                |                |                |                |
>----------------|----10----------|--7-8-9-10------|----------------|
>8-------------8-|1012--10--8-108-|10^-------10^-8-|------------10--|
>----------------|------**--------|----------------|--------------9-|
>----------------|----------------|----------------|----------------|
>----------------|----------------|----------------|----------------|
>----------------|----------------|----------------|----------------|
>
>
>Av--------------|----------------|D---------------|----------------|
>                |                |                |                |
>----------------|----------------|2---2---2-2-----|3p2-2-0---2-----|
>----2---------0-|3p2---0h2-2-----|3-3---3-----3-3-|3---3-3---3-----|
>------2---2-----|----2-0h2-2-2-0-|2-------------2-|2---2-2---2-----|
>--------2---2---|----2-------2-0-|0-------------0-|0---0-0---0-----|
>0---------------|----------------|----------------|------------0-2-|
>----------------|----------------|----------------|----------------|
>                |                |                |                |
>------------7s8s|9---------------|--10----8-----7-|----7s5---------|
>10--------------|----------------|----------------|8---------------|
>------------7s8s|9---------------|11----9-----7---|--7--s5---------|
>----------------|----------------|----------------|----------------|
>----------------|----------------|----------------|----------------|
>----------------|----------------|----------------|----------------|
>
>
>
>C---/---/-/-/-G6|G-/-/-/-/-/-/-/-|C---/-/-/-/-/-G6|Em--/-/-/-/-/-G6|
>                |                |                |                |
>------0---------|----------------|----------------|----------------|
>----1---3p1-----|----------------|------1---------|----------------|
>--0-----------0-|------0---------|----0---0-------|------0---------|
>2-----------2---|----0-----0-----|--2-------2-----|----2-----------|
>3---------------|--2---------2---|3---------------|--2-------------|
>----------------|3-------------3-|------------3-2-|0---------------|
>
>
>C---/-/-/-/-/-G6|G---/-/-/-/-/-G6|D---------------|----------------|
>                |                |                |                |
>----------------|----------------|------2---------|----------------|
>------1---------|--------0-------|3---------------|----------------|
>----0---0-------|------0---0-----|2---------------|----------------|
>--2-------2-----|----0-------0---|0---------------|----------------|
>3-----------3-2-|2-2-------------|----------------|----------------|
>----------------|3---------------|----------------|----------------|
>
>
>
>
>    Shed a tear...
>----------------|----------------|----------------|----------------|
>------1---1-1-1-|3p1---0---1-----|----------------|----------------|
>----0-----0-0-0-|0-----------0---|----------------|--------0-----0-|
>--2-------2-2-2-|2---------------|----------------|----0-----0-2-0-|
>3---------3-3-3-|3---3---------3-|2-------2-0-----|----2-0---------|
>----------------|----------------|----------------|3---------------|
>                |                |                |                |
>----------------|----------------|----------------|----------------|
>------1---------|3-1---1---------|----------------|----------------|
>----0-----------|----0---0-------|------0---------|------0---------|
>--2-------------|----------2-----|----0-----------|----0---0-----0-|
>3---------------|------------3-0-|2---------0-----|--2-------2-----|
>----------------|----------------|--------------3-|3-----------3---|
>
>
>
>--------5-------|----------------|----------------|----------------|
>------2---------|3p2---0---2-----|----------------|----------------|
>----2-----------|----------------|----------------|--2---2-4-2-----|
>2---------------|----2-----------|0-------------0s|4-----------4---|
>0---------------|----------0-3-4-|----------------|--------------0-|
>----------------|----------------|----------------|----------------|
>                |                |                |                |
>------5---------|5-----5---------|------0-2-------|3-2-----0-2-----|
>----5---5-------|5-------5-------|----3-----------|----------------|
>--6-------------|7---------------|----------------|----------------|
>7-----------7---|----------------|0-------------0-|----------------|
>----------------|----------0-3-4-|----------------|----------------|
>----------------|----------------|----------------|----------------|
>
>
>    Was a time...
>----------------|----------------|----------------|----------------|
>------1---1-1-1-|3p1---0---1-----|----------------|----------------|
>----0-----0-0-0-|0-----------0---|----------------|--------0-----0-|
>--2-------2-2-2-|2---------------|----------------|----0-----0-2-0-|
>3---------3-3-3-|3---3---------3-|2-------2-0-----|----2-0---------|
>----------------|----------------|----------------|3---------------|
>                |                |                |                |
>----------------|----------------|----------------|----------------|
>------1---------|3-1---1---------|----------------|----------------|
>----0-----------|----0---0-------|------0---------|------0---------|
>--2-------------|----------2-----|----0-----------|----0---0-----0-|
>3---------------|------------3-0-|2---------0-----|--2-------2-----|
>----------------|----------------|--------------3-|3-----------3---|
>
>
>
>
>--------5-------|----------------|------0-2-------|3-2---0-0-2-----|
>------2---------|3p2---0---2-----|----3-----3-----|------3-3-3---0-|
>----2-----------|----------------|------------2---|--------2-2-2---|
>2---------------|----2-----------|0-------------0-|----------------|
>0---------------|----------0-3-4-|----------------|----------------|
>----------------|----------------|----------------|----------------|
>                |                |                |                |
>------5---------|5-----5---------|----2---2-------|----------------|
>----5---5-------|5-------5-------|------3---3-----|3-----3---3-3-0-|
>--6-------------|7---------------|------------2-0-|----------2-2-0-|
>7-----------7---|----------------|0---------------|----------0-0-0-|
>----------------|----------0-3-4-|----------------|----------------|
>----------------|----------------|----------------|----------------|
>
>CHORUS
>    Said woman, take it slow...
>C9--/---/-/-/-G6|G---/---/-/-/-G6|C---/-/-/-/-/-G6|Em--/---/-/-/-G6|
>                |                |                |                |
>----------------|--------3-------|----------------|------0---------|
>1-------1-------|3-3-0-0---3---0-|----1-----------|----0---0-------|
>0-------0-------|0-----------0---|0---0-----------|----------0---0-|
>2-------2-------|0---------------|2---2-----------|--2---------2---|
>3-------3-------|2---------------|3---3-----------|----------------|
>----------------|3---------------|------------3-2-|0---------------|
>
>
>C---/---/-/-/-G6|G---/---/-/-/-/-| Same as tabbed | guitar---------|
>                |                |                |                |
>------0---------|----------------|2---2---0-2---3-|--2---0---2-----|
>------1---1-1-0-|--------------0-|3---3(3)3-3---3-|3-3-3-3-3-3-3-0-|
>--0---0---0-0-0-|0-----0-------0-|2---2(2)2-2---2-|2-2-2-2-2-2-2-0-|
>2---2-----2-2-0-|0---0-----0---0-|0---0(0)0-0---0-|0-0-0-0-0-0-0-0-|
>3---3-----3-3---|2-----------2---|----------------|----------------|
>----------------|3---------------|----------------|----------------|
>
>C9--/---/-/-/-G6|G---/---/-/-/-G6|C---/-/-/-/-/-G6|Em--/---/-/-/-G6|
>                |                |                |                |
>----------------|--------3-------|----------------|------0---------|
>1-------1-------|3-3-0-0---3---0-|----1-----------|----0---0-------|
>0-------0-------|0-----------0---|0---0-----------|----------0---0-|
>2-------2-------|0---------------|2---2-----------|--2---------2---|
>3-------3-------|2---------------|3---3-----------|----------------|
>----------------|3---------------|------------3-2-|0---------------|
>
>                                  Figure 1            (end Figure 1)
>C---/---/-/-/-G6|G---/---/-/-/-/-|D---------------|--------------//|
>                |                |                |                |
>------0---------|----------------|2---2---0-2---3-|--2---0---2---22|
>------1---1-1-0-|--------------0-|3---3(3)3-3-3-3-|3-3-3-3-3-3-3-33|
>--0---0---0-0-0-|0-----0-------0-|2---2(2)2-2-2-2-|2-2-2-2-2-2-2-22|
>2---2-----2-2-0-|0---0-----0---0-|0---0(0)0-0-0-0-|0-0-0-0-0-0-0-00|
>3---3-----3-3---|2-----------2---|----------------|----------------|
>----------------|3---------------|----------------|----------------|
>
>
>2---------------|----------------|----10----------|----------------|
>3---------------|--------------5s|10--------------|----------------|
>2---------------|--------------6s|11--------------|--------------7s|
>0---------------|--------------7s|12--------------|----------------|
>----------------|----------------|----------------|----------------|
>----------------|----------------|----------------|----------------|
>                |                |                |                |
>2---2---0-2---3-|--2---0---2---22|2---2---0-2---3-|--2---0---2---22|
>3---3(3)3-3-3-3-|3-3-3-3-3-3-3-33|3---3(3)3-3-3-3-|3-3-3-3-3-3-3-33|
>2---2(2)2-2-2-2-|2-2-2-2-2-2-2-22|2---2(2)2-2-2-2-|2-2-2-2-2-2-2-22|
>0---0(0)0-0-0-0-|0-0-0-0-0-0-0-00|0---0(0)0-0-0-0-|0-0-0-0-0-0-0-00|
>----------------|----------------|----------------|----------------|
>----------------|----------------|----------------|----------------|
>
>
>______________________
>| 1.
>----14--------14|----14--14--14\-|
>----------------|--14--14--14----|
>14--------14----|----------------|
>----------------|----------------|
>----------------|----------------|
>----------------|----------------|
>                |                | Go back to play Verse 2.
>2---2---0-2---3-|--2---0---2-----|
>3---3(3)3-3-3-3-|3-3-3-3-3-3-----|
>2---2(2)2-2-2-2-|2-2-2-2-2-2-----|
>0---0(0)0-0-0-0-|0-0-0-0-0-0-----|
>----------------|------------0-2-|
>----------------|----------------|
>
>
>______________________
>| 2.
>----14--------14|------------8p7-|8-------8s108---|------------8p7-|
>----------------|----------------|--------------12|--------8-------|
>14--------14----|----------------|--------------**|----------------|
>----------------|----------------|----------------|----------------|
>----------------|----------------|----------------|----------------|
>----------------|----------------|----------------|----------------|
>                |                |                |                |
>2---2---0-2---3-|--2-----------00|----------------|----------------|
>3---3(3)3-3-3-3-|3-3-3-0-0-3-3-11|----------------|----------------|
>2---2(2)2-2-2-2-|2-2-2-0-0-2-2-00|With chorus backing chords-------|
>0---0(0)0-0-0-0-|0-0-0-0-0-0-0-22|----------------|----------------|
>----------------|--------------33|----------------|----------------|
>----------------|----------------|----------------|----------------|
>
>
>
>8-------8s10--12|------------8p7-|8-------8s108---|--------------12|
>------------12**|----------------|--------------12|--108---8---8-**|
>----------------|----------------|--------------**|----------------|
>----------------|----------------|----------------|----------------|
>----------------|----------------|----------------|----------------|
>----------------|----------------|----------------|----------------|
>                |                |                |                |
>----------------|----------------|----------------|----------------|
>----------------|----------------|----------------|----------------|
>----------------|----------------|----------------|----------------|
>----------------|----------------|----------------|----------------|
>----------------|----------------|----------------|----------------|
>----------------|----------------|----------------|----------------|
>
>                       h
>--1010--------14|--12101210------|----------------|----------------|
>--------------**|----------------|----5-8---------|----------------|
>----------------|----------------|7^------7^r-5---|----4-7---------|
>----------------|----------------|----------------|7^------7^r-5---|
>----------------|----------------|----------------|----------------|
>----------------|----------------|----------------|----------------|
>                |                |                |                |
>----------------|----------------|----------------|----------------|
>----------------|----------------|----------------|----------------|
>With Figure 1---|----------------|With chorus backing chords-------|
>----------------|----------------|----------------|----------------|
>----------------|----------------|----------------|----------------|
>----------------|----------------|----------------|----------------|
>
>----------------|----------------|----------------|----------------|
>----5-8---------|--8-10^8----8-10|10^-r-8-10--8-10^--8-10--8-108-12|
>7^------7^r-5-7s|9-------9-------|----------9-----|------9-------**|
>----------------|----------------|----------------|----------------|
>----------------|----------------|----------------|----------------|
>----------------|----------------|----------------|----------------|
>                |                |                |                |
>----------------|----------------|----------------|----------------|
>----------------|----------------|----------------|----------------|
>----------------|----------------|----------------|----------------|
>----------------|----------------|----------------|----------------|
>----------------|----------------|----------------|----------------|
>----------------|----------------|----------------|----------------|
>
>----------------|----------------|----------------|----------------|
>--1010----------|----------------|5---3-------4p2-|----2---------7^|
>----------------|----------------|**--------------|3h4---0---------|
>----------------|----------------|----------------|----------------|
>----------------|----------------|----------------|----------------|
>----------------|----------------|----------------|----------------|
>                |                |                |                |
>----------------|----------------|----------------|----------------|
>----------------|----------------|----------------|----------------|
>With Figure 1 (3 times)----------|----------------|----------------|
>----------------|----------------|----------------|----------------|
>----------------|----------------|----------------|----------------|
>----------------|----------------|----------------|----------------|
>
>----------------|----------------|----------------|----------------|
>----7-----------|-------***----7^|--7-----5-7---3-|----------3-----|
>----------------|4p2-----5-------|----------------|--2---0---2-----|
>----------------|----3h4-0-------|----------------|------0---0-----|
>----------------|----------------|----------------|----------------|
>----------------|----------------|----------------|----------------|
>                |                |                |                |
>----------------|----------------|2---2---0-2---3-|3-2---0---------|
>----------------|----------------|3---3(3)3-3-3-3-|3-3---3---3-----|
>----------------|----------------|2---2(2)2-2-2-2-|2-2---2---2-----|
>----------------|----------------|0---0(0)0-0-0-0-|0-0---0---0-----|
>----------------|----------------|----------------|----------------|
>----------------|----------------|----------------|----------------|
>
>
>For the last part of the song use the following figures:
>
>2---2---2---2-2-|-------3-33-3333|
>3---3---3---3-30|3-333-33-33-3333|
>2---2---2---2-20|0-000-00-00-0000|                 Figure 2
>0---0---0---0-00|0-000-00-00-0000|
>0--------------0|2---2-22-22-2222|
>----2-0-2---2-20|3---3-33-33-3333|
>
>F6//////////////|G-///-///////-/-|D---------------|Figure 3
>
>
>Play figure 2 10 times, then on the second "I need you" play figure 3.
>The song ends as follows:
>
>
>3p2-------------|2---------------|
>----3-----------|3---------------|
>------2---------|2---------------|
>--------5p4-0---|0---------------|
>----------------|----------------|
>----------------|----------------|
>


--


                   PATIENCE - GUNS 'N' ROSES
                   Tabbed by Vassilis Tzerpos

Key:

p = pull-off            ^ = bend
h = hammer-on           r = release bend
s = slide               / = repeat previous chord
* = slide to the above or below indicated note from as many frets below
as the number of stars

Av = 577655    G6 = xx0000    C9 = x32030    F6 = 1x3231

Quarter=120=----

C---------------|----------------|G---------------|----------------|
                |                |                |                |
------0---0-----|----------------|----------------|----------------|
------1---1-1-1-|3p1-1-0h1-1-1p0-|------0---------|1p0-------------|
----0-------0-0-|0---0-0---0-0---|----0-----0-----|----0-2p0---0h2-|
2-2---------2-2-|2---2-2---2-2---|--0---------0---|----------0-0h2-|
3-----------3-3-|3---3-3---3-3---|2-------------2-|----------------|
----------------|----------------|----------------|----------------|

Av--------------|----------------|D---------------|----------------|
                |                |                |                |
----------------|----------------|2---2---2-2-----|3p2-2-0---2-----|
----2---------0-|3p2---0h2-2-----|3-3---3-----3-3-|3---3-3---3-----|
------2---2-----|----2-0h2-2-2-0-|2-------------2-|2---2-2---2-----|
--------2---2---|----2-------2-0-|0-------------0-|0---0-0---0-----|
0---------------|----------------|----------------|------------0-2-|
----------------|----------------|----------------|----------------|
                |                |                |                |
----------------|----------------|----------------|----------------|
----------------|----------------|----------------|----------------|
----------------|----------------|----------------|------------7---|
----------------|----------------|----------------|----------------|
----------------|----------------|----------------|----------------|
----------------|----------------|----------------|----------------|

C---------------|----------------|G---------------|----------------|
                |                |                |                |
------0---0-----|----------------|----------------|----------------|
------1---1-1-1-|3p1-1-0h1-1-1p0-|------0---------|1p0-------------|
----0-------0-0-|0---0-0---0-0---|----0-----0-----|----0-2p0---0h2-|
2-2---------2-2-|2---2-2---2-2---|--0---------0---|----------0-0h2-|
3-----------3-3-|3---3-3---3-3---|2-------------2-|----------------|
----------------|----------------|----------------|----------------|
                |                |                |                |
----------------|----10----------|--7-8-9-10------|----------------|
8-------------8-|1012--10--8-108-|10^-------10^-8-|------------10--|
----------------|------**--------|----------------|--------------9-|
----------------|----------------|----------------|----------------|
----------------|----------------|----------------|----------------|
----------------|----------------|----------------|----------------|


Av--------------|----------------|D---------------|----------------|
                |                |                |                |
----------------|----------------|2---2---2-2-----|3p2-2-0---2-----|
----2---------0-|3p2---0h2-2-----|3-3---3-----3-3-|3---3-3---3-----|
------2---2-----|----2-0h2-2-2-0-|2-------------2-|2---2-2---2-----|
--------2---2---|----2-------2-0-|0-------------0-|0---0-0---0-----|
0---------------|----------------|----------------|------------0-2-|
----------------|----------------|----------------|----------------|
                |                |                |                |
------------7s8s|9---------------|--10----8-----7-|----7s5---------|
10--------------|----------------|----------------|8---------------|
------------7s8s|9---------------|11----9-----7---|--7--s5---------|
----------------|----------------|----------------|----------------|
----------------|----------------|----------------|----------------|
----------------|----------------|----------------|----------------|

C---/---/-/-/-G6|G-/-/-/-/-/-/-/-|C---/-/-/-/-/-G6|Em--/-/-/-/-/-G6|
                |                |                |                |
------0---------|----------------|----------------|----------------|
----1---3p1-----|----------------|------1---------|----------------|
--0-----------0-|------0---------|----0---0-------|------0---------|
2-----------2---|----0-----0-----|--2-------2-----|----2-----------|
3---------------|--2---------2---|3---------------|--2-------------|
----------------|3-------------3-|------------3-2-|0---------------|


C---/-/-/-/-/-G6|G---/-/-/-/-/-G6|D---------------|----------------|
                |                |                |                |
----------------|----------------|------2---------|----------------|
------1---------|--------0-------|3---------------|----------------|
----0---0-------|------0---0-----|2---------------|----------------|
--2-------2-----|----0-------0---|0---------------|----------------|
3-----------3-2-|2-2-------------|----------------|----------------|
----------------|3---------------|----------------|----------------|


    Shed a tear...
----------------|----------------|----------------|----------------|
------1---1-1-1-|3p1---0---1-----|----------------|----------------|
----0-----0-0-0-|0-----------0---|----------------|--------0-----0-|
--2-------2-2-2-|2---------------|----------------|----0-----0-2-0-|
3---------3-3-3-|3---3---------3-|2-------2-0-----|----2-0---------|
----------------|----------------|----------------|3---------------|
                |                |                |                |
----------------|----------------|----------------|----------------|
------1---------|3-1---1---------|----------------|----------------|
----0-----------|----0---0-------|------0---------|------0---------|
--2-------------|----------2-----|----0-----------|----0---0-----0-|
3---------------|------------3-0-|2---------0-----|--2-------2-----|
----------------|----------------|--------------3-|3-----------3---|

--------5-------|----------------|----------------|----------------|
------2---------|3p2---0---2-----|----------------|----------------|
----2-----------|----------------|----------------|--2---2-4-2-----|
2---------------|----2-----------|0-------------0s|4-----------4---|
0---------------|----------0-3-4-|----------------|--------------0-|
----------------|----------------|----------------|----------------|
                |                |                |                |
------5---------|5-----5---------|------0-2-------|3-2-----0-2-----|
----5---5-------|5-------5-------|----3-----------|----------------|
--6-------------|7---------------|----------------|----------------|
7-----------7---|----------------|0-------------0-|----------------|
----------------|----------0-3-4-|----------------|----------------|
----------------|----------------|----------------|----------------|


    Was a time...
----------------|----------------|----------------|----------------|
------1---1-1-1-|3p1---0---1-----|----------------|----------------|
----0-----0-0-0-|0-----------0---|----------------|--------0-----0-|
--2-------2-2-2-|2---------------|----------------|----0-----0-2-0-|
3---------3-3-3-|3---3---------3-|2-------2-0-----|----2-0---------|
----------------|----------------|----------------|3---------------|
                |                |                |                |
----------------|----------------|----------------|----------------|
------1---------|3-1---1---------|----------------|----------------|
----0-----------|----0---0-------|------0---------|------0---------|
--2-------------|----------2-----|----0-----------|----0---0-----0-|
3---------------|------------3-0-|2---------0-----|--2-------2-----|
----------------|----------------|--------------3-|3-----------3---|


--------5-------|----------------|------0-2-------|3-2---0-0-2-----|
------2---------|3p2---0---2-----|----3-----3-----|------3-3-3---0-|
----2-----------|----------------|------------2---|--------2-2-2---|
2---------------|----2-----------|0-------------0-|----------------|
0---------------|----------0-3-4-|----------------|----------------|
----------------|----------------|----------------|----------------|
                |                |                |                |
------5---------|5-----5---------|----2---2-------|----------------|
----5---5-------|5-------5-------|------3---3-----|3-----3---3-3-0-|
--6-------------|7---------------|------------2-0-|----------2-2-0-|
7-----------7---|----------------|0---------------|----------0-0-0-|
----------------|----------0-3-4-|----------------|----------------|
----------------|----------------|----------------|----------------|

CHORUS
    Said woman, take it slow...
C9--/---/-/-/-G6|G---/---/-/-/-G6|C---/-/-/-/-/-G6|Em--/---/-/-/-G6|
                |                |                |                |
----------------|--------3-------|----------------|------0---------|
1-------1-------|3-3-0-0---3---0-|----1-----------|----0---0-------|
0-------0-------|0-----------0---|0---0-----------|----------0---0-|
2-------2-------|0---------------|2---2-----------|--2---------2---|
3-------3-------|2---------------|3---3-----------|----------------|
----------------|3---------------|------------3-2-|0---------------|


C---/---/-/-/-G6|G---/---/-/-/-/-| Same as tabbed | guitar---------|
                |                |                |                |
------0---------|----------------|2---2---0-2---3-|--2---0---2-----|
------1---1-1-0-|--------------0-|3---3(3)3-3---3-|3-3-3-3-3-3-3-0-|
--0---0---0-0-0-|0-----0-------0-|2---2(2)2-2---2-|2-2-2-2-2-2-2-0-|
2---2-----2-2-0-|0---0-----0---0-|0---0(0)0-0---0-|0-0-0-0-0-0-0-0-|
3---3-----3-3---|2-----------2---|----------------|----------------|
----------------|3---------------|----------------|----------------|

C9--/---/-/-/-G6|G---/---/-/-/-G6|C---/-/-/-/-/-G6|Em--/---/-/-/-G6|
                |                |                |                |
----------------|--------3-------|----------------|------0---------|
1-------1-------|3-3-0-0---3---0-|----1-----------|----0---0-------|
0-------0-------|0-----------0---|0---0-----------|----------0---0-|
2-------2-------|0---------------|2---2-----------|--2---------2---|
3-------3-------|2---------------|3---3-----------|----------------|
----------------|3---------------|------------3-2-|0---------------|

                                  Figure 1            (end Figure 1)
C---/---/-/-/-G6|G---/---/-/-/-/-|D---------------|--------------//|
                |                |                |                |
------0---------|----------------|2---2---0-2---3-|--2---0---2---22|
------1---1-1-0-|--------------0-|3---3(3)3-3-3-3-|3-3-3-3-3-3-3-33|
--0---0---0-0-0-|0-----0-------0-|2---2(2)2-2-2-2-|2-2-2-2-2-2-2-22|
2---2-----2-2-0-|0---0-----0---0-|0---0(0)0-0-0-0-|0-0-0-0-0-0-0-00|
3---3-----3-3---|2-----------2---|----------------|----------------|
----------------|3---------------|----------------|----------------|


2---------------|----------------|----10----------|----------------|
3---------------|--------------5s|10--------------|----------------|
2---------------|--------------6s|11--------------|--------------7s|
0---------------|--------------7s|12--------------|----------------|
----------------|----------------|----------------|----------------|
----------------|----------------|----------------|----------------|
                |                |                |                |
2---2---0-2---3-|--2---0---2---22|2---2---0-2---3-|--2---0---2---22|
3---3(3)3-3-3-3-|3-3-3-3-3-3-3-33|3---3(3)3-3-3-3-|3-3-3-3-3-3-3-33|
2---2(2)2-2-2-2-|2-2-2-2-2-2-2-22|2---2(2)2-2-2-2-|2-2-2-2-2-2-2-22|
0---0(0)0-0-0-0-|0-0-0-0-0-0-0-00|0---0(0)0-0-0-0-|0-0-0-0-0-0-0-00|
----------------|----------------|----------------|----------------|
----------------|----------------|----------------|----------------|


______________________
| 1.
----14--------14|----14--14--14\-|
----------------|--14--14--14----|
14--------14----|----------------|
----------------|----------------|
----------------|----------------|
----------------|----------------|
                |                | Go back to play Verse 2.
2---2---0-2---3-|--2---0---2-----|
3---3(3)3-3-3-3-|3-3-3-3-3-3-----|
2---2(2)2-2-2-2-|2-2-2-2-2-2-----|
0---0(0)0-0-0-0-|0-0-0-0-0-0-----|
----------------|------------0-2-|
----------------|----------------|


______________________
| 2.
----14--------14|------------8p7-|8-------8s108---|------------8p7-|
----------------|----------------|--------------12|--------8-------|
14--------14----|----------------|--------------**|----------------|
----------------|----------------|----------------|----------------|
----------------|----------------|----------------|----------------|
----------------|----------------|----------------|----------------|
                |                |                |                |
2---2---0-2---3-|--2-----------00|----------------|----------------|
3---3(3)3-3-3-3-|3-3-3-0-0-3-3-11|----------------|----------------|
2---2(2)2-2-2-2-|2-2-2-0-0-2-2-00|With chorus backing chords-------|
0---0(0)0-0-0-0-|0-0-0-0-0-0-0-22|----------------|----------------|
----------------|--------------33|----------------|----------------|
----------------|----------------|----------------|----------------|

8-------8s10--12|------------8p7-|8-------8s108---|--------------12|
------------12**|----------------|--------------12|--108---8---8-**|
----------------|----------------|--------------**|----------------|
----------------|----------------|----------------|----------------|
----------------|----------------|----------------|----------------|
----------------|----------------|----------------|----------------|
                |                |                |                |
----------------|----------------|----------------|----------------|
----------------|----------------|----------------|----------------|
----------------|----------------|----------------|----------------|
----------------|----------------|----------------|----------------|
----------------|----------------|----------------|----------------|
----------------|----------------|----------------|----------------|

                       h
--1010--------14|--12101210------|----------------|----------------|
--------------**|----------------|----5-8---------|----------------|
----------------|----------------|7^------7^r-5---|----4-7---------|
----------------|----------------|----------------|7^------7^r-5---|
----------------|----------------|----------------|----------------|
----------------|----------------|----------------|----------------|
                |                |                |                |
----------------|----------------|----------------|----------------|
----------------|----------------|----------------|----------------|
With Figure 1---|----------------|With chorus backing chords-------|
----------------|----------------|----------------|----------------|
----------------|----------------|----------------|----------------|
----------------|----------------|----------------|----------------|

----------------|----------------|----------------|----------------|
----5-8---------|--8-10^8----8-10|10^-r-8-10--8-10^--8-10--8-108-12|
7^------7^r-5-7s|9-------9-------|----------9-----|------9-------**|
----------------|----------------|----------------|----------------|
----------------|----------------|----------------|----------------|
----------------|----------------|----------------|----------------|
                |                |                |                |
----------------|----------------|----------------|----------------|
----------------|----------------|----------------|----------------|
----------------|----------------|----------------|----------------|
----------------|----------------|----------------|----------------|
----------------|----------------|----------------|----------------|
----------------|----------------|----------------|----------------|

----------------|----------------|----------------|----------------|
--1010----------|----------------|5---3-------4p2-|----2---------7^|
----------------|----------------|**--------------|3h4---0---------|
----------------|----------------|----------------|----------------|
----------------|----------------|----------------|----------------|
----------------|----------------|----------------|----------------|
                |                |                |                |
----------------|----------------|----------------|----------------|
----------------|----------------|----------------|----------------|
With Figure 1 (3 times)----------|----------------|----------------|
----------------|----------------|----------------|----------------|
----------------|----------------|----------------|----------------|
----------------|----------------|----------------|----------------|

----------------|----------------|----------------|----------------|
----7-----------|-------***----7^|--7-----5-7---3-|----------3-----|
----------------|4p2-----5-------|----------------|--2---0---2-----|
----------------|----3h4-0-------|----------------|------0---0-----|
----------------|----------------|----------------|----------------|
----------------|----------------|----------------|----------------|
                |                |                |                |
----------------|----------------|2---2---0-2---3-|3-2---0---------|
----------------|----------------|3---3(3)3-3-3-3-|3-3---3---3-----|
----------------|----------------|2---2(2)2-2-2-2-|2-2---2---2-----|
----------------|----------------|0---0(0)0-0-0-0-|0-0---0---0-----|
----------------|----------------|----------------|----------------|
----------------|----------------|----------------|----------------|


For the last part of the song use the following figures:

2---2---2---2-2-|-------3-33-3333|
3---3---3---3-30|3-333-33-33-3333|
2---2---2---2-20|0-000-00-00-0000|                 Figure 2
0---0---0---0-00|0-000-00-00-0000|
0--------------0|2---2-22-22-2222|
----2-0-2---2-20|3---3-33-33-3333|

F6//////////////|G-///-///////-/-|D---------------|Figure 3


Play figure 2 10 times, then on the second "I need you" play figure 3.
The song ends as follows:


3p2-------------|2---------------|
----3-----------|3---------------|
------2---------|2---------------|
--------5p4-0---|0---------------|
----------------|----------------|
----------------|----------------|

6.USED TO LOVE HER

  D         A         G
  ======    ======    ======
  ||||||    ||||||    ||||||  <== other fingerings are possible for these
  |||1|2    ||111|    |1||||      three, but these are the easiest for me.
  ||||3|    ||||||    2||||3


Now strum along with the album, about 5 strums per chord letter in time:
(I'm not sure if my chord/word sync is perfect here, it's been a while)


  D           A           G               A

     I used to Love her,      but I had to Kill her    (repeat as necessary)


  G                A      G              A      G                    D

    She bitched so much,    she drove me nuts,  and now we're happier this way.


Or something like that.  The order of the chords at Nevada is
accurate, if mine are not.

The album is tuned down  1/2 step.  What that means is that each one of
the strings on Izzy's guitar was tuned one semitone lower in pitch than
"standard" (A=440 hz) tuning when playing.  So on the album what you actually
hear instead of D A G A, etc is Dflat Aflat Gflat, etc, even though it's
physically played in the exact same way.


b = bend at first note to the pitch of the second note
r = release to second note from the pitch of first note
[] = note is not struck
() = optional note

Tune down 1/2 step

First Solo
  D                    A        G                A
-------10-------------------------------------------------------|
----------10----------------------------10----------------------|
--9b11------[11]r9--7--9--------7--9--7----9b11--7--------------|
-------hold-----------------------------------------------------|
----------------------------------------------------------------|
----------------------------------------------------------------|

 D                       A                       G
-------10-------10-------10----12b14-12-10-12-12------12-10-----|
-10b12----10b12----10b12----10----------------------------------|
----------------------------------------------------------------|
----------------------------------------------------------------|
----------------------------------------------------------------|
----------------------------------------------------------------|

          A                             G
-17----------------------------14-15-16-17----------------------|
----17b19-17----15-17-15-17b19-------------17b19r17-15-17----15-|
----------------------------------------------------------16----|
----------------------------------------------------------------|
----------------------------------------------------------------|
----------------------------------------------------------------|

 A                                G
-17b19-17-------------------------------------------------------|
----------17b19r17-15-17----15----17b18r17-15-17----15----15----|
-------------------------16----------------------16----16-------|
----------------------------------------------------------------|
----------------------------------------------------------------|
----------------------------------------------------------------|

 A                      G                          A
-17b19-19-19-19r17------------17-------17-------17--------------|
-------hold-------------17b19----17b19----17b19----19r17-15-17--|
-----------------------------------------------hold-------------|
----------------------------------------------------------------|
----------------------------------------------------------------|
----------------------------------------------------------------|

                D
--------------------------------------------10------------------|
----15-17-15----15----15-15\---------------(10)-----13----------|
-16----------16-------------------12-10h11------11-(11)---------|
----------------------------------------------------------------|
----------------------------------------------------------------|
----------------------------------------------------------------|

7.YOU'RE CRAZY

Intro/Verse:
e|--------|----------------------------------------------------|
B|--------|------------------------------------3--half---------|
G|--------|-----2----2--------2---------2------2---2^---(2)p0--|
D|--5--6--|-----2----2--------2---------2------0---------------|
A|--5--6--|-----0----0--------0---------0---0------------------|
E|--3--4--|-3-------------3---------3--------------------------|

e|-------------------------------------0-----------------------|
B|-------------------------------------0-----------------------|
G|-----2--2-----2------2---------------------------------------|
D|-----2--2-----2------2---------------------------------------|
A|-----0--0-----0------0---------------------------------------|
E|--3--------3------3-----0--3--4--0---------------------------|

Verse: Guitar 1 plays intro, Guitar 2 plays this w/wah...
e|-------------------------------------|-------------------------12-------|
B|-12h14-14-12-14---12-14--------------|----------------------12-----15^--|
G|-12h14-14-12-14---12-14------12------|-12h14-14-14-14-12h13--------full-|
D|----------------------------------14-|-12h14-14-14-14-------------------|
A|-------------------------------------|----------------------------------|
E|-------------------------------------|----------------------------------|

Pre-Chorus:
e|-----------------------------------------------------------------------|
B|-----------------------------------------------------------------------|
G|--7--7--7--7--7--x-x-7--7--7--7--7-x-x-7--7--7--7--7-x-x-7-7-7-7-7--5--|
D|--7--7--7--7--7--x-x-7--7--7--7--7-x-x-7--7--7--7--7-x-x-7-7-7-7-7--5--|
A|--5--5--5--5--5--x-x-5--5--5--5--5-x-x-5--5--5--5--5-x-x-5-5-5-5-5--3--|
E|-----------------------------------------------------------------------|

e|-------------------------------------------------------------|
B|-------------------------------------------------------------|
G|--9----------------------------------------------------------|
D|--9-----7---7---9---9---7---7---9---9----7---7---9---7---7---|
A|--7----------------------------------------------------------|
E|--0----------------------------------------------------------|
pm        ....................................................

e|------------------------------------|
B|------------------------------------|
G|--7--7--7--7--7--7--7--7---5--------|
D|--7--7--7--7--7--7--7--7---5----5---|
A|--5--5--5--5--5--5--5--5---3----5---|
E|--------------------------------3---|

Fill 1:
e|---------------------------------------------|
B|---------------------------------------------|
G|--7----7----7----7-----7-----7-----7-----7---|
D|--7----7----7----7-----7-----7-----7-----7---|
A|--5----5----5----5-----5-----5-----5-----5---|
E|---------------------------------------------|

Chorus:
e|-----------------------------------------------------------------------|
B|-----------------------------------------------------------------------|
G|---1/4 bend------------------------------------------------------------|
D|------5^----------------------------------------------1/4------9--8--7-|
A|--7--------7---6------5---------------------------3---(3^)-----7--6--5-|
E|---------------------------3--3--4-----5---5---5------------5----------|
pm                          ......

e|-------------------------------------------------------------|
B|-------------------------------------------------------------|
G|-------------------------------------------------------------|
D|---------------------------------------------1/4-----9--8--7-|
A|---------------------------------------------3^------7--6--5-|
E|--2--2--3--3--2--2--3--3--4--4--3--3--3--3--------5----------|
pm ..........................................

e|--------------------------------------------------------------------|
B|--------------------------------------------------------------------|
G|---------------------------------------------------------7-----(7)\-|
D|----------------------------1/4---------9--8--7----7-----7-----(7)\-|
A|--3----3----------------3--(3^)---------7--6--5----5-----5-----(5)\-|
E|-------------5----5--5------------5---------------------------------|

e|-----------------------|
B|-----------------------|
G|-----------------------|
D|-----------------------|
A|--2--2---5--5---4--4---|
E|--0--0---3--3---2--2---|

Interlude:
e|------------------------------------------------------------------------|
B|------------------------------------------------------------------------|
G|-------------------9--(9)\------9------------9--(9)\-----9\----------9\-|
D|-------------------9--(9)\------9------------9--(9)\-----9\----------9\-|
A|-2-----------------7--(7)\------7------------7--(7)\-----7\----------7\-|
E|-0--0--0--0--0--0-----------0---0---0--0--0-----------0--0--0--0--0-----|
pm    .............          ...      ........         ..     ........

e|--------------------------------------5--\-----------5--\------5-\-------5-\-|
B|--------------------------------------5--\-----------5--\------5-\-------5-\-|
G|-------5-----4-----2---------------------------------------------------------|
D|-------5-----4-----2-----------------------------------------------0-0-0-----|
A|-0--0--3-----2-----0---0--0--0--0--0--------0--0--0--------0-----------------|
E|-----------------------------------------------------------------------------|
pm ....                  ..............       ........      ...      ......

e|-----------------||
B|-----------------||
G|-----------------||o
D|----------5---4--||o
A|--0---0---5---4--||
E|----------3---2--||

Half time:
e|---------------------------------------------------------------------------|
B|---------------------------------------------------------------------------|
G|----2--2-------------------------------------------------------------------|
D|--2--2---2---2-----5---5-----------4---4-----------3---3-------------------|
A|-0---------0-----5---5---5---5---4---4---4---4---3---3---3--3--------------|
E|---------------3-----------3---2-----------2---1-----------1--000000000000-|
pm............................................................................

Solo: Guitar 2
e|--------7----------7-----------7--------7--------------------|
B|-full---7------7---7---7-------7--------7----9^^^------------|
G|--9^-------9^--------------9^------9^--------9^^^------------|
D|---------full--------------F-------F--------1/2 gradual------|
A|-------------------------------------------------------------|
E|-------------------------------------------------------------|
Solo: Guitar 1
e|-------------------------------------------------------------|
B|-------------------------------------------------------------|
G|------------------------------------------------9------------|
D|--7----9----9----7----9-------7----9--------7---9------------|
A|--7----9----9----7----9-------7----9--------7---7------------|
E|--5----7----7----5----7-------5----7--------5----------------|

     Guitar 2: continued
e|-------------------------------------------------------------|
B|-------------------------------------------------------------|
G|--9^-----7---------9----7--------7----7----------------------|
D|-1/2----------9--------------9-------------9----7------------|
A|-----------------------------------------------------9-------|
E|-------------------------------------------------------------|
     Guitar 1: continued
e|-------------------------------------------------------------|
B|-------------------------------------------------------------|
G|-------------------------------------------------------------|
D|--7---9---9---7---9-------7---9------7---7---------4---------|
A|--7---9---9---7---9-------7---9------7---7---------4---------|
E|--5---7---7---5---7-------5---7------5---5---------2---------|

     Guitar 1: continued
e|----------------------------------------7----------7-----7---|
B|-------------------------------------7-----7--10^----10------|
G|------------------------7h8-----7h8----------full------------|
D|-------------7-------9-------9-------------------------------|
A|--7---9---9-------9------------------------------------------|
E|-------------------------------------------------------------|
pm...............

     Guitar 1: continued
e|-----------------------------------17----17----17----17----17----17-----|
B|-10p9p7-9--7----------------17^^^----(17)--(17)--(17)--(17)--(17)--(17)-|
G|---------------9^-p7--9^---full hold------------------------------------|
D|-------------full---full------------------------------------------------|
A|------------------------------------------------------------------------|
E|------------------------------------------------------------------------|
     Guitar 1: continued
e|-17------------------7------------------------------------------------|
B|----17^---\----10^------10-----7h10p7----------7--10p7----------------|
G|---full------full----------------------10--9^----------9--9^----7---9-|
D|-------------------------------------------1/2-----------full---------|
A|----------------------------------------------------------------------|
E|----------------------------------------------------------------------|

     Guitar 1: continued
e|-------------------------------------------------------------|
B|-------------------------------------------------------------|
G|--7----------------------------------------------------------|
D|-----9---7------------------------P.H.-----------------------|
A|-------------9---8--8--7--7---5----7^------------------------|
E|-------------------------------------------------------------|
pm.................................

Outro: guitar 2
e|--10^------------10^-----------------------------------------|
B|--13^----\-------13^----13\----------------------------------|
G|-full-----------full-----------------------------------------|
D|--------------------------------------------1/4--------------|
A|------------------------------------------3--3^--------------|
E|--------------------------------5---5---5--------5-----------|
       guitar 1
e|-------------------------------------------------------------|
B|-------------------------------------------------------------|
G|------------7--7------------7--------------------------------|
D|-(7)--------7--7------------7---------------1/4--------------|
A|-(5)--------5--5------------5-------------3--3^--------------|
E|--------------------------------5---5---5--------5-----------|

Fill: 2
e|-----------------------------------------|
B|--------------------------------1/2------|
G|-------------5----------------5--5^------|
D|---7---7--7----------7--7---7----------7-|
A|-----------------------------------------|
E|-----------------------------------------|

8.ONE IN A MILLION

Acoustic guitar...

[E-1]      [E-2]       [D]       [C#]       [C]        [G(2)]
EADGBE     EADGBE     EADGBE     EADGBE     EADGBE     EADGBE
022100     x7990x     x5770x     x4660x     x355xx     XX000X

Beginning of song...

Strum[E-1]      (slide) [E-2]           [D]             [C#]            (play twice)
|    | |  ||||  / ||     | |   |||| ||    | |  |||| ||    | |  ||||
[C]
||   | |  |||||||||||||||
              ^               (slow distortion comes in)

second guitar...
comes in after acoustic finishes.

             (fill)   (Main guitar riff)
|-------|----------------------------------------------------------|
|-------|-2-2h3p2-2-2---1-1----------------------------------------|
|-5-5-5-|-2-2-----2-2-2-0-0-0-0-3p0---0-0-0-0-----4-0--------------|
|-5-5-5-|-2-2h4p2-2-2-2-2-2-2-2-2---2-0-0-0-0---3---0--------------|
|-3-3-3-|---------------3-3-3-3-3---3-2-2-2-2-2-------3---3---3/5--|
|-------|-----------------------------3-3-----3-------1-0-1-0-1/3--|
          ^ ^                 ^ ^ ^           ^ ^   ^   ^   ^
^ (accented notes)

play it over and over until you're fingers bleed
(this is distorted guitar..light distortion)
that was how I played it....I don't know if it's right or not... Later, Merlin


Correction (at the part you play the C chord in the verse it goes):
|----------------------------------------------|
|------1--1---1--1-----------------------------|
|------0--0---0--0-----------------------------|
|------2--2--h3--2-----------------------------|
|------3--3---3--3-----------------------------|
|----------------------------------------------|

Addition: (the chorus)
|----------------------------------------------|
|----------------------------------------------|
|---5-5-5--5---------7-7-----------------------|
|---5-5-5--5-5-5--5--7-7-7-7-7-9-10------------|
|---3-3-3--3-5-5--5--5-5-7-7-7-9-10------------|
|------------3-3--3------5-5-5-7--8------------|

it just kind of repeats until that little ending of the chorus, but that
part is somewhere around these chords too.


Chorus:
C                G         G(2) D                            A
 You're one in a million         {1.3. yeah, that's what you are___}
                                 {2. you're a shooting       star__}

A5 A6 A5  A6  C                 G             D                     A
                You're one in a million, babe   {you're a shooting star________}
                                                {       you know that you are__}

C                        G      G(2)  D                    A   A5 A6 A5  A6
    Maybe someday we'll see you         before you make us cry
C                          G         D                     E
    you know we tried to reach you   but you were much to high_________

much to high  {1.2. much too high___________________ much too high__
              {3.   much too high________________ yeah_ yeah_

 Solo:
|--------------------------------------------------------------|
|--------------------------------------------------------------|
|-9~~~~~~~~~~~--7~~~~~~~~(7)~~~~-6-----7-------(7)~~~~~-6-7----|
|--------------------------------------------------------------|
|--------------------------------------------------------------|
|------------------------------------------7\---------------7\-|

|------------------------------------------------------------------7h8p7\5-|
|----------------------------------------------------------------8---------|
|------5---(5)----7h8p7p5-8-7-(7)-5-7-7-5------------------5-7/9-----------|
|-7---------------------------------------7-7~~~(7)~~~--7------------------|
|--------------------------------------------------------------------------|
|--------------------------------------------------------------------------|

|---------8-10-10fb-10fbr--(10)-8-10-8-10h11p10p(8)-10-8-12-11-11qb-10-10-8-----------------|
|-5--8/10--------------------------------------------------------------------10-10-(10)--10-|
|-------------------------------------------------------------------------------------------|
|-------------------------------------------------------------------------------------------|
|-------------------------------------------------------------------------------------------|
|-------------------------------------------------------------------------------------------|

|-7h8p7-------------------------------------------------------------------|
|-------10---8/10--6h8p6\5---6---5h6p5---5-----5--------------------------|
|----------9---------------7---7-------7---7/8---8\7--8p7-5-8p7-5-7-------|
|-------------------------------------------------------------------7-7-7-|
|-------------------------------------------------------------------------|
|-------------------------------------------------------------------------|

|-----------------------------------------------------------------------|
|-----------------------------------------------------------------------|
|-5h7p5\4-5-4h5p4-4-----------------------------------------------------|
|-------------------5-3---3-3--0h2-----0h2p0----------0--------2--------|
|-----------------------------------3--------(0)-2-3-----3p2-----3p2----|
|------------------------------------------------------------3-------3--|

|--------------------------------------------5---7--------8-(8)---8-----|
|------------------------------------------5---5---5------------5---5---|
|----------------------------------------5-----------5------------------|
|-----------------------------------5-7---------------------------------|
|----3--5-3-5hb-5~~(5)~~-3-5-3-5/7--------------------------------------|
|-/5--------------------------------------------------------------------|

|-8/10-10-8-10/12--------------------------------------13--13---12---12---10-|
|-----------------10-10-(10)~~~~~~~(10)~~~~~~~~~~~~~-------------------------|
|----------------------------------------------------------------------------|
|----------------------------------------------------------------------------|
|----------------------------------------------------------------------------|
|----------------------------------------------------------------------------|
comments
print report bad tab
2 comments total.
0 reply
joe-smoe wrote on August 18 2009, 06:02 am

you've got somthing goin here this is 5 star for great!

0 reply
zatar2 wrote on September 16 2009, 01:48 pm

you tabbed out the your crazy from appetite...the one from lies is acoustic

I want to post or [tab]
guest
You may want to rate the tab now too:
select rating
Please do not post tabs as comments. Select "correction" instead!