Oops, an error
Loading. Please wait.

Greatest Hits Tab

ver1
ver1

Album

More versions @911Tabs.com
70,008 views 49 this week
15 commentsread comments
1 2 3 4 5
accurate
x 29
add to favorites launch autoscroll
font size
0
reset
Autoscroll
+/-
esc
set tempo
stop
Contributor
WARNING: You are trying to view
                                    content from Ultimate-Guitar.com
                                    in an unauthorized application,
                                    which is prohibited.

                                    Please use an official Ultimate
                                    Guitar Tabs application for iPhone,
                                    iPad or Android to access legitimate
                                    chords, guitar, bass, and drum tabs
                                    from Ultimate-Guitar.com database.

                                    Type "ultimate guitar tabs" in Apple
                                    App Store's or Android Market's
                                    search to find the application.
Band- Guns N' Roses
Album- Greatest Hits

1.Welcome To The Jungle
2.Sweet Child O' Mine
3.Patience
4.Paradise City
5.Knockin' On Heaven's Door
6.Civil War
7.You Could Be Mine
8.Don't Cry
9.November Rain
10.Live And Let Die
11.Yesterdays
12.Ain't It Fun
13.Since I Don't Have You
14.Sympathy For The Devil

1.WELCOME TOTHE JUNGLE

Intro: Gtr.1 w/delay (see recomendations at bootom):
                                /-----call this Riff A------\
E|-----------------------------|-----------------------------|
B|-----------------------------|-----------------------------|
G|---4-------4---------4-4-4---|--4--4-2--2-----------------:|
D|-----------------------------|------------4--4-2--2--0----:|
A|-----------------------------|--------------------------2--|
E|-----------------------------|-----------------------------|
  \--------only once----------/ \----repeat this 2 times----/

Guitar 2 & 3 starts here, with Gtr. 1 Riff A seven more times
               (Play Guitar 1 Riff A until the last E5 chord)

Gtr.2: Play these Power chords B5 A5 G5 E5 B5 A5 E5            \
                                                               / 
     B5       A5         G5      E5      B5   A5  E5 D5  A5    \
E|----------------------------------------------------------|  /
B|----------------------------------------------------------|  \
G|---4--4--------------------------------4------------7-----|  /
D|---4--4-----7--7-------5--5----2--2----4----7---2---7--7--|  \ play this,
A|---2--2-----7--7-------5--5----2--2----2----7---2---5--7--|  / riffs at
E|------------5--5-------3--3----0--0---------5---0------5--|  \ the same
                                                               / time in
Gtr.3:                                                         \ guitar
E|--------------------------------------7--7/5--5-0---------|  / 1, 2 & 3
B|--------------------------------------7--7/5--5-0---7--5--|  \
G|------------7-9-9fb---7qb---------------------------7--6--|  /
D|---7h9--9-------------------7h9--9s2----------------7--7--|  \
A|-------------------------------------------------------0--|  /
E|----------------------------------------------------------|  \


Gtr.2: (faster Gtr 2. & 3 = Tempo=124)
     B5        B5      B5      B5       B5     B5   B5     \
E|------------------------------------------------------|  /
B|------------------------------------------------------|  \
G|---4---------4-------4-------4--------4------4----4---|  /
D|---4---------4-------4-------4--------4------4----4---|  \ 
A|---2---------2-------2-------2--------2------2----2---|  / play this
E|------------------------------------------------------|  \ riffs at the
                                                           / same time
Gtr.3:                                                     \ in both
E|-------------------------------------5--5-------------|  / guitars
B|-----------------------3---5-----5hb----5hb---3-------|  \
G|----------------2--4------------------------------4\--|  /
D|---------2--4-----------------------------------------|  \
A|--2--4------------------------------------------------|  /
E|------------------------------------------------------|  \

Verse (same time in guitar 1, 2 & 3)

Gtr.1:    P.M.     P.M.                       Palm mute    \
E|--------------------------|---------------------------|  /
B|--------------------------|---------------------------|  \
G|--2------2--2--0----------|--2-x-x-----2-2--0---------|  /
D|--2------2--2--0----------|--2-x-x-----2-2--0---------|  \ 
A|--0------0--0-----------0-|--0-x-x-----0-0----------0-|  /
E|----3hb-----------3--2----|--------3hb--------3--2----|  \
                                                           / Play this
Gtr.2:                                                     \ two times
E|--------------------------|---------------------------|  /
B|--------------------------|---------------------------|  \
G|--------------------------|---------------------------|  /
D|--------------------------|---------------------------|  \
A|-7--7--5--7--7--7-5--4--2-|-7--7--5--7--7--7--5--4--2-|  /
E|-5--5--3--5--5--5-3--2--0-|-5--5--3--5--5--5--3--2--0-|  \
                                                           /
Gtr.3: play an A barrechord over main riff                 \

Gtr.1:                                                                     \
E|--------------------x--5--------------------|-------------------------|  /
B|--------------------------------------------|-------------------------|  \
G|---2-----------x----------------------------|--2-x-x-----2-2--0-------|  /
D|---2-----------x----------------------------|--2-x-x-----2-2--0-------|  \ 
A|---0-----0-----x------------------3p0-------|--0-x-x-----0-0--------0-|  /
E|----------------------------------------2---|--------3hb--------3-2---|  \
                                                                           / Play this
Gtr.2:                                                                     \ one time
E|--------------------------------------------|-------------------------|  /
B|--------------------------------------------|-------------------------|  \
G|-7fb5-----7--5hb----------------------------|-------------------------|  /
D|-------7---------7-5------------------------|-------------------------|  \
A|----------------------7--6--5\3--5--3-------|-0-0-----0-0-------------|  /
E|---------------------------------------5--3-|-----3hb-----3hb--2--0-0-|  \
                                                                           /
Gtr.3: play an A barrechord over main riff                                 \

In the part 'We are the people that can find...' play:

Gtr.1:    P.M.     P.M.                       Palm mute    \
E|--------------------------|---------------------------|  /
B|--------------------------|---------------------------|  \
G|--9--9--7-x-9--9----------|--2-x-x-----2-2--0---------|  /
D|--9--9--7-x-9--9--7--6--4-|--2-x-x-----2-2--0---------|  \ 
A|--7--7--5-x-7--7--5--4--2-|--0-x-x-----0-0----------0-|  /
E|--------------------------|--------3hb--------3--2----|  \
                                                           /
Gtr.2:                                                     \
E|--------------------------|---------------------------|  /
B|--------------------------|---------------------------|  \
G|--------------------------|---------------------------|  /
D|--------------------------|---------------------------|  \
A|-7--7--5--7--7--7-5--4--2-|-7--7--5--7--7--7--5--4--2-|  /
E|-5--5--3--5--5--5-3--2--0-|-5--5--3--5--5--5--3--2--0-|  \
                                                           /
Gtr.3: play an A barrechord over main riff                 \

chorus:
          C   C/B  C/A    C/G       D     D/C#     D/B      D/A
In the jun-gle,  wel-come to the jun-gle watch it bring you to your
E|----------------------------------------------------------------|
B|----------------------------------------------------------------|
G|--------5-------------------------7-----------------------------|
D|--------5-------------------------7-----------------------------|
A|--------3----2--------------------5------4----------------------|
E|------------------5------3-----------------------7---------5----|

   E5
        sha na na na na na...
E|-------------------------------|
B|-------------------------------|
G|--9--9-------------------------|  three
D|--9--9-------------------------|  times
A|--7--7--5----------------------|
E|-----------6--6--6\5--5--3--0--|

And then: I wanna watch you bleed
E|-----------------------------------------|
B|-----------------------------------------|
G|-----------------------------------------|
D|-----------------------------------------|
A|--------7----5---------------------------|
E|-----------------------6------5---3---4--|

 Solo 1 (w/ad lib vocals):
|------------------------------------------------------------------------|
|----------------------------------12-----------15~--------------15--15~~|
|--12/13-------------13---13~(13)--12--13-x-x---16~--12/11-------13--13~~|
|--11/12-----(12)-14-14---14~(14)------14-x-x--------13/12---------------|
|------------------------------------------------------------------------|
|---------0------------------------------------------------0--0----------|

|--------------------------15--15--------------19fb----19-18-17fb--15-16-|
|~~~(15)p12---14/15--------15--15-----------17---------------------------|
|~~~(13)------15/16----------------6/0--/18------------------------------|
|------------------------------------------------------------------------|
|------------------------------------------------------------------------|
|------------------------------------------------------------------------|

|------------------------------------------------------------------------|
|-15~---(15)\---15fb--(15)-15p12-----------------------------------------|
|---------------------------------14fb--14hb(14)p12--14-12---------------|
|-----------------------------------------------------------14-14--------|
|-----------------------------------------------------------------13-13--|
|------------------------------------------------------------------------|

|--------------------------A.H.------------------------------------------|
|------------------------------------------------------------------------|
|--------------------------8hb-------------------------------------------|
|----------------------------------------------11\-----------------------|
|-12fb-(12)p10-----------------------------------------------------------|
|---------------12-------------------------------------------------------|

 After chorus come this:
   D          G                    D                G
|-------------3-----(3)\-------------------------------------------------|
|--7----------3-----(3)\---6hb-----7---8p7----------12--13p12----------8-|
|--7----------4-----(4)\---4hb-----7---7------------12---------7\5--5----|
|--7----5-----5-----(5)\-----------7---7----7---10--12-------------------|
|--5----3-----5-----(5)\-----------5-------------8--10-------------------|
|-------------3-----(3)\-------------------------------------------------|

 D                     G                        D                 D7
     And when...     high    you never              ever want to come down
|------------------------------------------------------------------------|
|-7-------------------12---13p12---------10\7---7------------------------|
|---7-----------------12------------------------7------------------------|
|-----7--6--7----10---12---------12p10---10\7---7-----------------10-----|
|-----------------8---10-------------------------------------------8-----|
|------------------------------------------------------------------------|

G        F     G     F     G     F    A                E (hold chord)
       suck  down  suck  down  suck  down              Yeah!

 Pre-solo:
|------------------------------------------------------------------------|
|------------------------------------------------------------------------|
|-------6/7-------------9-------9-----9---6/7------------------12---12---|
|-------5/6-------------9-------9-----9---5/6------------------12---12---|
|------------------------------------------------------------------------|
|---0---------0----0---------0-------------------0-------0---------------|

|------------------------------------------------------------------------|
|------------------------------------------------------------------------|
|-------6/7-------------9-------9-----9---6/7------------------12---12---|
|-------5/6-------------9-------9-----9---5/6------------------12---12---|
|------------------------------------------------------------------------|
|---0---------0----0---------0-------------------0-------0---------------|

 Solo 2:
|--------------------------------------------------------------------------|
|--------------------------------------------------------------------------|
|-----------------------------------------------9hb-----------11fb--(11)---|
|---------------------------------9-9hb-11-(11)---------11-----------------|
|--------7----9fb--(9)----7-7-9/11-----------------------------------------|
|--9--------9--------------------------------------------------------------|

|----------------------------------------------------------------------0---|
|-------------------------------12-(12)-------12--------------------5--5---|
|--(11)----11fb(11)p9-----9hb---11-(11)-------11-(11)p9------------6-6-----|
|----------------------11-------------------------------11-9-(9)/6---------|
|--------------------------------------------------------------------------|
|--------------------------------------------------------------------------|

|--(0)--0--0--0------------------------------------------------------------|
|--(5)--3--2--0---2hb--2hb--0----0----0--(0)--0--0--0--0--2--4-------------|
|-----------------2hb--2hb--0--1-1--2-4--(4)--4--2--2--1--2--4-------------|
|---------------------------------------------------------4--4--2fb(2)p0-2-|
|--------------------------------------------------------------------------|
|--------------------------------------------------------------------------|

|--------------------------------------------------------------------------|
|---------15-15fb-(15)-15fb(15)--------------------------------14\12-------|
|-/4----------------------------14fb-14fb--14fb(14)p12----------------6hb--|
|-/4--/12-----------------------------------------------14-12--14\12-------|
|--------------------------------------------------------------------------|
|--------------------------------------------------------------------------|

|--------------------------------------------------------------------------|
|--------------------------------------------------------------------------|
|--(6)--4------------------------------------------------------------------|
|----------6hb------4------------------------------------------------------|
|---------------------4-(4)--2---------------------------------------------|
|------------------------------4hb----0--2----------------------------(2)--|

Finish this way:
    E5  D5   B5  A5  G5  E5   A   G   E       E7#9  
|----------------------------------------------3-----(3)\----------------|
|----------------------------------------------3-----(3)\----------------|
|---9---7---------------------6---4---1--------1-----(1)\----------------|
|---9---7----8----7---5-------7---5---2--------2-----(2)\----------------|
|---7---5----8----7---5-------7---5---2--------2-----(2)\----------------|
|------------6----5---3---0---5---3---0--------0-----(0)\*---------------|
                                              * Slowly detune low E string

2.SWEET CHILD O' MINE

E:|--------------15----14-----|--------------15----14-----|
B:|-----15--------------------|-----15--------------------|
G:|--------14-12----14----14--|--------14-12----14----14--|
D:|--12-----------------------|--12-----------------------|
A:|---------------------------|---------------------------|
E:|---------------------------|---------------------------|

E:|--------------15----14-----|--------------15----14-----|
B:|-----15--------------------|-----15--------------------|
G:|--------14-12----------14--|--------14-12----------14--|
D:|--14-----------------------|--14-----------------------|
A:|---------------------------|---------------------------|
E:|---------------------------|---------------------------| 
                                
E:|--------------15----14-----|--------------15----14-----|
B:|-----15--------------------|-----15--------------------|
G:|--12----14-12----14----14--|--12----14-12----14----14--|
D:|---------------------------|---------------------------|
A:|---------------------------|---------------------------|
 
E:|--------------15----14-----|--------------15----14-----|
B:|-----15--------------------|-----15--------------------|
G:|--------14-12----14----14--|--------14-12----14----14--|
D:|--12-----------------------|--12-----------------------|
A:|---------------------------|---------------------------|
E:|---------------------------|---------------------------|

E:|--------------15----14-----|--------------15----14-----|
B:|-----15--------------------|-----15--------------------|
G:|--------14-12----------14--|--------14-12----------14--|
D:|--14-----------------------|--14-----------------------|
A:|---------------------------|---------------------------|
E:|---------------------------|---------------------------| 
                                
E:|--------------15----14-----|--------------15----14-----|
B:|-----15--------------------|-----15--------------------|
G:|--12----14-12----14----14--|--12----14-12----14----14--|
D:|---------------------------|---------------------------|
A:|---------------------------|---------------------------|

E:|--------------15----14-----|--------------15----14-----|
B:|-----15--------------------|-----15--------------------|
G:|--------14-12----14----14--|--------14-12----14----14--|
D:|--12-----------------------|--12-----------------------|
A:|---------------------------|---------------------------|
E:|---------------------------|---------------------------|
 








    
E:|--------------15----14-----|--------------15----14-----|
B:|-----15--------------------|-----15--------------------|
G:|--------14-12----14----14--|--------14-12----14----14--|
D:|--12-----------------------|--12-----------------------|
A:|---------------------------|---------------------------|
E:|---------------------------|---------------------------! 
    
E:|--------------15----14-----|--------------15----14-----|
B:|-----15--------------------|-----15--------------------|
G:|--------14-12----------14--|--------14-12----------14--|
D:|--14-----------------------|--14-----------------------|
A:|---------------------------|---------------------------|
E:|---------------------------|---------------------------

E:|--------------15----14-----|--------------15----14-----|
B:|-----15--------------------|-----15--------------------|
G:|--12----14-12----14----14--|--12----14-12----14----14--|
D:|---------------------------|---------------------------|
A:|---------------------------|---------------------------|
E:|---------------------------|---------------------------< 



E:|--12------------12----14---|--15----14----12---------------14---|
B:|---------15----------------|---------------------15--------15---|
G:|-----14------14----14---14-|-----14----14----14------14----14---|
D:|---------------------------|------------------------------------| 
A:|---------------------------|------------------------------------| 
E:|---------------------------|------------------------------------| 
Verse 1:  


E:|-10------------------------|---------8--------------------------|
B:|-10------------------------|---------8--------------------------|
G:|-11------------------------|---------9--------------------------|
D:|-12------------------------|---------10-------------------------| 
A:|---------------------------|------------------------------------| 
E:|---------------------------|------------------------------------| 
  
1-She`s got a smile that it seems to me reminds me of child hood 


E:|--10p8------------------|--3-------------|-3-------3------------|
B:|-----------8-------(8)/-|--3-------------|----3-----------3-----|
G:|------------------------|--0-------------|-------0------------0-|
D:|------------------------|--5-------------|----------------------| 
A:|------------------------|----------------|----------------------| 
E:|------------------------|----------------|----------------------|

       memories,    where everything was as fresh as the bright blue sky.


E:|--2-------2----------3p2---|---------------0----------------2---|
B:|--3-------3----------3-----|-------3---------------3------------|
G:|--2-------2----------2-----|-----------2----------------2-------|
D:|--0-------0----------0-----|--0---------------------------------| 
A:|---------------------------|------------------------------------| 
E:|---------------------------|------------------------------------|

                               Now and then___        when I            

E:|-----------2--3--3--2--0---|-------------------0----------------|
B:|---3----------------------3|-----------3----------3----3--------|
G:|------2--------------------|------0-------0---------------0----0|
D:|---------0-----------------|--------2--------2------------------| 
A:|---------------------------|---3---------------------3-------3--| 
E:|---------------------------|------------------------------------|

   see her face she takes me away to that special place, and if I


E:|----------------------0----------0------------------3--------2--|
B:|---------3------3-------3---3------3-----3-----3----3--3-----3--|
G:|--------------0---0-------0----------0-----2-----2--2----2---2--|
D:|-----0-----0---------------------------0-----0---------------0--| 
A:|----------------------------------------------------------------| 
E:|-3--------------------------------------------------------------|

Stared too long I`ll  probably break down and cry__________________


Chorus: 
 
E:|---------------------------|--------------12----10-----|
B:|-----14-------15----14-----|-----13--------------------|
G:|--------14-------14----14--|--------12-10----12----12--|
D:|-----------14--------------|--10-----------------------|
A:|---11----------------------|---------------------------|
E:|---------------------------|---------------------------| 
  |                           |                           |
E:|---------------------------|---------------------------|
B:|---------------------------|---------------------------|
G:|---2------2-------2--4-----|--5-------5----------------|
D:|---2------2-------2--4-----|--5-------5----------------| 
A:|---0------0-------0--2-----|--3-------3----------------| 
E:|---------------------------|---------------------------|

  Whoa                  Whoa    Whoa____, sweet child  o`mine
   
E:|--------------15----14-----|--------------15---14-----|
B:|-----15--------------------|-----15-------------------|
G:|--------14-12----14----14--|--------14-12---14----14--|
D:|--12-----------------------|--12----------------------|
A:|---------------------------|--------------------------|
E:|---------------------------|--------------------------| 
  |                           |                          |				 
E:|-2----------------------2--|-3---2---0---2------------|
B:|-3----------------------3--|-3---3---3---2------------|
G:|-2----------------------2--|-2---2---2---3------------|
D:|-0----------------------0--|-0---0---0---0------------| 
A:|---------------------------|--------------------------| 
E:|---------------------------|--------------------------|


E:|---------------------------|--------------12----10----|
B:|-----14-------15----14-----|-----13-------------------|
G:|--------14-------14----14--|--------12-10----12----12-|
D:|-----------14--------------|---10---------------------|
A:|---11----------------------|--------------------------|
E:|---------------------------|--------------------------|
  |                           |                          |
E:|-2----------------------2--|-3---2---0---2------------|
B:|-3----------------------3--|-3---3---3---2------------|
G:|-2----------------------2--|-2---2---2---3------------|
D:|-0----------------------0--|-0---0---0---0------------| 
A:|---------------------------|--------------------------| 
E:|---------------------------|--------------------------|

  Whoa        oh  oh       sweet love of  mine




E:|---------------------------|---------------------------|
B:|--------15-----------------|---------------------------|
G:|--12s14--------------------|---------------------------|
D:|---------------------------|---------------------------|
A:|---------------------------|---------------------------|
E:|---------------------------|---------------------------|
  |                           |                           |			 
E:|-2----------------------2--|-3---2---0---2-------------|
B:|-3----------------------3--|-3---3---3---2-------------|
G:|-2----------------------2--|-2---2---2---3-------------|
D:|-0----------------------0--|-0---0---0---0-------------| 
A:|---------------------------|---------------------------| 
E:|---------------------------|---------------------------|

FILL1:

E:|-------------------------------------------------------------
B:|---10---8--7-----10--8--7----10---8------10---8-----10-\-8---
G:|-------------------------------------9------------9----------|
D:|-------------------------------------------------------------|
A:|-------------------------------------------------------------|
E:|-------------------------------------------------------------|

E:|------------------10--10^--(10)---------------|
B:|-10-^-(10)8--10-^--------------full-----------|
G:|--------------------------------9-^-----------|
D:|----------------------------------------------|
A:|----------------------------------------------|
E:|----------------------------------------------|

Verse 2:

E:|-10------------------------|---------8--------------------------|
B:|-10------------------------|---------8--------------------------|
G:|-11------------------------|---------9--------------------------|
D:|-12------------------------|---------10-------------------------| 
A:|---------------------------|------------------------------------| 
E:|---------------------------|------------------------------------| 
  
2- She`s got eyes of the bluest skies, as if they thought of rain___ 


E:|--10p8------------------|--3-------------|-3-------3------------|
B:|-----------8-------(8)/-|--3-------------|----3-----------3-----|
G:|------------------------|--0-------------|-------0------------0-|
D:|------------------------|--5-------------|----------------------| 
A:|------------------------|----------------|----------------------| 
E:|------------------------|----------------|----------------------|

_________________________I`d hate to look into those eyes    and                             


E:|--2-------2----------3p2---|---------------0----------------2---|
B:|--3-------3----------3-----|-------3---------------3------------|
G:|--2-------2----------2-----|-----------2----------------2-------|
D:|--0-------0----------0-----|--0---------------------------------| 
A:|---------------------------|------------------------------------| 
E:|---------------------------|------------------------------------|

  See an ounce of pain        Her hair reminds    me   of     a ____
        

E:|-----------2--3--3--2--0---|-------------------0----------------|
B:|---3----------------------3|-----------3----------3----3--------|
G:|------2--------------------|------0-------0---------------0----0|
D:|---------0-----------------|--------2--------2------------------| 
A:|---------------------------|---3---------------------3-------3--| 
E:|---------------------------|------------------------------------|

   Warm   safe  place  whre as a child I`d hide,________________and_


E:|----------------------0----------0------------------3--------2--|
B:|---------3------3-------3---3------3-----3-----3----3--3-----3--|
G:|--------------0---0-------0----------0-----2-----2--2----2---2--|
D:|-----0-----0---------------------------0-----0---------------0--| 
A:|----------------------------------------------------------------| 
E:|-3--------------------------------------------------------------|

Pray__for the thunder  and the rain to quietly pass me by___________


Chorus: 
 
E:|---------------------------|--------------12----10-----|
B:|-----14-------15----14-----|-----13--------------------|
G:|--------14-------14----14--|--------12-10----12----12--|
D:|-----------14--------------|--10-----------------------|
A:|---11----------------------|---------------------------|
E:|---------------------------|---------------------------| 
  |                           |                           |
E:|---------------------------|---------------------------|
B:|---------------------------|---------------------------|
G:|---2------2-------2--4-----|--5-------5----------------|
D:|---2------2-------2--4-----|--5-------5----------------| 
A:|---0------0-------0--2-----|--3-------3----------------| 
E:|---------------------------|---------------------------|

  Whoa                  Whoa    Whoa____, sweet child  o`mine
   
E:|--------------15----14-----|--------------15---14-----|
B:|-----15--------------------|-----15-------------------|
G:|--------14-12----14----14--|--------14-12---14----14--|
D:|--12-----------------------|--12----------------------|
A:|---------------------------|--------------------------|
E:|---------------------------|--------------------------| 
  |                           |                          |				 
E:|-2----------------------2--|-3---2---0---2------------|
B:|-3----------------------3--|-3---3---3---2------------|
G:|-2----------------------2--|-2---2---2---3------------|
D:|-0----------------------0--|-0---0---0---0------------| 
A:|---------------------------|--------------------------| 
E:|---------------------------|--------------------------|



E:|---------------------------|--------------12----10----|
B:|-----14-------15----14-----|-----13-------------------|
G:|--------14-------14----14--|--------12-10----12----12-|
D:|-----------14--------------|---10---------------------|
A:|---11----------------------|--------------------------|
E:|---------------------------|--------------------------|
  |                           |                          |
E:|-2----------------------2--|-3---2---0---2------------|
B:|-3----------------------3--|-3---3---3---2------------|
G:|-2----------------------2--|-2---2---2---3------------|
D:|-0----------------------0--|-0---0---0---0------------| 
A:|---------------------------|--------------------------| 
E:|---------------------------|--------------------------|

  Whoa        oh  oh       sweet love of  mine




E:|---------------------------|---------------------------|
B:|--------15-----------------|---------------------------|
G:|--12s14--------------------|---------------------------|
D:|---------------------------|---------------------------|
A:|---------------------------|---------------------------|
E:|---------------------------|---------------------------|
  |                           |                           |			 
E:|-2----------------------2--|-3---2---0---2-------------|
B:|-3----------------------3--|-3---3---3---2-------------|
G:|-2----------------------2--|-2---2---2---3-------------|
D:|-0----------------------0--|-0---0---0---0-------------| 
A:|---------------------------|---------------------------| 
E:|---------------------------|---------------------------|

 


  FILL 2: 
E:|-------------------------------------------------------------|
B:|---10---8--7-----10--8--7----10---8------10---8-----10-\-8---|
G:|-------------------------------------9------------9----------|
D:|-------------------------------------------------------------|
A:|-------------------------------------------------------------|
E:|-------------------------------------------------------------|

E:|--------------------------------10--------------------|
B:|-10-\-8-7hb--(7)----7-^------------(7)-----10----8--7-|
G:|------------------7-----------------------------------|
D:|------------------------------------------------------|
A:|------------------------------------------------------|
E:|------------------------------------------------------|

E:|------------------------10----10-\-8-------/12--------|
B:|-10---8----7-----/10-^--------------------------------|
G:|------------------------------------------------------|
D:|------------------------------------------------------|
A:|------------------------------------------------------|
E:|------------------------------------------------------|




E:|--12---12-\-10---10-(10)\-8---7-^--(7)----------------|
B:|-----------------------------------------8------------|
G:|---------------------------------------------7-~~~~~~~|
D:|------------------------------------------------------|
A:|------------------------------------------------------|
E:|------------------------------------------------------|

E:|-----------------------10---10-^--(10)-------------17----(17)|
B:|-10-^--(10)p8---10-^-------------------17-^---(17)-------(17)|
G:|-------------------------------------------------------------|
D:|-------------------------------------------------------------|
A:|-------------------------------------------------------------|
E:|-------------------------------------------------------------|

THIS IS FILL 3:
CHORUS:A5 C5 D5(FILL 3)
       A5 C5 D5
       A5 C5 D5(FILL 3)

       A5 C5 D5 D5 D5 D5 
E:|-----------------------------|
B:|--7hb------------------------|
G:|------7----------------------|
D:|--------7--5-/-4---0---------|
A:|----------------------3^-----|
E:|-----------------------------|


 
 SOLO:

E:|-17^--hold----15--14--h15p14-----------15--14--h15p14-----------12--14-|
B:|-----------------------------17-----------------------17-16------------|
G:|-----------------------------------------------------------------------|
D:|-----------------------------------------------------------------------|
A:|-----------------------------------------------------------------------|
E:|-----------------------------------------------------------------------| 


E:|-----------------------------------------------------------------------|
B:|--15^--12----------------------------------------13-12-------h13p12\10-|
G:|----------14^--12--11h12----------------11-12-14-----------------------|
D:|-----------------------------14-----14---------------------------------|
A:|-----------------------------------------------------------------------|
E:|-----------------------------------------------------------------------|


E:|---------------------------------------------15^-----------------------|
B:|--13^-----13-----12--12-(12)-------12^----------------7^^--------------|
G:|-----------------------------------------14-----------------9--9-------|
D:|-----------------------------------------------------------------------|
A:|-----------------------------------------------------------------------|
E:|-----------------------------------------------------------------------|

E:|-----------------------------------------------------------------------|
B:|-----7^----------------------------------------------------------------|
G:|----------9--9-----8^----8/11---------11^---9-----------------9--------|
D:|-----------------------------------------------9^---7---9--------------|
A:|-----------------------------------------------------------------------|
E:|-----------------------------------------------------------------------|

E:|-----------------------------------------------------------------------|
B:|--------7h8--p7---------------------------------------------7^---7-10^-|
G:|----------------------9------8^-----8------/11-----9^--8-9-----9-------|
D:|-----------------------------------------------------------------------|
A:|-----------------------------------------------------------------------|
E:|-----------------------------------------------------------------------|

E:|-7-8p7-11p7-8-11-12/14-11-12--14/15-12-14-15p14-12----14p11-12h14p12---|
B:|---------------------------------------------------15----------------15|
G:|-----------------------------------------------------------------------|
D:|-----------------------------------------------------------------------|
A:|-----------------------------------------------------------------------|
E:|-----------------------------------------------------------------------|

This par uses wah wah 

E:|-17--------------------------------------------------------------------|
B:|----15^---15^---15^---15^---15^-p12-----15^----15^--------15^-p12------|
G:|------------------------------------14----------------------------14---|
D:|-----------------------------------------------------------------------|
A:|-----------------------------------------------------------------------|
E:|-----------------------------------------------------------------------|

E:|----------------------------------15-----------------------------------|
B:|--17^---17^--------17^----17^----------17^---------17^-p15--15h17------|
G:|-------------------17^-------------------------------------------------|
D:|-----------------------------------------------------------------------|
A:|-----------------------------------------------------------------------| 
E:|-----------------------------------------------------------------------| 

E:|-----------12----------------------------------------------------------|
B:|-15^------------15---12------------------------------------------------|
G:|---------------------------14^-p12-14---12-14----12--14^----12--14--12-|
D:|-----------------------------------------------------------------------|
A:|-----------------------------------------------------------------------|
E:|-----------------------------------------------------------------------|

E:|----15-------------15-----15-----15------------------------------------|
B:|----15-------15----15-----15-------15----------------------------------|
G:|-14^--14--12-14^-----14^----14^------14^-p12----14p12--x-x----12^------|
D:|---------------------------------------------14--------x-x-------------|
A:|-----------------------------------------------------------------------|
E:|-----------------------------------------------------------------------|

E:|-----------------------------------------------------------------------|
B:|-----------------------------------------------------------------------|
G:|-----------------12h14p12----12^--------------------12h14p12-----12-12-|
D:|-14p12-14----x-x----------14--------14p12-14----x-x----------14--------|
A:|-----------------------------------------------------------------------|
E:|-----------------------------------------------------------------------|


E:|----------------------------------------------12-12-------15-15p12--15-|
B:|-------------------12-12-------15-15p12-------------15p12--------------| 
G:|-------14-14p12-14-------14p12-----------------------------------------| 
D:|-14p12-----------------------------------------------------------------| 
A:|-----------------------------------------------------------------------|
E:|-----------------------------------------------------------------------| 

E:|-14----12h15p12---------12-----------12-----------12-----------12------|
B:|----15----------15--15^----15p12--------15p12-15^----15p12--------15p12| 
G:|----------------------------------14^-----------------------14^--------|
D:|-----------------------------------------------------------------------|
A:|-----------------------------------------------------------------------|
E:|-----------------------------------------------------------------------|

E:|------12-----------12-----------12--------------12-------15^-----------|
B:|--15^----15p12--------15p12-15^----15p12-----12----15p12---------------|
G:|---------------14^-----------------------14^---------------------------|
D:|-----------------------------------------------------------------------|
A:|-----------------------------------------------------------------------|
E:|-----------------------------------------------------------------------|

E:|--------------------15------12h15p12----12------12---------------------|
B:|-------------------------------------15-----15^-----15p12--------------|
G:|-----------------------------------------------------------14^-p12-14^-|
D:|-----------------------------------------------------------------------|
A:|-----------------------------------------------------------------------|
E:|-----------------------------------------------------------------------|

E:|---------------------------------------------------|
B:|-------15------------------------------------------|
G:|----------14^-p12-14^----14p12--------------12-----|
D:|----------------------14-------14------------------|
A:|---------------------------------------------------|
E:|---------------------------------------------------|

Following vocals ad lib over E  F#  G  A  B  C  D  G chord sequence 
Where do we go?_____ Where do we go_____now? 
Where do we go?_____ Where do we go?______ 
Where do we go____now?_____ Where do we go?______ 
Where do we go?_____  CHILD ! 
Where do we go____now? Where do we go______now, 
Now?_________________Where do  we go?

ENDING :
|--------------------------------------------------------------------|
|-----------------------------------------------------------------9--|
|---------------------------------------------------------------9----| 
|--14-/-9----9/5---------------------------------------------9-------|
|---------------------10-/-7-/-2---------------------------7---------|
|-------------------------------------5-/-3hb---3-/-0----------------|

3.PATIENCE

Quarter=120=----
  
>C---------------|----------------|G---------------|----------------|
>                |                |                |                |
>------0---0-----|----------------|----------------|----------------|
>------1---1-1-1-|3p1-1-0h1-1-1p0-|------0---------|1p0-------------|
>----0-------0-0-|0---0-0---0-0---|----0-----0-----|----0-2p0---0h2-|
>2-2---------2-2-|2---2-2---2-2---|--0---------0---|----------0-0h2-|
>3-----------3-3-|3---3-3---3-3---|2-------------2-|----------------|
>----------------|----------------|----------------|----------------|
>
>
>
>Av--------------|----------------|D---------------|----------------|
>                |                |                |                |
>----------------|----------------|2---2---2-2-----|3p2-2-0---2-----|
>----2---------0-|3p2---0h2-2-----|3-3---3-----3-3-|3---3-3---3-----|
>------2---2-----|----2-0h2-2-2-0-|2-------------2-|2---2-2---2-----|
>--------2---2---|----2-------2-0-|0-------------0-|0---0-0---0-----|
>0---------------|----------------|----------------|------------0-2-|
>----------------|----------------|----------------|----------------|
>                |                |                |                |
>----------------|----------------|----------------|----------------|
>----------------|----------------|----------------|----------------|
>----------------|----------------|----------------|------------7---|
>----------------|----------------|----------------|----------------|
>----------------|----------------|----------------|----------------|
>----------------|----------------|----------------|----------------|
>
>
>
>C---------------|----------------|G---------------|----------------|
>                |                |                |                |
>------0---0-----|----------------|----------------|----------------|
>------1---1-1-1-|3p1-1-0h1-1-1p0-|------0---------|1p0-------------|
>----0-------0-0-|0---0-0---0-0---|----0-----0-----|----0-2p0---0h2-|
>2-2---------2-2-|2---2-2---2-2---|--0---------0---|----------0-0h2-|
>3-----------3-3-|3---3-3---3-3---|2-------------2-|----------------|
>----------------|----------------|----------------|----------------|
>                |                |                |                |
>----------------|----10----------|--7-8-9-10------|----------------|
>8-------------8-|1012--10--8-108-|10^-------10^-8-|------------10--|
>----------------|------**--------|----------------|--------------9-|
>----------------|----------------|----------------|----------------|
>----------------|----------------|----------------|----------------|
>----------------|----------------|----------------|----------------|
>
>
>Av--------------|----------------|D---------------|----------------|
>                |                |                |                |
>----------------|----------------|2---2---2-2-----|3p2-2-0---2-----|
>----2---------0-|3p2---0h2-2-----|3-3---3-----3-3-|3---3-3---3-----|
>------2---2-----|----2-0h2-2-2-0-|2-------------2-|2---2-2---2-----|
>--------2---2---|----2-------2-0-|0-------------0-|0---0-0---0-----|
>0---------------|----------------|----------------|------------0-2-|
>----------------|----------------|----------------|----------------|
>                |                |                |                |
>------------7s8s|9---------------|--10----8-----7-|----7s5---------|
>10--------------|----------------|----------------|8---------------|
>------------7s8s|9---------------|11----9-----7---|--7--s5---------|
>----------------|----------------|----------------|----------------|
>----------------|----------------|----------------|----------------|
>----------------|----------------|----------------|----------------|
>
>
>
>C---/---/-/-/-G6|G-/-/-/-/-/-/-/-|C---/-/-/-/-/-G6|Em--/-/-/-/-/-G6|
>                |                |                |                |
>------0---------|----------------|----------------|----------------|
>----1---3p1-----|----------------|------1---------|----------------|
>--0-----------0-|------0---------|----0---0-------|------0---------|
>2-----------2---|----0-----0-----|--2-------2-----|----2-----------|
>3---------------|--2---------2---|3---------------|--2-------------|
>----------------|3-------------3-|------------3-2-|0---------------|
>
>
>C---/-/-/-/-/-G6|G---/-/-/-/-/-G6|D---------------|----------------|
>                |                |                |                |
>----------------|----------------|------2---------|----------------|
>------1---------|--------0-------|3---------------|----------------|
>----0---0-------|------0---0-----|2---------------|----------------|
>--2-------2-----|----0-------0---|0---------------|----------------|
>3-----------3-2-|2-2-------------|----------------|----------------|
>----------------|3---------------|----------------|----------------|
>
>
>
>
>    Shed a tear...
>----------------|----------------|----------------|----------------|
>------1---1-1-1-|3p1---0---1-----|----------------|----------------|
>----0-----0-0-0-|0-----------0---|----------------|--------0-----0-|
>--2-------2-2-2-|2---------------|----------------|----0-----0-2-0-|
>3---------3-3-3-|3---3---------3-|2-------2-0-----|----2-0---------|
>----------------|----------------|----------------|3---------------|
>                |                |                |                |
>----------------|----------------|----------------|----------------|
>------1---------|3-1---1---------|----------------|----------------|
>----0-----------|----0---0-------|------0---------|------0---------|
>--2-------------|----------2-----|----0-----------|----0---0-----0-|
>3---------------|------------3-0-|2---------0-----|--2-------2-----|
>----------------|----------------|--------------3-|3-----------3---|
>
>
>
>--------5-------|----------------|----------------|----------------|
>------2---------|3p2---0---2-----|----------------|----------------|
>----2-----------|----------------|----------------|--2---2-4-2-----|
>2---------------|----2-----------|0-------------0s|4-----------4---|
>0---------------|----------0-3-4-|----------------|--------------0-|
>----------------|----------------|----------------|----------------|
>                |                |                |                |
>------5---------|5-----5---------|------0-2-------|3-2-----0-2-----|
>----5---5-------|5-------5-------|----3-----------|----------------|
>--6-------------|7---------------|----------------|----------------|
>7-----------7---|----------------|0-------------0-|----------------|
>----------------|----------0-3-4-|----------------|----------------|
>----------------|----------------|----------------|----------------|
>
>
>    Was a time...
>----------------|----------------|----------------|----------------|
>------1---1-1-1-|3p1---0---1-----|----------------|----------------|
>----0-----0-0-0-|0-----------0---|----------------|--------0-----0-|
>--2-------2-2-2-|2---------------|----------------|----0-----0-2-0-|
>3---------3-3-3-|3---3---------3-|2-------2-0-----|----2-0---------|
>----------------|----------------|----------------|3---------------|
>                |                |                |                |
>----------------|----------------|----------------|----------------|
>------1---------|3-1---1---------|----------------|----------------|
>----0-----------|----0---0-------|------0---------|------0---------|
>--2-------------|----------2-----|----0-----------|----0---0-----0-|
>3---------------|------------3-0-|2---------0-----|--2-------2-----|
>----------------|----------------|--------------3-|3-----------3---|
>
>
>
>
>--------5-------|----------------|------0-2-------|3-2---0-0-2-----|
>------2---------|3p2---0---2-----|----3-----3-----|------3-3-3---0-|
>----2-----------|----------------|------------2---|--------2-2-2---|
>2---------------|----2-----------|0-------------0-|----------------|
>0---------------|----------0-3-4-|----------------|----------------|
>----------------|----------------|----------------|----------------|
>                |                |                |                |
>------5---------|5-----5---------|----2---2-------|----------------|
>----5---5-------|5-------5-------|------3---3-----|3-----3---3-3-0-|
>--6-------------|7---------------|------------2-0-|----------2-2-0-|
>7-----------7---|----------------|0---------------|----------0-0-0-|
>----------------|----------0-3-4-|----------------|----------------|
>----------------|----------------|----------------|----------------|
>
>CHORUS
>    Said woman, take it slow...
>C9--/---/-/-/-G6|G---/---/-/-/-G6|C---/-/-/-/-/-G6|Em--/---/-/-/-G6|
>                |                |                |                |
>----------------|--------3-------|----------------|------0---------|
>1-------1-------|3-3-0-0---3---0-|----1-----------|----0---0-------|
>0-------0-------|0-----------0---|0---0-----------|----------0---0-|
>2-------2-------|0---------------|2---2-----------|--2---------2---|
>3-------3-------|2---------------|3---3-----------|----------------|
>----------------|3---------------|------------3-2-|0---------------|
>
>
>C---/---/-/-/-G6|G---/---/-/-/-/-| Same as tabbed | guitar---------|
>                |                |                |                |
>------0---------|----------------|2---2---0-2---3-|--2---0---2-----|
>------1---1-1-0-|--------------0-|3---3(3)3-3---3-|3-3-3-3-3-3-3-0-|
>--0---0---0-0-0-|0-----0-------0-|2---2(2)2-2---2-|2-2-2-2-2-2-2-0-|
>2---2-----2-2-0-|0---0-----0---0-|0---0(0)0-0---0-|0-0-0-0-0-0-0-0-|
>3---3-----3-3---|2-----------2---|----------------|----------------|
>----------------|3---------------|----------------|----------------|
>
>C9--/---/-/-/-G6|G---/---/-/-/-G6|C---/-/-/-/-/-G6|Em--/---/-/-/-G6|
>                |                |                |                |
>----------------|--------3-------|----------------|------0---------|
>1-------1-------|3-3-0-0---3---0-|----1-----------|----0---0-------|
>0-------0-------|0-----------0---|0---0-----------|----------0---0-|
>2-------2-------|0---------------|2---2-----------|--2---------2---|
>3-------3-------|2---------------|3---3-----------|----------------|
>----------------|3---------------|------------3-2-|0---------------|
>
>                                  Figure 1            (end Figure 1)
>C---/---/-/-/-G6|G---/---/-/-/-/-|D---------------|--------------//|
>                |                |                |                |
>------0---------|----------------|2---2---0-2---3-|--2---0---2---22|
>------1---1-1-0-|--------------0-|3---3(3)3-3-3-3-|3-3-3-3-3-3-3-33|
>--0---0---0-0-0-|0-----0-------0-|2---2(2)2-2-2-2-|2-2-2-2-2-2-2-22|
>2---2-----2-2-0-|0---0-----0---0-|0---0(0)0-0-0-0-|0-0-0-0-0-0-0-00|
>3---3-----3-3---|2-----------2---|----------------|----------------|
>----------------|3---------------|----------------|----------------|
>
>
>2---------------|----------------|----10----------|----------------|
>3---------------|--------------5s|10--------------|----------------|
>2---------------|--------------6s|11--------------|--------------7s|
>0---------------|--------------7s|12--------------|----------------|
>----------------|----------------|----------------|----------------|
>----------------|----------------|----------------|----------------|
>                |                |                |                |
>2---2---0-2---3-|--2---0---2---22|2---2---0-2---3-|--2---0---2---22|
>3---3(3)3-3-3-3-|3-3-3-3-3-3-3-33|3---3(3)3-3-3-3-|3-3-3-3-3-3-3-33|
>2---2(2)2-2-2-2-|2-2-2-2-2-2-2-22|2---2(2)2-2-2-2-|2-2-2-2-2-2-2-22|
>0---0(0)0-0-0-0-|0-0-0-0-0-0-0-00|0---0(0)0-0-0-0-|0-0-0-0-0-0-0-00|
>----------------|----------------|----------------|----------------|
>----------------|----------------|----------------|----------------|
>
>
>______________________
>| 1.
>----14--------14|----14--14--14\-|
>----------------|--14--14--14----|
>14--------14----|----------------|
>----------------|----------------|
>----------------|----------------|
>----------------|----------------|
>                |                | Go back to play Verse 2.
>2---2---0-2---3-|--2---0---2-----|
>3---3(3)3-3-3-3-|3-3-3-3-3-3-----|
>2---2(2)2-2-2-2-|2-2-2-2-2-2-----|
>0---0(0)0-0-0-0-|0-0-0-0-0-0-----|
>----------------|------------0-2-|
>----------------|----------------|
>
>
>______________________
>| 2.
>----14--------14|------------8p7-|8-------8s108---|------------8p7-|
>----------------|----------------|--------------12|--------8-------|
>14--------14----|----------------|--------------**|----------------|
>----------------|----------------|----------------|----------------|
>----------------|----------------|----------------|----------------|
>----------------|----------------|----------------|----------------|
>                |                |                |                |
>2---2---0-2---3-|--2-----------00|----------------|----------------|
>3---3(3)3-3-3-3-|3-3-3-0-0-3-3-11|----------------|----------------|
>2---2(2)2-2-2-2-|2-2-2-0-0-2-2-00|With chorus backing chords-------|
>0---0(0)0-0-0-0-|0-0-0-0-0-0-0-22|----------------|----------------|
>----------------|--------------33|----------------|----------------|
>----------------|----------------|----------------|----------------|
>
>
>
>8-------8s10--12|------------8p7-|8-------8s108---|--------------12|
>------------12**|----------------|--------------12|--108---8---8-**|
>----------------|----------------|--------------**|----------------|
>----------------|----------------|----------------|----------------|
>----------------|----------------|----------------|----------------|
>----------------|----------------|----------------|----------------|
>                |                |                |                |
>----------------|----------------|----------------|----------------|
>----------------|----------------|----------------|----------------|
>----------------|----------------|----------------|----------------|
>----------------|----------------|----------------|----------------|
>----------------|----------------|----------------|----------------|
>----------------|----------------|----------------|----------------|
>
>                       h
>--1010--------14|--12101210------|----------------|----------------|
>--------------**|----------------|----5-8---------|----------------|
>----------------|----------------|7^------7^r-5---|----4-7---------|
>----------------|----------------|----------------|7^------7^r-5---|
>----------------|----------------|----------------|----------------|
>----------------|----------------|----------------|----------------|
>                |                |                |                |
>----------------|----------------|----------------|----------------|
>----------------|----------------|----------------|----------------|
>With Figure 1---|----------------|With chorus backing chords-------|
>----------------|----------------|----------------|----------------|
>----------------|----------------|----------------|----------------|
>----------------|----------------|----------------|----------------|
>
>----------------|----------------|----------------|----------------|
>----5-8---------|--8-10^8----8-10|10^-r-8-10--8-10^--8-10--8-108-12|
>7^------7^r-5-7s|9-------9-------|----------9-----|------9-------**|
>----------------|----------------|----------------|----------------|
>----------------|----------------|----------------|----------------|
>----------------|----------------|----------------|----------------|
>                |                |                |                |
>----------------|----------------|----------------|----------------|
>----------------|----------------|----------------|----------------|
>----------------|----------------|----------------|----------------|
>----------------|----------------|----------------|----------------|
>----------------|----------------|----------------|----------------|
>----------------|----------------|----------------|----------------|
>
>----------------|----------------|----------------|----------------|
>--1010----------|----------------|5---3-------4p2-|----2---------7^|
>----------------|----------------|**--------------|3h4---0---------|
>----------------|----------------|----------------|----------------|
>----------------|----------------|----------------|----------------|
>----------------|----------------|----------------|----------------|
>                |                |                |                |
>----------------|----------------|----------------|----------------|
>----------------|----------------|----------------|----------------|
>With Figure 1 (3 times)----------|----------------|----------------|
>----------------|----------------|----------------|----------------|
>----------------|----------------|----------------|----------------|
>----------------|----------------|----------------|----------------|
>
>----------------|----------------|----------------|----------------|
>----7-----------|-------***----7^|--7-----5-7---3-|----------3-----|
>----------------|4p2-----5-------|----------------|--2---0---2-----|
>----------------|----3h4-0-------|----------------|------0---0-----|
>----------------|----------------|----------------|----------------|
>----------------|----------------|----------------|----------------|
>                |                |                |                |
>----------------|----------------|2---2---0-2---3-|3-2---0---------|
>----------------|----------------|3---3(3)3-3-3-3-|3-3---3---3-----|
>----------------|----------------|2---2(2)2-2-2-2-|2-2---2---2-----|
>----------------|----------------|0---0(0)0-0-0-0-|0-0---0---0-----|
>----------------|----------------|----------------|----------------|
>----------------|----------------|----------------|----------------|
>
>
>For the last part of the song use the following figures:
>
>2---2---2---2-2-|-------3-33-3333|
>3---3---3---3-30|3-333-33-33-3333|
>2---2---2---2-20|0-000-00-00-0000|                 Figure 2
>0---0---0---0-00|0-000-00-00-0000|
>0--------------0|2---2-22-22-2222|
>----2-0-2---2-20|3---3-33-33-3333|
>
>F6//////////////|G-///-///////-/-|D---------------|Figure 3
>
>
>Play figure 2 10 times, then on the second "I need you" play figure 3.
>The song ends as follows:
>
>
>3p2-------------|2---------------|
>----3-----------|3---------------|
>------2---------|2---------------|
>--------5p4-0---|0---------------|
>----------------|----------------|
>----------------|----------------|
>


--


                   PATIENCE - GUNS 'N' ROSES
                   Tabbed by Vassilis Tzerpos

Key:

p = pull-off            ^ = bend
h = hammer-on           r = release bend
s = slide               / = repeat previous chord
* = slide to the above or below indicated note from as many frets below 
as the number of stars

Av = 577655    G6 = xx0000    C9 = x32030    F6 = 1x3231

Quarter=120=----
  
C---------------|----------------|G---------------|----------------|
                |                |                |                |
------0---0-----|----------------|----------------|----------------|
------1---1-1-1-|3p1-1-0h1-1-1p0-|------0---------|1p0-------------|
----0-------0-0-|0---0-0---0-0---|----0-----0-----|----0-2p0---0h2-|
2-2---------2-2-|2---2-2---2-2---|--0---------0---|----------0-0h2-|
3-----------3-3-|3---3-3---3-3---|2-------------2-|----------------|
----------------|----------------|----------------|----------------|



Av--------------|----------------|D---------------|----------------|
                |                |                |                |
----------------|----------------|2---2---2-2-----|3p2-2-0---2-----|
----2---------0-|3p2---0h2-2-----|3-3---3-----3-3-|3---3-3---3-----|
------2---2-----|----2-0h2-2-2-0-|2-------------2-|2---2-2---2-----|
--------2---2---|----2-------2-0-|0-------------0-|0---0-0---0-----|
0---------------|----------------|----------------|------------0-2-|
----------------|----------------|----------------|----------------|
                |                |                |                |
----------------|----------------|----------------|----------------|
----------------|----------------|----------------|----------------|
----------------|----------------|----------------|------------7---|
----------------|----------------|----------------|----------------|
----------------|----------------|----------------|----------------|
----------------|----------------|----------------|----------------|



C---------------|----------------|G---------------|----------------|
                |                |                |                |
------0---0-----|----------------|----------------|----------------|
------1---1-1-1-|3p1-1-0h1-1-1p0-|------0---------|1p0-------------|
----0-------0-0-|0---0-0---0-0---|----0-----0-----|----0-2p0---0h2-|
2-2---------2-2-|2---2-2---2-2---|--0---------0---|----------0-0h2-|
3-----------3-3-|3---3-3---3-3---|2-------------2-|----------------|
----------------|----------------|----------------|----------------|
                |                |                |                |
----------------|----10----------|--7-8-9-10------|----------------|
8-------------8-|1012--10--8-108-|10^-------10^-8-|------------10--|
----------------|------**--------|----------------|--------------9-|
----------------|----------------|----------------|----------------|
----------------|----------------|----------------|----------------|
----------------|----------------|----------------|----------------|


Av--------------|----------------|D---------------|----------------|
                |                |                |                |
----------------|----------------|2---2---2-2-----|3p2-2-0---2-----|
----2---------0-|3p2---0h2-2-----|3-3---3-----3-3-|3---3-3---3-----|
------2---2-----|----2-0h2-2-2-0-|2-------------2-|2---2-2---2-----|
--------2---2---|----2-------2-0-|0-------------0-|0---0-0---0-----|
0---------------|----------------|----------------|------------0-2-|
----------------|----------------|----------------|----------------|
                |                |                |                |
------------7s8s|9---------------|--10----8-----7-|----7s5---------|
10--------------|----------------|----------------|8---------------|
------------7s8s|9---------------|11----9-----7---|--7--s5---------|
----------------|----------------|----------------|----------------|
----------------|----------------|----------------|----------------|
----------------|----------------|----------------|----------------|



C---/---/-/-/-G6|G-/-/-/-/-/-/-/-|C---/-/-/-/-/-G6|Em--/-/-/-/-/-G6|
                |                |                |                |
------0---------|----------------|----------------|----------------|
----1---3p1-----|----------------|------1---------|----------------|
--0-----------0-|------0---------|----0---0-------|------0---------|
2-----------2---|----0-----0-----|--2-------2-----|----2-----------|
3---------------|--2---------2---|3---------------|--2-------------|
----------------|3-------------3-|------------3-2-|0---------------|


C---/-/-/-/-/-G6|G---/-/-/-/-/-G6|D---------------|----------------|
                |                |                |                |
----------------|----------------|------2---------|----------------|
------1---------|--------0-------|3---------------|----------------|
----0---0-------|------0---0-----|2---------------|----------------|
--2-------2-----|----0-------0---|0---------------|----------------|
3-----------3-2-|2-2-------------|----------------|----------------|
----------------|3---------------|----------------|----------------|




    Shed a tear...
----------------|----------------|----------------|----------------|
------1---1-1-1-|3p1---0---1-----|----------------|----------------|
----0-----0-0-0-|0-----------0---|----------------|--------0-----0-|
--2-------2-2-2-|2---------------|----------------|----0-----0-2-0-|
3---------3-3-3-|3---3---------3-|2-------2-0-----|----2-0---------|
----------------|----------------|----------------|3---------------|
                |                |                |                |
----------------|----------------|----------------|----------------|
------1---------|3-1---1---------|----------------|----------------|
----0-----------|----0---0-------|------0---------|------0---------|
--2-------------|----------2-----|----0-----------|----0---0-----0-|
3---------------|------------3-0-|2---------0-----|--2-------2-----|
----------------|----------------|--------------3-|3-----------3---|



--------5-------|----------------|----------------|----------------|
------2---------|3p2---0---2-----|----------------|----------------|
----2-----------|----------------|----------------|--2---2-4-2-----|
2---------------|----2-----------|0-------------0s|4-----------4---|
0---------------|----------0-3-4-|----------------|--------------0-|
----------------|----------------|----------------|----------------|
                |                |                |                |
------5---------|5-----5---------|------0-2-------|3-2-----0-2-----|
----5---5-------|5-------5-------|----3-----------|----------------|
--6-------------|7---------------|----------------|----------------|
7-----------7---|----------------|0-------------0-|----------------|
----------------|----------0-3-4-|----------------|----------------|
----------------|----------------|----------------|----------------|


    Was a time...
----------------|----------------|----------------|----------------|
------1---1-1-1-|3p1---0---1-----|----------------|----------------|
----0-----0-0-0-|0-----------0---|----------------|--------0-----0-|
--2-------2-2-2-|2---------------|----------------|----0-----0-2-0-|
3---------3-3-3-|3---3---------3-|2-------2-0-----|----2-0---------|
----------------|----------------|----------------|3---------------|
                |                |                |                |
----------------|----------------|----------------|----------------|
------1---------|3-1---1---------|----------------|----------------|
----0-----------|----0---0-------|------0---------|------0---------|
--2-------------|----------2-----|----0-----------|----0---0-----0-|
3---------------|------------3-0-|2---------0-----|--2-------2-----|
----------------|----------------|--------------3-|3-----------3---|




--------5-------|----------------|------0-2-------|3-2---0-0-2-----|
------2---------|3p2---0---2-----|----3-----3-----|------3-3-3---0-|
----2-----------|----------------|------------2---|--------2-2-2---|
2---------------|----2-----------|0-------------0-|----------------|
0---------------|----------0-3-4-|----------------|----------------|
----------------|----------------|----------------|----------------|
                |                |                |                |
------5---------|5-----5---------|----2---2-------|----------------|
----5---5-------|5-------5-------|------3---3-----|3-----3---3-3-0-|
--6-------------|7---------------|------------2-0-|----------2-2-0-|
7-----------7---|----------------|0---------------|----------0-0-0-|
----------------|----------0-3-4-|----------------|----------------|
----------------|----------------|----------------|----------------|

CHORUS
    Said woman, take it slow...
C9--/---/-/-/-G6|G---/---/-/-/-G6|C---/-/-/-/-/-G6|Em--/---/-/-/-G6|
                |                |                |                |
----------------|--------3-------|----------------|------0---------|
1-------1-------|3-3-0-0---3---0-|----1-----------|----0---0-------|
0-------0-------|0-----------0---|0---0-----------|----------0---0-|
2-------2-------|0---------------|2---2-----------|--2---------2---|
3-------3-------|2---------------|3---3-----------|----------------|
----------------|3---------------|------------3-2-|0---------------|


C---/---/-/-/-G6|G---/---/-/-/-/-| Same as tabbed | guitar---------|
                |                |                |                |
------0---------|----------------|2---2---0-2---3-|--2---0---2-----|
------1---1-1-0-|--------------0-|3---3(3)3-3---3-|3-3-3-3-3-3-3-0-|
--0---0---0-0-0-|0-----0-------0-|2---2(2)2-2---2-|2-2-2-2-2-2-2-0-|
2---2-----2-2-0-|0---0-----0---0-|0---0(0)0-0---0-|0-0-0-0-0-0-0-0-|
3---3-----3-3---|2-----------2---|----------------|----------------|
----------------|3---------------|----------------|----------------|

C9--/---/-/-/-G6|G---/---/-/-/-G6|C---/-/-/-/-/-G6|Em--/---/-/-/-G6|
                |                |                |                |
----------------|--------3-------|----------------|------0---------|
1-------1-------|3-3-0-0---3---0-|----1-----------|----0---0-------|
0-------0-------|0-----------0---|0---0-----------|----------0---0-|
2-------2-------|0---------------|2---2-----------|--2---------2---|
3-------3-------|2---------------|3---3-----------|----------------|
----------------|3---------------|------------3-2-|0---------------|

                                  Figure 1            (end Figure 1)
C---/---/-/-/-G6|G---/---/-/-/-/-|D---------------|--------------//|
                |                |                |                |
------0---------|----------------|2---2---0-2---3-|--2---0---2---22|
------1---1-1-0-|--------------0-|3---3(3)3-3-3-3-|3-3-3-3-3-3-3-33|
--0---0---0-0-0-|0-----0-------0-|2---2(2)2-2-2-2-|2-2-2-2-2-2-2-22|
2---2-----2-2-0-|0---0-----0---0-|0---0(0)0-0-0-0-|0-0-0-0-0-0-0-00|
3---3-----3-3---|2-----------2---|----------------|----------------|
----------------|3---------------|----------------|----------------|


2---------------|----------------|----10----------|----------------|
3---------------|--------------5s|10--------------|----------------|
2---------------|--------------6s|11--------------|--------------7s|
0---------------|--------------7s|12--------------|----------------|
----------------|----------------|----------------|----------------|
----------------|----------------|----------------|----------------|
                |                |                |                |
2---2---0-2---3-|--2---0---2---22|2---2---0-2---3-|--2---0---2---22|
3---3(3)3-3-3-3-|3-3-3-3-3-3-3-33|3---3(3)3-3-3-3-|3-3-3-3-3-3-3-33|
2---2(2)2-2-2-2-|2-2-2-2-2-2-2-22|2---2(2)2-2-2-2-|2-2-2-2-2-2-2-22|
0---0(0)0-0-0-0-|0-0-0-0-0-0-0-00|0---0(0)0-0-0-0-|0-0-0-0-0-0-0-00|
----------------|----------------|----------------|----------------|
----------------|----------------|----------------|----------------|


______________________
| 1.
----14--------14|----14--14--14\-|
----------------|--14--14--14----|
14--------14----|----------------|
----------------|----------------|
----------------|----------------|
----------------|----------------|
                |                | Go back to play Verse 2.
2---2---0-2---3-|--2---0---2-----|
3---3(3)3-3-3-3-|3-3-3-3-3-3-----|
2---2(2)2-2-2-2-|2-2-2-2-2-2-----|
0---0(0)0-0-0-0-|0-0-0-0-0-0-----|
----------------|------------0-2-|
----------------|----------------|


______________________
| 2.
----14--------14|------------8p7-|8-------8s108---|------------8p7-|
----------------|----------------|--------------12|--------8-------|
14--------14----|----------------|--------------**|----------------|
----------------|----------------|----------------|----------------|
----------------|----------------|----------------|----------------|
----------------|----------------|----------------|----------------|
                |                |                |                |
2---2---0-2---3-|--2-----------00|----------------|----------------|
3---3(3)3-3-3-3-|3-3-3-0-0-3-3-11|----------------|----------------|
2---2(2)2-2-2-2-|2-2-2-0-0-2-2-00|With chorus backing chords-------|
0---0(0)0-0-0-0-|0-0-0-0-0-0-0-22|----------------|----------------|
----------------|--------------33|----------------|----------------|
----------------|----------------|----------------|----------------|



8-------8s10--12|------------8p7-|8-------8s108---|--------------12|
------------12**|----------------|--------------12|--108---8---8-**|
----------------|----------------|--------------**|----------------|
----------------|----------------|----------------|----------------|
----------------|----------------|----------------|----------------|
----------------|----------------|----------------|----------------|
                |                |                |                |
----------------|----------------|----------------|----------------|
----------------|----------------|----------------|----------------|
----------------|----------------|----------------|----------------|
----------------|----------------|----------------|----------------|
----------------|----------------|----------------|----------------|
----------------|----------------|----------------|----------------|

                       h
--1010--------14|--12101210------|----------------|----------------|
--------------**|----------------|----5-8---------|----------------|
----------------|----------------|7^------7^r-5---|----4-7---------|
----------------|----------------|----------------|7^------7^r-5---|
----------------|----------------|----------------|----------------|
----------------|----------------|----------------|----------------|
                |                |                |                |
----------------|----------------|----------------|----------------|
----------------|----------------|----------------|----------------|
With Figure 1---|----------------|With chorus backing chords-------|
----------------|----------------|----------------|----------------|
----------------|----------------|----------------|----------------|
----------------|----------------|----------------|----------------|

----------------|----------------|----------------|----------------|
----5-8---------|--8-10^8----8-10|10^-r-8-10--8-10^--8-10--8-108-12|
7^------7^r-5-7s|9-------9-------|----------9-----|------9-------**|
----------------|----------------|----------------|----------------|
----------------|----------------|----------------|----------------|
----------------|----------------|----------------|----------------|
                |                |                |                |
----------------|----------------|----------------|----------------|
----------------|----------------|----------------|----------------|
----------------|----------------|----------------|----------------|
----------------|----------------|----------------|----------------|
----------------|----------------|----------------|----------------|
----------------|----------------|----------------|----------------|

----------------|----------------|----------------|----------------|
--1010----------|----------------|5---3-------4p2-|----2---------7^|
----------------|----------------|**--------------|3h4---0---------|
----------------|----------------|----------------|----------------|
----------------|----------------|----------------|----------------|
----------------|----------------|----------------|----------------|
                |                |                |                |
----------------|----------------|----------------|----------------|
----------------|----------------|----------------|----------------|
With Figure 1 (3 times)----------|----------------|----------------|
----------------|----------------|----------------|----------------|
----------------|----------------|----------------|----------------|
----------------|----------------|----------------|----------------|

----------------|----------------|----------------|----------------|
----7-----------|-------***----7^|--7-----5-7---3-|----------3-----|
----------------|4p2-----5-------|----------------|--2---0---2-----|
----------------|----3h4-0-------|----------------|------0---0-----|
----------------|----------------|----------------|----------------|
----------------|----------------|----------------|----------------|
                |                |                |                |
----------------|----------------|2---2---0-2---3-|3-2---0---------|
----------------|----------------|3---3(3)3-3-3-3-|3-3---3---3-----|
----------------|----------------|2---2(2)2-2-2-2-|2-2---2---2-----|
----------------|----------------|0---0(0)0-0-0-0-|0-0---0---0-----|
----------------|----------------|----------------|----------------|
----------------|----------------|----------------|----------------|


For the last part of the song use the following figures:

2---2---2---2-2-|-------3-33-3333|
3---3---3---3-30|3-333-33-33-3333|
2---2---2---2-20|0-000-00-00-0000|                 Figure 2
0---0---0---0-00|0-000-00-00-0000|
0--------------0|2---2-22-22-2222|
----2-0-2---2-20|3---3-33-33-3333|

F6//////////////|G-///-///////-/-|D---------------|Figure 3


Play figure 2 10 times, then on the second "I need you" play figure 3.
The song ends as follows:


3p2-------------|2---------------|
----3-----------|3---------------|
------2---------|2---------------|
--------5p4-0---|0---------------|
----------------|----------------|
----------------|----------------|

4.PARADISE CITY

Riff A:(Slash)
eb|----------3---------------3---------|----------3-----3---------3---------|
Bb|------------0---3-----------3---3---|--0h1-------1---------------1---1---|
Gb|--0-----------0---------------0-----|--0-----------0-----0---------0-----|
Db|--0---------------------------------|--0h2-------------------------------|
Ab|--2---------------------------------|------------------------------------|
Eb|--3---------------------------------|------------------------------------|

eb|----------3---------------3---------|----------3-----3-------------------|
Bb|------------1---1-----------1---1---|------------1-----------------------|
Gb|--0h2---------2---0-----------0-----|--0-----------0-------2h4-2h4-2-0---|
Db|--0h3-------------0h2---------------|--0---------------------------------|
Ab|------------------0h3---------------|--2---------------------------------|
Eb|------------------------------------|--3---------------------------------|

Riff B:(Slash+Izzy)
eb|--3---------------------------------|------------------------------------|
Bb|--3------------------------------V--|---------------------------------V--|
Gb|--4----------------------------4-4--|--5----------------------------5-5--|
Db|--5----------------------------5-5--|--5----------------------------5-5--|
Ab|--5----------------------------5-5--|--3----------------------------3-3--|
Eb|--3----------------------------3-3--|--3----------------------------3-3--|

eb|------------------------------------|------------------------------------|
Bb|--------------V------------------V--|---------------------------------V--|
Gb|--2---------2-2-5--------------5-5--|--4----------------------------4-4--|
Db|--3---------3-3-5--------------5-5--|--5----------------------------5-5--|
Ab|--3---------3-3-3--------------3-3--|--5----------------------------5-5--|
Eb|--1---------1-1-3--------------3-3--|--3----------------------------3-3--|

eb|--3---------------------------------|------------------------------------|
Bb|--3------------------------------V--|---------------------------------V--|
Gb|--4----------------------------4-4--|--5---------------------------------|
Db|--5----------------------------5-5--|--5----------------------------1010-|
Ab|--5----------------------------5-5--|--3----------------------------1010-|
Eb|--3----------------------------3-3--|--3----------------------------8-8--|

eb|------------------------------------|------------------------------------|
Bb|--------------V------------------V--|---------------------------------V--|
Gb|--10--------1010--------------------|--7----------------------------4-4--|
Db|--10--------101010-------------1010-|--5----------------------------5-5--|
Ab|--8---------8-8-10-------------1010-|--5----------------------------5-5--|
Eb|--8---------8-8-8--------------8-8--|--7----------------------------3-3--|


Riff C:(Slash+Izzy)
Play Riff B     
eb|------------------------------------------|---------------------------------------|
Bb|--------------------15--------------------|-----------------15--------------------|
Gb|--------12-12----------14b16-14b16r14p12--|--------12-12-------14b16-14b16r14p12--|
Db|--13s14-------14p12-----------------------|--12s14-------12-----------------------|
Ab|------------------------------------------|---------------------------------------|
Eb|------------------------------------------|---------------------------------------|

eb|---------------------------------------|-------------------------------------|
Bb|--13b15---13b15---13-------------------|-------------------------------------|
Gb|-----------------------12h14p12----14--|--b16~~~~~~~~~~~~~~~~----------------|
Db|--------------------------------15-----|-------------------------------------|
Ab|---------------------------------------|-------------------------------------|
Eb|---------------------------------------|-------------------------------------|

eb|------------------------------------------|---------------------------------------|
Bb|--------------------15--------------------|-----------------15--------------------|
Gb|--------12-12----------14b16-14b16r14p12--|--------12-12-------14b16-14b16r14p12--|
Db|--13s14-------14p12-----------------------|--12s14-------12-----------------------|
Ab|------------------------------------------|---------------------------------------|
Eb|------------------------------------------|---------------------------------------|

eb|---------------------------------------|-------------------------------------|
Bb|--13b15---13b15---13b15r13-13---12b13--|--12b13r12b13r12b13r12b13-12~~~~~~~--|
Gb|---------------------------------------|-------------------------------------|
Db|---------------------------------------|-------------------------------------|
Ab|---------------------------------------|-------------------------------------|
Eb|---------------------------------------|-------------------------------------|


Riff D:(Slash+Izzy)
eb|----------------------------------|
Bb|----------------------------------|
Gb|----------------------------3-----|
Db|--5---3-4-5---3-4-5--`5--`5-3-----|
Ab|--5---3-4-5---3-4-5--`5--`5-------|
Eb|----------------------------------|
  |                                  |
eb|----------------------------------|
Bb|----------------------------------|
Gb|----------------------------------|
Db|--5---3-3-5---3-3-5-x-5-x-5-8-----|
Ab|--5---3-3-5---3-3-5-x-5-x-5-8-----|
Eb|--3---1-1-3---1-1-3-x-3-x-3-6-----|

Riff E:
eb|----------------------------------|
Bb|----------------------------------|
Gb|----------------------------3-----|
Db|--5--p3--h5p3h5p3`5--`5--`5-------|
Ab|----------------------------------|
Eb|----------------------------------|
  |  Palm muted..............        |
eb|----------------------------------|
Bb|----------------------------------|
Gb|----------------------------------|
Db|--5---3-3-5---3-3-5-x-5-x-5-8-----|
Ab|--5---3-3-5---3-3-5-x-5-x-5-8-----|
Eb|--3---1-1-3---1-1-3-x-3-x-3-6-----|

Riff F:(Slash+Izzy)
eb|----------------------------------|----------------------------------|
Bb|----------------------------------|----------------------------------|
Gb|----------------3h5---------------|----------------3h5p3---3---------|
Db|--5--p3---5-5-5-------------------|--------------5-------5---5p3h5---|
Ab|----------------------------------|----------------------------------|
Eb|----------------------------------|----------------------------------|
  |  Palm muted....                  |                                  |
eb|----------------------------------|----------------------------------|
Bb|----------------------------------|----------------------------------|
Gb|------------------5---------------|----------------5-5-3-3-2---------|
Db|--5---3-3-5-5-5---5---------------|--------------5-5-5-3-3-2-5-3-5---|
Ab|--5---3-3-5-5-5---3---------------|--------------5-3-3-1-1-0-5-3-5---|
Eb|--3---1-1-3-3-3---3---------------|--------------3-3-3-1-1-0-3-1-3---|

Chorus:(Izzy)
eb|------------------------------------|------------------------------------|
Bb|--------------------------------V---|--------------------------------V---|
Gb|--4---------------------------4-4---|--5---------------------------5-5---|
Db|--5---------------------------5-5---|--5---------------------------5-5---|
Ab|--5---------------------------5-5---|--3---------------------------3-3---|
Eb|--3---------------------------3-3---|--3---------------------------3-3---|

eb|------------------------------------|------------------------------------|
Bb|--------------V-----------------V---|--------------------------------V---|
Gb|--2---------2-2-5-------------5-5---|--4---------------------------4-4---|
Db|--3---------3-3-5-------------5-5---|--5---------------------------5-5---|
Ab|--3---------3-3-3-------------3-3---|--5---------------------------5-5---|
Eb|--1---------1-1-3-------------3-3---|--3---------------------------3-3---|

Solo:(Slash+Izzy)
Play the Rhythm of Riff D (once for each bar)
eb|----------------|----------------------|---------------------|--------------3-----|
Bb|----------------|----------------------|----------------6----|--------------------|
Gb|----------------|--5b7---r5-3-5-3------|--3h5----b7-5h7---5--|--5b7----r5p3-------|
Db|--5-3-5v--------|-----------------3h5--|---------------------|--------------------|
Ab|----------------|----------------------|---------------------|--------------------|
Eb|----------------|----------------------|---------------------|--------------------|

eb|-------8-8--------------------------|--------------------------|----------------------------|
Bb|--8b10-----10r8p6h8-----8-8---------|--------------------------|----------------------------|
Gb|--------------------5b7-----7r5-----|--5b7-7-7-----------------|----------------------------|
Db|--------------------------------10--|--------------------8h10--|-------10------8-10---8-----|
Ab|------------------------------------|----------7p5---5---------|--10-------10-----------10--|
Eb|------------------------------------|--------------8---8-------|----------------------------|

eb|-----------------------|-----------|
Bb|-----------------------|-----------|
Gb|-----------------------|--9--------|
Db|-------10------8---10--|----10-----|
Ab|--10--------10---------|-------10--|
Eb|-----------------------|-----------|

Riff G:
     D5          D5          D5          D5          C5                      C5
eb|---------------------------------------------------------------------------------------------------|
Bb|-----13h15-xx----13h15-xx----13h15-xx----13h15-xx----11h13p11-------13-xx-------13p10-------13-xx--|
Gb|--14----------14----------14----------14----------12----------12-------xx----12-------12-------xx--|
Db|-----------------------------------------------------------------10----xx-10-------------10----xx--|
Ab|---------------------------------------------------------------------------------------------------|
Eb|---------------------------------------------------------------------------------------------------|

Last Chorus:
Play Chorus Rhythm
eb|------------------------------------------|---------------------------------------|
Bb|--------------------15--------------------|-----------------15--------------------|
Gb|--------12-12----------14b16-14b16r14p12--|--------12-12-------14b16-14b16r14p12--|
Db|--13s14-------14p12-----------------------|--12s14-------12-----------------------|
Ab|------------------------------------------|---------------------------------------|
Eb|------------------------------------------|---------------------------------------|

eb|---------------------------------------|------10----------------------------------|
Bb|--13b15---13b15---13-------------------|------------------------------------------|
Gb|-----------------------12h14p12----10--|--b12----10b12r10----12---10--------------|
Db|--------------------------------15-----|------------------10---------12-10--------|
Ab|---------------------------------------|-----------------------------------13-10--|
Eb|---------------------------------------|------------------------------------------|

eb|-----------13b15---13b15r13--------|--------------------------------17--------------|
Bb|----------------------------15-13--|--13p11----13-------13----15b17----17r15p13-----|
Gb|-----------------------------------|--------12-------------12-------------------14--|
Db|-----------------------------------|------------------------------------------------|
Ab|-----------------------------------|------------------------------------------------|
Eb|-----------------------------------|------------------------------------------------|

eb|---------------------------|------------------------------------------------|
Bb|--------13-12--------------|-12b13---r12~~~~~~~~---12b13---r12~~~~~~~~~~~---|
Gb|--12b14-------14r12p10-----|------------------------------------------------|
Db|-----------------------12--|------------------------------------------------|
Ab|---------------------------|------------------------------------------------|
Eb|---------------------------|------------------------------------------------|

End Solo:(Slash+Izzy)
Play this riff for the rhythm.
eb|------------------------------------|------------------------------------|
Bb|------V-V-----V-V-----V-----V---V---|------V-V-----V-V-----V-----V---V---|
Gb|------------------------------------|--5---5-5-5---5-5-5---5-5---5-5-5---|
Db|--5---5-5-5---5-5-5---5-5---5-5-5---|--5---5-5-5---5-5-5---5-5---5-5-5---|
Ab|--5---5-5-5---5-5-5---5-5---5-5-5---|--3---3-3-3---3-3-3---3-3---3-3-3---|
Eb|--3---3-3-3---3-3-3---3-3---3-3-3---|--3---3-3-3---3-3-3---3-3---3-3-3---|

eb|------------------------------------|------------------------------------|
Bb|------V-----V---V-----V-----V---V---|------V-----V---V-----V-----V---V---|
Gb|------------------5---5-5---5-5-5---|------------------------------------|
Db|--3---3-3---3-3-3-5---5-5---5-5-5---|--5---5-5---5-5-5-5---5-5---5-5-5---|
Ab|--3---3-3---3-3-3-3---3-3---3-3-3---|--5---5-5---5-5-5-5---5-5---5-5-5---|
Eb|--1---1-1---1-1-1-3---3-3---3-3-3---|--3---3-3---3-3-3-3---3-3---3-3-3---|

5.KNOCKIN' ON HEAVEN'S DOOR

G5            D                C
-3---3--------------2-0-------|-----------------0--------------------|--------
-3-----3---3------3-----3---3-|----------1--------------1------------|--------
-0-------0------2---------2---|-0------0---0----------0---0-0------0-|--------
-0------------0---------------|-0-2----------2------2-------0-2------|--------
------------------------------|--H---3-----------------------H---3---|--------
-3----------------------------|--------------------------------------|--------

This is the picking for the first line.  Again, the picking will vary
throughout the song.
G5              D                  Am
-3--------------2-------2-0-------|-0-----H-------0----------------------|
-3---3-------3--3-------3-------0-|-1----0-1-------------1---------------|
-0---0-----0----2----2-------2----|-2--2-----2---------2---2------0---0--|
-0---0-----0----0----0------------|-2----------2-----2-------0-2----2----|
----------------------------------|-0-------------------------H----------|
-3--------------------------------|--------------------------------------|


Song goes like this:

Intro:
Twice with picking      G5 D C
Twice just power chords G5 D C

Verse 1 (with picking)
G5         D               Am
Mamma take this badge from me
G5         D         C
I can't use it anymore
G5                D             Am
It's getting dark, too dark to see
G5             D                       C
Feels like I'm knockin' on heaven's door

Chorus (if you're really concerned about playing it like the
        CD, listen to it for rhythm.  But this song has been done by so
        many people so differently that you might as well give it your own
        feel.)
G5            D5                     C5
Knock, knock, knockin' on heaven's door,
C5             
Hey, hey, hey, hey, yeah
G5            D5                     C5
Knock, knock, knockin' on heaven's door,
C5
(no lyrics)
G5                 D5                     C5
Ooh, knock, knock, knockin' on heaven's door
C5
Ooh yeah
G5            D5                     C5
Knock, knock, knockin' on heaven's door
C5
Hey, hey, hey, hey, yeah

First Guitar Solo
G                  D          C
------------------------------------------------------
----^^---P---------15--^------~~~~~~~~~~~~------------
-12-14-14-12-14-------14-12-12-------------------12---
------------------------------------------13/14-------
------------------------------------------------------
------------------------------------------------------
G                     D           C        
---------------P------------P--------P------------------15----
15/17---15---13-12-13/15--13-12---13--12----------12-13----13-
-------------------------------------------~~~~~~~------------
-----------------------------------------14-------------------
--------------------------------------------------------------
--------------------------------------------------------------
G              ^^  D   ^^  ^^  C
--~~~-------15-17--17--17--17--15-----------------------------
12---15/17----------------------------------------------------
--------------------------------------------------------------
--------------------------------------------------------------
--------------------------------------------------------------
--------------------------------------------------------------
G ^^              ^^ D             C
--20-20-19-20--19-20--20-20-20---~~~~~----------------------------------
-------P-----------------------17------^^----^^-------------------------
---------------------------------------19-19-19-19-^-----^--------------
---------------------------------------------------19-19-19-19----------
---------------------------------------------------------------17--17---
------------------------------------------------------------------------


Additional lyrics:
Mama, put my guns in the ground
I can't shoot them anymore
That cold black cloud is comin' down
Feels like I'm knockin' on heaven's door

Basically there are lots of "knockin' on heaven's door"s throughout the rest




This is one of GUNS N' ROSES best song if you ask me. 
This is the tabs of the full song...this again was completed with a friend..!

P.S. Tune your guitar down half a step.


Riff 1:-used in intro and the verses.

E|--3----3----------0---------------0--------------|
B|--3-----3-3--3---3-3-----------1---1--1----------|
G|--0------0---2--2---2-----------0---0--0------0--|
D|--X----------0-------0--0h2-2----2-------0h2-2---|
A|--2---------------------0h3--------------0h3-----|
E|--3----------------------------------------------|

E|-------3-----------0-----------------------||
B|--------3-3-------3-3------1----1--1-1-----||
G|--0------0---0h2-2---2-------0---0--0-0----||
D|--x----------0--------0---2---2---2----2---||
A|--2---------------------3------3--------3--||
E|--3----------------------------------------||


Riff 2:-used in intro and the choruses.

    G     D     C     C
E|-----|-----|-----|-----|
B|-----|-----|-----|-----|
G|--4--|--7--|--5--|--5--|
D|--5--|--7--|--5--|--5--|
A|--5--|--5--|--3--|--3--|
E|--3--|-----|-----|-----|


Solo 1:

E|-------------------------------------------------------|
B|-----------------15-------------------------15/17--15--|
G|--12-14brp12-14-----14br-1212~~~---------12------------|
D|--------------------------------------/14--------------|
A|-------------------------------------------------------|
E|-------------------------------------------------------|

E|----------------------------------------15----------15-|
B|-13p12-13/15---13p12-13---12--------1213--1312---/17---|
G|-------------------------------------------------------|
D|----------------------------14-------------------------|
A|-------------------------------------------------------|
E|-------------------------------------------------------|

E|-17br17---17br17br15-------22--20192019-22--20-2020----|
B|---------------------------------------------------17--|
G|-------------------------------------------------------|
D|-------------------------------------------------------|
A|-------------------------------------------------------|
E|-------------------------------------------------------|

E|--------------------15--||
B|--15brbr----------------||
G|----------14brbr--12----||
D|------------------------||
A|------------------------||
E|------------------------||


Solo 2:

E|-------------------------------------------------------|
B|--19b~~~~~~~r-19---19brp17-19-1717----20-17--20-17br---|
G|-------------------------------------------------------|
D|-------------------------------------------------------|
A|-------------------------------------------------------|
E|-------------------------------------------------------|

E|----------------------------------------16---18b-18p16-|
B|-1517--1517--------1517---------------13--16-----------|
G|-----------------------------------/13-----------------|
D|-----17----19br1719----19br19br17----------------------|
A|-------------------------------------------------------|
E|-------------------------------------------------------|

E|-1618P161620192022b--20192022b--20192022b-22b22b-------|
B|------------------------------------------------2022b--|
G|-------------------------------------------------------|
D|-------------------------------------------------------|
A|-------------------------------------------------------|
E|-------------------------------------------------------|

E|-------------------------------------------------------|
B|--2022br-202222b-202220--20~~---2019----19br-17191717--|
G|-------------------------------------------------------|
D|-------------------------------------------------------|
A|-------------------------------------------------------|
E|-------------------------------------------------------|

E|-------------------------------------------------------|
B|-2017--17~~15~~12~~~~~~--------------------------------|
G|------------------------12~--11~---11br-9~---7---5/4---|
D|----------------------------------------------------5--|
A|-------------------------------------------------------|
E|-------------------------------------------------------|

6.CIVIL WAR

Em
 Rhy.Fig 1                          G
|----------------------------------|-------------------------------------|
|----------------------------------|-------------------------------------|
|-------0----------------0---------|-------0---------------0-------------|
|---2-----2---2------2-----2-----0-|---0-----0---0-----0-----0-----2-----|
|-----2-----2------2---2-----0h2---|-----2-----2-----2---2-----0h2-------|
|-0--------------0-----------------|-3-------------3---------------------|

 Em                      G
|-----------------------|------------------------|
|-----------------------|------------------------|
|------0---------0------|------0-----------2-0-2-|
|---2---2-2---2---2---2-|---0---2---0---0-----2--|
|--2-2---2---2-2---0h2--|--2-2---0h2---0-0-------|
|-0---------0-----------|-3-----------2----------|


 Riff A
 Em                G                   Em                   G
|-12----10--------|-------------------|-12-----10----------|---------------||
|-----------10-11-|---12--------------|--------------10-11-|12-----10s8s7s-||
|-----------------|-------------------|--------------------|---------------||
|-----------------|-------------------|--------------------|---------------||
|-----------------|-------------------|--------------------|---------------||
|-----------------|-------------------|--------------------|---------------||
|                                                                          ||
|------------------|-----------------|------------------|------------------||
|------------------|-----------------|------------------|------------------||
|----0-------0-----|---0-------0-----|----0-------0-----|----0--------2-0-0||
|--2--2-2--2--2---2|-0--0-0--0--0---0|--2--2-2--2--2---2|--0--0-----0----2-||
|-2-2--2--2-2--0h2-|--2--2--2-2--0h2-|-2-2--2--2-2--0h2-|-2-2--2-0-0-0-----||
|0-------0---------|3------3---------|0-------0---------|3--------2--------||

 
 1st verse
 w/Rhy.fig 1(3 times)
 Em      (end Riff A) G
|--------------------|--------------------------------------------|
|s5------------------|--------------------------------------------|
|--------------------|--------------------------------------------|
|--------------------|--------------------------------------------|
|--------------------|--------------------------------------------|
|--------------------|--------------------------------------------|

 w/Riff A
 Em                     G                        Em     
|------0---------0----|-------0---------------0-|------0---------0-------|
|---5---5-5---5---5-0-|---3----3---3---3-----3--|---5---5-5---5---5--3---|
|--4-4---4---4-4---4--|--4------------4-----0---|--4-4---4---4-4---------|
|-5---------5---------|-5---5----5---5---5-4----|-5---------5------4-----|
|---------------------|-------------------------|------------------------|
|---------------------|-------------------------|------------------------|

 G           D/F#             G        Em       G  D/F#
|-------0-----------0--------|--------|--------|--------|
|---3----3---3---3---3-----0-|--------|--------|--------|
|--4------------2-0----------|--------|--------|--------|
|-5---5----5---4-------4s2---|--------|--------|--------|
|----------------------------|--------|--------|--------|
|----------------------------|--------|--------|--------|

 A5                                     A5#4 A5
|----------0------0-----|---------3-0---0-------3-2---||
|------5---4-------4----|---------------4-----3----3s5||
|-2-2---2------2------2-|-2---2-------------2---------||
|-2--2---5----4-4----4--|---5---5-----5----4----------||
|-0----------0----------|-----------------0-----------||
|-----------------------|-----------------------------||

 Rfy.Fig 2
 E5      G      D/F# E5          G       D  E G F# E5
|----0--|-----------|-------0---|-----2--2-------|-----0-----------------|
|----0--|-0---------|-------0---|-0---3--3-------|---0---0---------------|
|-------|-0---------|-----------|-0---2--2-------|-----------0-0---------|
|-------|-0---------|-----------|-0---0----------|-----------0-0---------|
|-2-----|-----------|-----------|----------------|-----------------------|
|-0-----|-3----3-2b-|-0---0-----|-3---------0-2b-|-0---------------------|

 G            E5              G        D         
|------------|-------0-------|---------2---------|--------|
|-0----------|-0-----0-------|-0-------3--3------|-0----4-|
|-0----------|-----------0-0-|-0-------2--2------|-2----4-|
|-0----------|-2---------0-0-|-0---0-0-0---------|-2----0-|
|------------|-2--2----------|---------------0-0-|-0------|
|-3-----3-2b-|-0--0----------|-3-----------------|--------|

		     w/Rhy Fig. 2
		     E5
|------------------||----0------0---3-(3)b--0------0-----|
|------0-----------||------0-3b---0-3-(3)b----0-3b---0---|
|-2--0-0--2--2-----||-2b-------------------------------0-|
|-2----0--2--2-----||------------------------------------|
|-0-------0--0-----||------------------------------------|
|---------------5s-||------------------------------------|

 G        D/F# E5                              G     
|-------------|----0------0---3--0------0-----|--------------------------|
|-8-----------|------0-3b---0-3----0-3b---0---|-8-8-7h8p7----------------|
|-7-----------|-2b--------------------------0-|-7---------9-7-7-7-7------|
|----2s4sxs14-|-------------------------------|--------------7------10s--|
|--------xs14-|-------------------------------|--------------------------|
|-------------|-------------------------------|--------------------------|

 E5                           G
|----0------0---3-0------0---|---------------------------|
|------0-3b---0-3---0-3b--0--|-8--6-7-8-10-13s-s10s15----|
|-2b-----------------------0-|-7--5-6-7--9-12s-s9--------|
|----------------------------|---------------------------|
|----------------------------|---------------------------|
|----------------------------|---------------------------|

				      Rhy. Fig. 3
 E5                          G   D    G
|---0------0---3-0-----0---|--------||-----------------------------------|
|-----0-3b---0-3--0-3b--0--|-8---7--||-8-----3----0---------3-----0------|
|-2----------------------0-|-7---7--||-7--0-----0-------0-----0----------|
|--------------------------|--------||-----0----------4---4-----4--------|
|--------------------------|--------||--------------2--------------------|
|--------------------------|--------||-3---------------------------------|

 Em                           G            Bm(b6)
|----------------------------|------------------------------|
|----------------------------|-------3---0---------3-----0--|
|------------------0-0-------|---0-----0-------0-----0------|
|---2--2---2---2-----------0-|-----0---------4---4-----4----|
|--------2-------2-----0h2---|-------------2----------------|
|-0---0------0---------------|-3----------------------------|

				    w/Rhy Fig. 3
 Em              C            D     G           Bm(b6)
|--------------------------0------|--------------------------0-|
|--------------------3-1------3-0-|-------3---0-------3------0-|
|--------0----------------------0-|-----0---------------0------|
|---2------2---2---2-----0--------|---0-----0------4------4----|
|------2-----2---3----------------|-------------2--------------|
|-0-------------------------------|-3--------------------------|


 Em                             G             Bm(b6)
|-------0---0------------------|----------3--------------------|
|-------0-0--------------------|--------3-------------3-----0--|
|-------0-------------0--------|------0-----0-----0-----0------|
|---2---------------2--------0-|-0--0-------------4-4-----4----|
|-----------------2-----0h2----|--------------2----------------|
|-0------------0---------------|-3-----------------------------|

 Em                  C          D        G5         B5          A
|--------------------0--0-------2--2---||--------------------------------|
|--------------------1--1----3--3--3---||--------------------------------|
|--------------------0--0-0--2--2--2---||--------------------------------|
|---2--2-------------2--2-------0--0---||--------------------------------|
|--------2-2-2-2--3--3--3-------0--0-0-||--------------------------------|
|-0------0-0-0-0-----3--3-------2--2---||--------------------------------|
					 I dont need your civil war

 E5       G5                B5                    A   E5    C  D
	  It feeds the rich while it burries the poor.

G5             B5                        E5                      E    E5
 Your power hungry selling soldiers in a human grocry store aint that fresh

G5           B5          a E5    C     D
 I dont need your civil war.   oo no no no no


 Guitar solo
 G              B5              E5
|------------------------------|-----------------------|
|------15----------------------|-------------------15s-|
|-14b-----14(14)p12-14---12-14-|-14b(14)p12------------|
|------------------------------|------------14-14------|
|------------------------------|-----------------------|
|------------------------------|-----------------------|

 G            B5             E5            C           D
|--------------------------|------------------------------------|
|-----3------------3-------|-----6s5-5-3-5p3s1-3-1-3p1p0---0-8b-|
|-2b----2-0-2--2s4---4s2p0-|-2-0-------------------------0------|
|--------------------------|------------------------------------|
|--------------------------|------------------------------------|
|--------------------------|------------------------------------|

 G             B5                 E5
|--------5--------------------8b-|(8)-8-7-8-7h8p7p5---7---7-7------|
|(8)-(8)---8-7-7b--7--7p5---5----|------------------8---8----------|
|-------------------------7------|----------------------------9--7-|
|--------------------------------|---------------------------------|
|--------------------------------|---------------------------------|
|--------------------------------|---------------------------------|

 G                       B5   
|----------------------------------12------|
|---------15-------------15-15b-15b--15-12-|
|-14b-14b----14b-12-14s16------------------|
|------------------------------------------|
|------------------------------------------|
|------------------------------------------|

							3rd verse
							w/Rhy Fig 1(2 times)
 E5                             C         D             E5
|-----------------------------------------------------||-----------------|
|-----------------------------------------------------||-----------------|
|-14b-14-p12------------------------------------------||-----------------|
|------------14-14--12--------------------------------||-----------------|
|----------------------14s12p10-12-10-12b-12-10-------||-----------------|
|-----------------------------------------------12-10-||-12--------------|
							Look at the ..
 G                                 Em
 Look at the blood we're spilling  Look at the world we're killing the

 G                 D/f#
 way we're always done before


 Em               G                          G               D/F#
|-12----10-------|--------|-12-----10-------|---------------------------|
|----------10-11-|-12-----|-----------10-11-|-12-------------10---------|
|----------------|--------|-----------------|---------------------------|
|----------------|--------|-----------------|---------------------------|
|----------------|--------|-----------------|---------------------------|
|----------------|--------|-----------------|---------------------------|
					     I dont want to hear no more

					  4th verse
					  w/Rhy Figs 2 & 2A
 A5              A5#4  A5                 E5
		       My hands are tied.           For

G                                      D/F#
all I've seen has changed my mind, but still the 

E5
wars go on as the as the years go by with no 

G              D         E G F#    E5
love of God or human rights. Cause all these dreams are swept aside by
 
G                                  E5
bloody hands of the hypnotized who carry the cross of homicide.  And

G                      D
hist'ry bears the scars of our civil wars. 

					w/Rhy Fig. 2
					E5
|---------------|---------------------||---0------0---3---0------0-------|
|---------------|---------------------||-----0-3b---0-3-----0-3b---0-----|
|-7h9-----5---2-|-----2-------2-------||-2---------------------------0---|
|-7-------5---2-|---0-2-2-2-2-2-------||---------------------------------|
|-0---------0---|-0---0-0-0-0-0-------||---------------------------------|
|---------------|-----------------12s-||---------------------------------|

 G                           D/F#       E5
|-3---0-3p0-2h3p2p0----0---------------|---0----0---3--0-----0-----------|
|-3--------------------0-3p0---0-3p0---|---0-3b---0-3----0-3---0---------|
|-------------------2b-------3-------2b|(2)----------------------0-------|
|--------------------------------------|---------------------------------|
|--------------------------------------|---------------------------------|
|--------------------------------------|---------------------------------|

 G           D E G F# E5                           G
|------------------|---0------0---3--0------0-----|----------------------|
|-8--7h8p7p5-7--7s-|-----0-3b---0-3----0-3b---0---|-3----3---------------|
|-7----------------|-2--------------------------0-|-2b---2--2(2)p0-------|
|------------------|------------------------------|----------------------|
|------------------|------------------------------|----------------------|
|------------------|------------------------------|----------------------|

 E5                         G       D     A5            B/A            Am
|-0------0---3-0------0----|-------------|----------------|--------------|
|---0-3b---0-3---0-3b---0--|-8--7h8-7--7s|10-------------4|--------------|
|2------------------------0|-7--7---7--7s|9/2------------4|-------------5|
|--------------------------|-------------|--2-------------|-------------5|
|--------------------------|-------------|--0--0-0-0-0-0--|-0-0-0-0-0-0--|
|--------------------------|-------------|----------------|--------------|
|                                                                        |
|-------------|---------------||-----------------|-----------------------|
|-------------|---------------||-----------------|-----------------------|
|-------------|---------------||-----------------|-----------------------|
|-------------|---------------||-----------------|-----------------------|
|-------------|---------------||-0-0-0-0-0-0-0-0-|-0-0-0-0-0-0-0-0-0-0-0-|
|-------------|---------------||-----------------|-----------------------|

				 F/A                Am            C5                            
|------------------|----------------|-----------------|------------------|
|------------------|----------------|---------------5-|------------------|
|--------------7---|-------7-----10-|-------10------5-|-------5---5--0---|
|------------------|-------7-----10-|-------10--------|-------5---5--0---|
|-0-0-0-0-0-0------|-0-0-0-0-0-0----|-0-0-0-----0-0---|-0-0-0-----3--0---|
|------------------|----------------|-----------------|------------------|
|                                                                        |
|------------------------|-------------|---------------|-----------------|
|------------------------|-------------|---2-----------|-------5--5s3----|
|------------------------|-------------|---2---------7-|---9---5--5s4----|
|------------------------|-------------|---2-----0---7-|---7-------------|
|--0-0-0-0-0-0-0-0-0-0-0-|-0-0---0-0-0-|-0-----0---8---|-8---9-----------|
|------------------------|-----3b-3----|---------------|-----------------|

			   Rhy Fig. 4
 E5           C     D      G            B5              E5
  no no no no no no no no  no    I dont need your civil war!

       D  G           B5              E5           C    D
	       I dont need your civil war

G             B5                         E5
   Your power hungry selling soldiers in a human grocry store, aint that fresh!

					(end Rhy Fig 4) 
G              B5              B5                       C       D
	I dont need your civil war, no no no no no no no no no no ah


 Outro solo
 W/Rhy Fig 4
 G                                  B5
|-----------------------------------------|
|-----12-15----12-15----12-12-15----12-15-|
|-14b-------14-------14----------14-------|
|-----------------------------------------|
|-----------------------------------------|
|-----------------------------------------|

				   E5
|-----------------------------------------|
|-----12-15----12-15-----12-15-----15-----|
|-14b-------14-------14b-------14b----14b-|
|-----------------------------------------|
|-----------------------------------------|
|-----------------------------------------|


|-----------------------------------------------|
|----15----12-----12-15-----12-15-----12-15-----|
|-14----14----14b-------14b-------14b-------14b-|
|-----------------------------------------------|
|-----------------------------------------------|
|-----------------------------------------------|

				   G                               B5
|---------------------------------|-12-----12----------------------------|
|----15----12-15p12----12-15b-15b-|----15b----15p12----15-12-13h15p13p12-|
|-14----14----------14------------|-----------------12------------------1|
|---------------------------------|--------------------------------------|
|---------------------------------|--------------------------------------|
|---------------------------------|--------------------------------------|

				     E5
|------------------------------------15b-|-15b-15-14-15-14h15p14p12------|
|----12----------------------------------|-------------------------------|
|-15----15-14-14b-14-p12----14----12-----|-------------------------------|
|------------------------14----14--------|-------------------------------|
|----------------------------------------|-------------------------------|
|----------------------------------------|-------------------------------|

	C                  D
|-15----12h14p12----12-14b-14s-----|----20b-----20-|
|----15----------15------------s15-|-17----(20b)---|
|----------------------------------|---------------|
|----------------------------------|---------------|
|----------------------------------|---------------|
|----------------------------------|---------------|

			   E5
|-19-20-19h20p18p17-19--17-----|-----------------------------|
|--------------------------19b-|-19-17-19b--19-p17----17-15b-|
|------------------------------|-------------------16--------|
|------------------------------|-----------------------------|
|------------------------------|-----------------------------|
|------------------------------|-----------------------------|

			    G             B5                        E5
|----12-------------------|-17b--17-15-17-17-|-17--15-17-15-17b-p15-17-15|
|-15----15-12-------------|------------------|---------------------------|
|-------------14-14-12----|------------------|---------------------------|
|----------------------14-|------------------|---------------------------|
|-------------------------|------------------|---------------------------|
|-------------------------|------------------|---------------------------|

			      C           D
|-17b--15b---------------|----12-------------------||
|----------17--15h17-15b-|-15----15-12-------------||
|------------------------|-------------14----12----||
|------------------------|----------------14----14-||
|------------------------|-------------------------||
|------------------------|-------------------------||

 G
|-------------------------|-------------------|---------------------|
|-------------------------|-------------------|---------------------|
|-12--7s9s7--4--4---------|---7s9-9-----------|---7s9s5-4-4---------|
|-----------------7s9s7s5-|-----------7s9s7s5-|-5-----------7s9s7s5-|
|-----5s7s5--2--2---------|---5s7-7-----------|---5s7s5-2-2---------|
|-----------------5s7s5s3p|0----------5s7s5s3-|-3-----------5s7s5s3p|


|----------------|----------------------|-----------------|
|----------------|----------------------|-----------------|
|--7s9-----------|----7s9s7-4-4---------|--7s9s7----------|
|--------7s9s7s5-|-5------------7s9s7s5-|---------7s9s7s5-|
|--5s7-----------|----5s7s5-2-2---------|--5s7s5----------|
|0-------5s7s5s3-|-3------------5s7s5s3p|0--------5s7s5s3-|


|---------------------|------------------|-------------||
|---------------------|------------------|-------------||
|---7s9s7-4-4---------|----7s9-----------|----7s9s7-4--||
|-5-----------7s9s7s5-|----------7s9s7s5-|-5-----------||
|---5s7s5-2-2---------|----5s7-----------|----5s7s5-2--||
|-3-----------5s7s5s3p|0---------5s7s5s3-|-3-----------||


7.YOU COULD BE MINE

------...                                |                               |
------...                                |                               | 
------...                                |                               |    
------...                                |                               |
------...                                |                               |
--12-12-12-12-12-12-12-12-9-9-9-9-9-9-7-7|7-7-7-7-7-7-7-7-5-5-4-4-3-3-3-3|

----14---    Then do some funky feedback with -------------
----14---                                     -------------
----14---                                     ------2------
---------                                     ------2------ 
---------                                     -------------
---------                                     -------------

1/4B     p                                 1/2    p
-------------------------------------------------------------------3-----------------
4-----4-----2------------2---------------2-----2-----0-------------3-----------------
4-----4-----2------------2---------------2-----2-----0-------------------------------
-------------------4-----2-----------------------------------2-----------------------
-------------------------------------------------------------------------------------
-------------------------------------------------------------------------------------
|------Lick 1----------------|          |------Lick 2----------------|

from now on play lick 1 with 1/2 bend.  Note:when playing the bends make sure that you
bend both notes.

repeat lick 1 twice    repeat lick 2 twice

repeat lick 1 twice    repeat lick 2 once

-----3--
-----3--
--2-----
--------   (then repeat this 5 times)
--------
--------


Now we have about 4 measures of powerchords ect.
Listen to the song to see how the timing goes(That goes for this whole work)
-----------
-----------
-----------7------9
-----9-----9------9
-----7-----7------7

Then the main riff that is used through out the chorus and verses is this:

--------------------------------------------------------------------------------------
--------------------------------------------------------------------------------------
---2--4--2--4--2------------------------------------2--4--2--4--2---------------------
---2--4--2--4--2--4--2---------------4--2--4--2--4--2--4--2--2--2--4--2---------------
------------------4--2--4------------4--2--4--2--4-----------------4--2--4------------
------------------------2------------------------------------------------2------------
A couple people wanted the solo so here it is:

Solo:You could be mine
another reason to cry---            1/2    1/2 hold---|         
---------------------------------------------------------------------------
-------------------------------9-----9-----9--------9--(9)p7---9--7--------
-------------------------------9-----9-----9--------9--(9)p7---9--7--------
------------------------(9)-9-----9---------------------------------9--7--9~~
---------------------------------------------------------------------------
---------------------------------------------------------------------------
                       1/2
---------------------------------------------------------------------------
---7--9--9--9--7--9-----9--------------------7-----------------------------
---7--9--9--9--7--9--7--9----------7h9--9----7--9p7s6---7--6--7--6h7p6----6
---------------------7--------------------7-----------------------------9--
---------------------------------------------------------------------------
---------------------------------------------------------------------------
                            1/2 1/2~~           1/2     1/2 2(1/2)       F~~
---------------------------------------------------------------------------
---------------------------------------------------------------------------
--6----------------------------------------------------------------------10
9----9--9--7-----9---7------------------------7-----------------------9----
--------------9----9---9--8--8---7----(7)p5---7--5-------------------------
--------------------------------------------7-------7--7--10--7---(7)s-----
                1/2
10------7-------10---x--------10--9h10p9p7-----9-----7h9p7------10-------10
10~~~~~~--10p7-------x--10p7---------------10----10---------10-----8s12----
---------------------------------------------------------------------------
---------------------------------------------------------------------------
---------------------------------------------------------------------------
---------------------------------------------------------------------------
        F(ull)
--------12-----10--------14-------------17~~~-14--17------------------14---
12--10------------12--10-----17--14------------------14--17---17~~~~~~---17
-------------------------------------16------------------------------------
---------------------------------------------------------------------------
---------------------------------------------------------------------------
---------------------------------------------------------------------------
                                                          F        F     F
----17--14-----------------14-------17-----17---14--17----17------17----17-
-14--------17p14--17~~~~~-----17p14----14--------------14------------------
---------------------------------------------------------------------------
---------------------------------------------------------------------------
---------------------------------------------------------------------------
---------------------------------------------------------------------------
1/2                      While you're breakin down my       back an' I been
---------------------------------------------------------------------------
17------16-----------------------------------------------------------------
------------16--14------------------------14s16-------------16~~~~~~~~~~~~~
--------------------16p15p14--122--14--12----------------------------------
---------------------------------------------------------------------------
---------------------------------------------------------------------------





 matter how we maek it cause it always
---------------------------------------------------------------------------
--7------------------------------------------------------------------------
--7------------------------------------------------------------------------
--7-----------------------------7(harmonic)--------------------------------
--5------------------------------------------------------------------------
---------------------------------------------------------------------------
I     said    you                              could       be
---------------------------------------------------------------------------
-------------------------10-------------------------10---------------------
9s11--11s14---11-----11------11----------------11-------11-----------------
---------------------------------9(full)p7---------------------------------
7s9---9s12----------------------------------9---------------------9--9-----
---------------------------------------------------------------------------
you                               should  be         you
---------------------------------------------------------------------------
--------------10------------------------------------------10---------------
--------11---------11---11----------------------------11------11------11---
-----------------------------9---------------------------------------------
9--9----------------------------9----------------------------------9------9
---------------------------------------------------------------------------
could              be                   mine
---------------------------------------------------------------------------
-------14--16--14--16--14--------------------------------------------------
--11---14--16--14--16--14--------------------------------------------------
-----------------------------16----14--16~~~~~~----------------------------
---------------------------------------------------------------------------
---------------------------------------------------------------------------

7.DON'T CRY

Intro: Clean Electric
         Am            Dm            G
|-----|--------0-------------1---------------3-----------------------|
|-----|----------1---------3---3---------------3---------------------|
|-----|------2-----2-----2-------2---------0-----0-------0-----0-----|
|-----|----2---------0-0-----------------0-------------0-----0-------|
|-----|--0-------------------------0---2-----------0-3-----2-----3-2-|
|--3--|------------------------------3-------------------------------|

  Am            Dm            G
|-------0-------------1--------------------------|
|---------1---------3---3------------------------|
|-----2-----2-----2-------2---------0------------|
|---2---------0-0-----------------0-----------2--|
|-0-------------------------0---2-------------0--|
|-----------------------------3---------2-3-4----|

Verse: Clean Electric
 Rhy. Fig. 1                                     End Rhy. Fig. 1
  Am            Dm            G                 *
|-------0-------------1---------------3-------|-----------------|
|---------1---------3---3---------------3-----|-----------------|
|-----2-----2-----2-------2---------0-----0---|-----0-----0-----|
|---2---------0-0-----------------0-----------|---0-----0-------|
|-0-------------------------0---2-----------0-|-3-----2-----3-2-|
|-----------------------------3---------------|-----------------|

* Last time before 2nd and 3rd chorus replace
  remainder of Rhy. Fig. 1 with Rhy. Fill 1.

 Rhy. Fill 1          End Rhy. Fill 1
  C       G/B     Am      G
|----------------------------------|
|-------1-------3-------1----------|
|-----0-------0-------2---------0--|
|---2-------0-------2---------0----|
|-3-------2-------0---------2------|
|-------------------------3--------|


 (w/Rhy. Fig. 1)
 Talk to me softly
 There's something in your eyes
 Don't hang your head in sorrow
 And please don't cry
 I know how you feel inside I've
 I've been there before
 Somethin's changin' inside you
 And Don't you know


Chorus: Clean Electric
   F                    G           Am
|----------------------------------------|------------------0--|--------------------|
|--1-------1-----1----------3-3----------|--------0-h-1--------|--1-----0-h-1-------|
|--0-h-2---0-h-2-0-h-2------0-0----------|------2-------2------|----2---------2-p-0-|
|--3-------3-----3--------0--------------|----2-----------2----|------2-------------|
|----------------------------------------|--0------------------|--------------------|
|-----------------------3----------------|---------------------|--------------------|

   F           G           Am                            F           G
|--------1--------------|------------0--0--------------|------1-----------3---|
|------1---1-------3----|------0----------3--3-1-------|----1---1-----3-3---3-|
|----2-------2---0------|----2-----2-------------2-----|--2-------2---0-------|
|--3-----------0-----0--|--------2-----------------2---|--3-----------0-------|
|-----------------------|--0---------------------------|----------------------|
|-----------------------|------------------------------|----------------------|

   C**     G/B     Am      G           F        G           Am
|-----------------------------------|------1--------3-------|--0-------|
|--------1-------1-------1----------|----1---1--3-3---3-----|--1-------|
|------0-------0-------2---------0--|--2--------0-----------|--2----2--|
|----2-------0-------2---------0----|--3--------0-----------|--2--2----|
|--3-------2-------0---------2------|-----------------------|--0-------|
|--------------------------3--------|-----------------------|----------|

Repeat Verse w/Additional Lyrics: Verse: 2
Repeat Chorus w/Rhy. Fill 2 at **

Rhy. Fill 2                  End Rhy. Fill 2
  C5   G5      A5   G5      F5   G5   A5
|-----------|------------|-----------------|
|-----------|------------|-----------------|
|--5--------|------------|-----------------|
|--5----5---|---7----5---|---3----5----7---|
|--3----5---|---7----5---|---3----5----7---|
|-------3---|---5----3---|---1----3----5---|

Chord progression over the solo:
 D5      F5      | G5      A5G5    | F5      G5      | A5            G5|
 / . / . / . / . | / . / . / . / . | / . / . / . / . | / . / . / . / . |

 F5      G5      | E5      F5      | F5      G5      | A5
 / . / . / . / . | / . / . / . / . | / . / . / . / . | /...............|

 Solo:
|---------------------------------------------------------------------|
|--------------------------------------------------8~~-----------8-8--|
|------------7^rp5--7-(7)~~~--r7p5--7^-------r7p5--7^-----r7----5^\/\-|
|-7~~~~~~~~~----------------------------------------------------------|
|---------------------------------------------------------------------|
|---------------------------------------------------------------------|

|---------------------------------------------------------------------|
|-----------------------------------------13^(2 steps)--13^(1/4 step)-|
|-7/9-9/10--------------------------12h14-----------------------------|
|--------------------------10h12-12/14--------------------------------|
|-5/7--7/8--8h10-10/12------------------------------------------------|
|---------------------------------------------------------------------|

|--------------------------------------------------------------------------|
|--------------------------------------------------------------------------|
|-14~~~----------------12--------------------------------------------------|
|-----------14-13h14p13p12-13p12-10-12p10---------10^----------------------|
|----------------------------------------------------12p10---12p10-12-(12)-|
|--------------------------------------------------------------------------|

|-----15-15-15-------------15-15-----------------------------------------------|
|-15^----------r15p13--15^-------r15--13-12---------12/15-13-12-13-------------|
|---------------------------------------------------------13-------------14----|
|-------------------------------------------------------------14------------15-|
|------------------------------------------------------------------------------|
|------------------------------------------------------------------------------|

|-13----------------------------------------------5-----------------------------|
|----13--15^--15~~~--r15p13--8^-----8-5--------x-x--8---------------5^r^(5)r--5-|
|-----------------------------------------------------r7p5--x-x--7^--(7)-----r7-|
|-------------------------------------------------------------------------------|
|-------------------------------------------------------------------------------|
|-------------------------------------------------------------------------------|

Verse:
                                                trem. bar
      Feedback---------------------------------------|  Harm
                                             \\\\\3.5   8va
|---------------------------------|---------------------------------|
|---------5-b-6---------r-5-b-6---|-------r-5-----------5-----------|
|-(7)-----------------------------|---------------------------------|
|---------------------------------|---------------------------------|
|---------------------------------|---------------------------------|
|---------------------------------|---------------------------------|
    and please remem-ber             that  I never  lied


Chorus 3: Lead Part

 Double regular chorus with power chords, or 5 (ie: F5, G5, A5, etc) 

F G Am                                                  F    G
|--12~~~--12--12--12--12-------------------------------|-------------------|------------|
|-------------------------13---------------------------|--15-p-13----------|------------|
|------------------------------------------------------|-----------14~~~~--|------------|
|------------------------------------------------------|-------------------|------------|
|------------------------------------------------------|-------------------|------------|
|------------------------------------------------------|-------------------|------------|

   Am                                    F      G
|--15b-------r15--15--------------------------------------|-------------------|-------------|
|---------------------17--15------------------------------|--15--p--13~~~~~~--|--15--13--15-|
|---------------------------------------------------------|-------------------|-------------|
|---------------------------------------------------------|-------------------|-------------|
|---------------------------------------------------------|-------------------|-------------|
|---------------------------------------------------------|-------------------|-------------|

   C     G/B    Am     G          F
|------------------------------|------------------------------|
|--15----15-----12-----12------|------------------------------|
|------------------------------|--14~~~~~~--------------------|
|------------------------------|------------------------------|
|------------------------------|------------------------------|
|------------------------------|------------------------------|

Outro Chorus: Distorted Guitar

 F5            G5
 And don't you cry...

 F5             G5
 Don't you ever cry...

 F5        G5    ***     (E5) (F5)
 Don't you cry tonight... baby maybe someday...

 F5        G5
 Don't you cry...

 F5             G5
 Don't you ever cry...

 F5        G5     C5       
 Don't you cry... TONIGHT... ****


*** Fill in with Rhy. Fill 3

  Rhy. Fill 3                           End Rhy. Fill 3
    E5                         F5 
E|--------------------------|--------------------------|
B|--------------------------|--------------------------|
G|--------------------------|--------------------------|
D|--2--2--2--2--2--2--2--2--|--3--3--3--3--3--3--3--3--|
A|--2--2--2--2--2--2--2--2--|--3--3--3--3--3--3--3--3--|
E|--0--0--0--0--0--0--0--0--|--1--1--1--1--1--1--1--1--|
                baby...        maybe...    someday...

**** Play Riff 1

  Riff 1
E|-12--12--------------------------12--12----------13--------------|
B|---------13------13------13--------------13----------------sl----|
G|---------------------------------------------------------12-/14--|
D|-----------------------------------------------------------------|
A|-----------------------------------------------------------------|
E|-----------------------------------------------------------------|

E|-13--------------12----------10----------8-----------------------|
B|-----------------------------------------------------------------|
G|---------12--------------10----------9---------5h7-------5-------|
D|-----------------------------------------------------------------|
A|-----------------------------------------------------------------|
E|-----------------------------------------------------------------|

E|-----------------------------------------------------------------|
B|-----------------------------------------------------------------|
G|---------5-------------------------------------------------------|
D|-5-h-7-----------------------------------------------------------|
A|---------------6h7-----------------------------------------------|
E|-----------------------------------------------------------------| End Riff 1

9.NOVEMBER RAIN

Fmaj7                  Dm9                       C      Csus4  C
When I look in to your eyes i can see a love restrained
Fmaj7              Dm9                                    C      Csus4  C
but darlin' when i hold you, don't you know i feel the same?
Dm               G                                     C
nothing lasts for ever and we both know hearts can change
Dm                        G                            C
and it's hard to hold a candle in the cold november rain
Fmaj7                              Dm
we've been through this such a long long time just tryin' to kill the pain
C Csus4  C   Fmaj7                                             Dm
oh_ yeah___  but lovers always come and lovers always go and no one's 
                                C    Csus4        C
really sure who's letting go today__  walking a way__
Fmaj7                                                    Dm
if we could take the time to lay it on the line, i could rest my head
                         C  Csus4        C     Dm
just knowing that you were mine  all mine
                      G                             C
so if you want to love me, then darlin' don't refrain
Dm                      G                           C
or i'll just end up walkin' in the cold november rain
           F                    G
do you need sometime on your own
          F                  G
do you need sometime all alone
              F                          G
ooh, everybody needs sometime on their own
                         F                     G
ooh, don't you know you need some time all alone
E5            F5            C5        E5                F5
i know it's hard to keep an o-pen heart when even friends seem
           D5                    E5            F5              C5
E|-----------------------------------------------------------------------|
B|--------------3-5-5br-3------------------------------------------------|
G|-------------------------4br~~~----------------------------------------|
D|-----------------------------------------------------------------------|
A|-----------------------------------------------------------------------|
E|-----------------------------------------------------------------------|
out to harm you                      but if you could heal a broken heart

E|----------------------------|
B|----------------------------|
G|-/5~~~~-------4br~~~~--2--0-|
D|----------------------------|
A|----------------------------|
E|----------------------------|

E5             F5              G5
   wouldn't time be out to charm you woh_____________

  Guitar solo 1:
E|-----------8-----------------------------8------------8~~~~~~-------|
B|-b8---r8b----8---r(8)p6--8brbr----r8b------r8--5br~~----------5brbr-|
G|--------------------------------------------------------------------|
D|--------------------------------------------------------------------|
A|--------------------------------------------------------------------|
E|--------------------------------------------------------------------|

E|------------------------------------------------------------------|
B|-5~~----------8------------------------8--------------------------|
G|-----7p5--7/9---9\7--5---b8-------r8b----8--r(8)p6--8brb-----r8b--|
D|------------------------------------------------------------------|
A|------------------------------------------------------------------|
E|------------------------------------------------------------------|

E|-8-8br---10b(hold)-8h10p8----8-------13p12-----13p12----13b---13~~~~--|
B|--------------------------10---11b----------13-------13---------------|
G|----------------------------------------------------------------------|
D|----------------------------------------------------------------------|
A|----------------------------------------------------------------------|
E|----------------------------------------------------------------------|

E|----12--13-12h13p12---------12-13br-13-12-12b-12~~~-20--(20)~~~-|
B|-15-----------------15~~-15-------------------------------------|
G|----------------------------------------------------------------|
D|----------------------------------------------------------------|
A|----------------------------------------------------------------|
E|----------------------------------------------------------------|

E|-19-19--19\17--17\15--15\13--13--13\12--12--12h13p12-----12h13~~~|
B|------------------------------------------------------15---------|
G|-----------------------------------------------------------------|
D|-----------------------------------------------------------------|
A|-----------------------------------------------------------------|
E|-----------------------------------------------------------------|

E|-12-13-12h13p12--------12---------------------------------------------|
B|----------------15p13-----13---15h17p15-15-12h13-12h13p12--------12---|
G|-----------------------------------------------------------14p12------|
D|----------------------------------------------------------------------|
A|----------------------------------------------------------------------|
E|----------------------------------------------------------------------|

E|-------------------------------------------------------------|
B|----10-----------------------------13~~~~--------------13~~~-|
G|-12----10--12--10--9~~~~--12p10\9-----------10h12p10\9-------|
D|-------------------------------------------------------------|
A|-------------------------------------------------------------|
E|-------------------------------------------------------------|

E|--------------------------15--------------------|
B|-------------15b-------------r15---13-----(13)b-|
G|-10h12p10\9-------------------------------------|
D|------------------------------------------------|
A|------------------------------------------------|
E|------------------------------------------------| (end of solo 1)

   F                    G                   F
E|----------------------------------------------------------|
B|-13-----------(13)b-------------------6-5-----------------|
G|----------------------------5h7p5----------5---------5h7--|
D|-----------------------------------7----------7-----------|
A|----------------------------------------------------------|
E|----------------------------------------------------------|
need some time on my own  sometimes i need sometime all alone

      G                         F                 G     
E|------------------------------------------------------------------------|
B|------6b-------6p5----6---5---------------------------------------------|
G|----------------------------5-------------5h7-------------5h7p5---------|
D|-7-5---------------------------7----------------------7----------7------|
A|------------------------------------------------------------------------|
E|------------------------------------------------------------------------|
      ooh, everybody needs sometime on their own  ooh, don't you know you

 F                G
E|-----------------------------------------------------------|
B|-6--5------------------------------------------------------|
G|------5---------------------7--9--10--12--14--16--17--19---|
D|--------7--------------------------------------------------|
A|-----------------------------------------------------------|
E|-----------------------------------------------------------|
need sometime all alone

  Guitar solo 2:
E|--------------------------------------20---------------20---------19b-|
B|-----------------------18~~~~~~-20b------r20-----(20)b----18-17~------|
G|-7-9-10-12-14-16-17-19------------------------------------------------|
D|----------------------------------------------------------------------|
A|----------------------------------------------------------------------|
E|----------------------------------------------------------------------|
  
        w/Fill 2.
E|----------------------17--------------------------------------------------|
B|-17b-rb-r----17-18-20----18--20-17-18-20--17br-17-------------------------|
G|----------19--------------------------------------19brp17--19p17-----17---|
D|------------------------------------------------------------------19------|
A|--------------------------------------------------------------------------|
E|--------------------------------------------------------------------------|

E|-----------------------------------------------------------------------|
B|-20---------------20----------------20b--20--18h20p18p17--18-17h18p17--|
G|----17-17------17----17-17-17----17------------------------------------|
D|-----------19-----------------19---------------------------------------|
A|-----------------------------------------------------------------------|
E|-----------------------------------------------------------------------|

E|------------------------------------|
B|-----17------20---------------------|
G|-19-----19b------19---17~~~~--------|
D|------------------------------------|
A|------------------------------------|
E|------------------------------------| (end of solo 2)

Fmaj7                      Dm                     C Csus4       C
and when your fears subside and shadows still remain  oh_ yeah_
Fmaj7                Dm
i know that you can love me when there's no one left to blame
C      Csus4      C                    Dm
ah______________________________________
                    G                          C
so nevermind the darkness we still can find a way 
Dm                G                          C5      G/B
nothing lasts forever even cold november rain

end solo
E--2O--------19----- 2O-|-(2O)-------2O--19--2O--15---------15--|
B-----------------------|----------------------------16---------|
G-----------------------|---------------------------------------|
D-----------------------|---------------------------------------|
A-----------------------|---------------------------------------|
E-----------------------|---------------------------------------|

E-16----151615------15----------15-|
B-----------------18---------18----|
G----------------------------------|
D----------------------------------|
A----------------------------------|
E----------------------------------|
                
E---16---15--1615----------------15-------------------------------|
B------------------18-16----16-18----18-16-18-15-16--18-16-15-16--|
G------------------------17---------------------------------------|
D-----------------------------------------------------------------|
A-----------------------------------------------------------------|
E-----------------------------------------------------------------|

E-----------------------------------------------------------------|
B---15-----------------15--16--18--15--16--18---15----------------|
G------------------17-------------------------------17------------|
D-----------------------------------------------------------------|
A-----------------------------------------------------------------|
E-----------------------------------------------------------------|

E-2O-----------------19----------2O-|-(2O)---2O--19--2O--15------15-|
B-----------------------------------|------------------------16-----|
G-----------------------------------|-------------------------------|
D-----------------------------------|-------------------------------|
A-----------------------------------|-------------------------------|
E-----------------------------------|-------------------------------|

E--16-----151615----15---------------|
B-----------------18-------15-16-18--|
G------------------------------------|
D------------------------------------|
A------------------------------------|
E------------------------------------|

E-15-16-151615------15-----15---------------------15-1615----15------|
B-------------18-16---16-18--1816-18-16--15-16-18--------1816---1618-|
G--------------------------------------17----------------------------|
D--------------------------------------------------------------------|
A--------------------------------------------------------------------|
E--------------------------------------------------------------------|

E-15-----------------------------------------------------------------|
B---18-16----15-16-18-15----16-15------------------------------------|
G---------17-------------17-------17-15-17--151315131513-------------|
D---------------------------------------------------------12---------|
A--------------------------------------------------------------------|
E--------------------------------------------------------------------|
           
E---2O-------------19-------------2O-|-(2O)---2O--19-------------15--|
B------------------------------------|----------------15-----------17|
G------------------------------------|-------------------------------|
D------------------------------------|-------------------------------|
A------------------------------------|-------------------------------|
E------------------------------------|-------------------------------|

E---------------------------------|-----2O-(2O)-------2O-15-2O-19-2O-|
B--15-------15------18---------16-|---16-----------------------------|
G---------------17----------------|-17-------------------------------|
D---------------------------------|----------------------------------|
A---------------------------------|----------------------------------|
E---------------------------------|----------------------------------|
                   
E--15--18-16-18-15-1615-------15---------15------15------15-----|
B-------------------------18------16-18------16------16------16-|
G---------------------------------------------------------------|
D---------------------------------------------------------------|
A---------------------------------------------------------------|
E---------------------------------------------------------------|
               
E--2O----------------19----------2O--|-(2O)----2O--19--2O--15----15-|
B------------------------------------|------------------------16----|
G------------------------------------|------------------------------|
D------------------------------------|------------------------------|
A------------------------------------|------------------------------|
E------------------------------------|------------------------------|

E--16------151615---15------------15-|--18--(18)-------15---15------|
B----------------18------------18----|-------------------16---16----|
G------------------------------------|---------------------------17-|
D------------------------------------|------------------------------|
A------------------------------------|------------------------------|
E------------------------------------|------------------------------|

E-----------------------------------------------------------------|
B-----------------------------------------------------------------|
G--(17)--15-17---17-15--------------------------------------------|
D-----------------------17--16----15--15---15---13---15--13-------|
A--------------------------------------------------------------15-|
E-----------------------------------------------------------------|

E--2O-------------19---------2O-|-(2O)----2O--19--2O--15------15-|
B-------------------------------|-------------------------16-----|
G-------------------------------|--------------------------------|
D-------------------------------|--------------------------------|
A-------------------------------|--------------------------------|
E-------------------------------|--------------------------------|

E--16------151615---15---------15-|
B----------------18---------18----|
G---------------------------------|
D---------------------------------|
A---------------------------------|
E---------------------------------|

E--151618--151618--1516181615------16------151615-------15-----|
B------------------------------18------18-----------18------18-|
G--------------------------------------------------------------|
D--------------------------------------------------------------|
A--------------------------------------------------------------|
E--------------------------------------------------------------|

E------------------------------15--(15)----(15)-----------------|
B--16-------18-----16--18--16-----------------------15-----(15)-|
G------17-------------------------------------------------------|
D---------------------------------------------------------------|
A---------------------------------------------------------------|
E---------------------------------------------------------------|

E--2O--------------19--------2O-|-(2O)---2O--19----2O--15------15-|
B-------------------------------|--------------------------16-----|
G-------------------------------|---------------------------------|
D-------------------------------|---------------------------------|
A-------------------------------|---------------------------------|
E-------------------------------|---------------------------------|
                                                           
E--16------15-----------------------|----------------------------|
B------------18-16--18-----------16-|--15-----------(15)---------|
G-----------------------------------|----------------------------|
D-----------------------------------|----------------------------|
A-----------------------------------|----------------------------|
E-----------------------------------|----------------------------|

feedback
E------------------------------------|
B--(15)-------------(15)-------------|
G------------------------------------|
D------------------------------------|
A------------------------------------|
E------------------------------------|

10.LIVE AND LET DIE

INTRO ( Guitar tuned 1/2 down )
 * Piano arr. for guitar
 
  (G)             (Bm)              (C)            (D)     D(b9)
 
 e-3------------------------------|--0--------------2--------2------\
 B-3----3----------------3--------|---------------------3----4------|
 G-4----4-------------22------2-0-|--------1--------------------2---|
 D-5----5----------4--------------|-----0--0--0-0-------------------|
 A-5---------5-----2--------------|--3-----2--------0---------------|
 E-3------------------------------|---------------------------------/
 
 
  (G)              (Bm)             (C)           (D)    D(b9)
 
e-3---3--------------------------|-------0--------2---------------------\
B-3-----------0----------3-------|-------------0--------3----4----------|
G-0--------0----------2--2----2--|----0-----0--------2-----2----2--2--0-|
D-0----------------4-----4-------|----------------0---------------------|
A------------------2-------------|--3-----------------------------------|
E-3------------------------------|--------------------------------------/ 

  (G)               (Bm)
 e-3------3---------------------2----------\
 B-3------3-------0-----------3---------0--|
 G-0------0----0-----------2---------2-----|
 D-0------0-----------4--------------------|
 A--------------------2--------------------|
 E-3------3--------------------------------/
 
  (C)                 (A)          (D)
 e--------0------------------0----|-2-------2------------\
 B--------1-------1-0-------------|-3-----3--------------|
 G----0-------0--------2--2-----2-|-2---2----------------|
 D---------------------2----------|-0-----------0--------|
 A-3-------------------0----------|----------------------|
 E--------------------------------|----------------------/
 
  (D) (E)(F)  ...End Intro
 e-0---0--1----0--0--1----\
 B-3-----------3----------|
 G-2-----------2----------|
 D-0-----------0----------|
 A------------------------|
 E------------------------/
 
                         WORDS AND MUSIC BY:
                 Paul McCartney and Linda McCartney
 
 
       (G)             (Bm)                (C)
         When you were young  and your heart__
       (C)        (D)        D(b9)
         __was  an o__pen book,___
       (G)          (Bm)                   (C)
         you used to say live and let live.__
       (C)            (D)          D(b9)
         You know you did, you know you did,
                          (G)
         ___you know you  did.__
       (G)          (Bm)
 
         But if this ev___er chan__in'  world._____
       (C)                      (A)
         _____in which we live in_____
       (A)            (D)              (D)(E)(F)
         makes you__give in and__cry,_____
 
 
 w/Distortion
                 (G5)      (C5)      G(b5)       (G5v)
 e-------------------------------------------------------------\
 B-------------------------------------------------------------|
 G---------------------------5---------6-----------7-----------|
 D-----------------5---------5---------5-----------5-----------|
 A--sl-----p-------5---x-x---3---x-x---4----x-x----5---x-x-----|
 E-20\----30------3---x-x---3---x-x---3----x-x----3---x-x-----/
 
                                 (G5)
         _______say, live and let die,____
 
         (C5) ...  G(b5) ... (G5v)
                                 (G5)
 
         ________  live and let   die.__
 
         (C5) ...  G(b5) ... (G5v)
 
  * Twice ................................
 e-------------------------|----------------\
 B--------15--(15)\--------|-10-------------|
 G--12-14-15--(15)\---7--9-|-10-------5-3-0-|
 D--12-14-15--(15)\---7--9-|-10-------5-3-0-|
 A-------------------------|----------------|
 E-------------------------|----------------/
  * Twice .................................
 e-------------------------|----------------\
 B--------15--(15)\--------|-10-------------|
 G--12-14-15--(15)\---7--9-|-10----5-----3--|
 D--12-14-15--(15)\---7--9-|-10----5-----3--|
 A-------------------------|----------------|
 E-------------------------|----------------/
 * Synth. sound effects....................
 
                 ** Half time Reggae feel **
 
  (C)..........................    (G).................... [P.M.]
 e-------------------------------|[P.M.]--------------3-3---3--3--\
 B-5-x-x-x-5-5-x---5---5---x-x-5-|-3-3-x-x-x-x-x-x----3-3---3--3--|
 G-5-x-x-x-5-5-x---5---5---x-x-5-|-4-4-x-x-x-x-x-x----------------|
 D-5-x-x-x-5-5-x---5---5---x-x-5-|-5-5-x-x-x-x-x-x----------------|
 A-------------------------------|--------------------------------|
 E-------------------------------|--------------------------------/
 
  (D).........................   (E5)...........   (F5).........
 e[P.M.]----10-[......P.M......]|---------------------------------\
 B-7-7--x-x-10--12--10----------|---------------------------------|
 G-7-7--x-x-----12--10----------|--9----------x--x--10------(10)--|
 D-7-7--x-x------------12---7-7-|--9----------x--x--10------(10)--|
 A------------------------------|--7----------x--x---8------( 8)--|
 E------------------------------|---------------------------------/
 
        ...... (Half time Reggea feel) ......
 
       (C)                               (G)
         What does it   mat - ter to ya,_____
       (G)
         When you got a job__ to do_____
                 (D)      (D)
         ya got to do it well.__________
                    (E5)                   (F5)
         You got to give the oth-er fel-la hell._____
 
 
 Fill w/harmonizer
 
 e-----------------------full-------|-----p----half---------------\
 B---half/full-----15---17-----(17)-|---1513-12-------full-------|
 G--14------------------------------|-----------------14-----(14)-|
 D----------------------------------|-----------------------------|
 A----------------------------------|-----------------------------|
 E----------------------------------|-----------------------------/
 
                   ...........Vibrato
 e-------------------------------\
 B-------------------------------|
 G-------------------------------|
 D--12-------------(12) ---------|
 A-------------------------------|
 E-------------------------------/
 
 
       (G)       (Bm)               (C)
         Used to say live and let live.__
       (C)            (D)             D(b9)
         You know you did, you know you did,
                          (G)
         ___you know you  did.__
       (G)          (Bm)
 
         But if this ev___er chan__in'  world._____
       (C)                      (A)
         _____in which we live in_____
       (A)            (D)              (D)(E)(F)
         makes you__give in and__cry,_____
 
 w/Distortion        ~~~~ vibrato
 e------------15-17-18---------|---~~~~-vibrato---------\
 B-----------------------15-17-|-18-------full----------|
 G-----------------------------|---------15--(15)--12---|
 D-----------------------------|------------------------|
 A-sl----p---------------------|------------------------|
 E-20\--30--------------------|------------------------/
 
          ~~~~ vibrato
 e-15-17-18------------|--------------------------------\
 B------------15-17-18-|--full---~~~-vibrato------------|
 G---------------------|-15-----15----------------------|
 D---------------------|--------------------------------|
 A---------------------|--------------------------------|
 E---------------------|--------------------------------/
 
          ~~~ vibrato
 e-15-17-18---------|--~~~~-vibrato---------------------\
 B------------15-17-|-18-------full---------------------|
 G------------------|---------15--(15)--12--------------|
 D------------------|-----------------------------------|
 A------------------|-----------------------------------|
 E------------------|-----------------------------------/
 
          ~~~~ vibrato      full ~~~~ vibrato  End......
 e-15-17-18-------------|--18---18-----------------------\
 B------------15-17-18--|--------------------------------|
 G----------------------|--------------------------------|
 D----------------------|--------------------------------|
 A----------------------|--------------------------------|
 E----------------------|--------------------------------/
 
#----------------------------------PLEASE NOTE---------------------------------#
#This file is the author's own work and represents their interpretation of the #
#song. You may only use this file for private study, scholarship, or research. #
#------------------------------------------------------------------------------#
#

Subject:         guns n' roses tabs
   Date:         Sun, 26 Oct 1997 17:59:35 -0500
   From:         "David W. Iggulden" 

Live and let die
Guns N' Roses (originally recorded by Paul McCartney)
Use your illusion I

Tabbed by:     Fernando Alpuche
               fam632@www.interacces.com.mx

Tuned half step down

Intro (Piano arr. for guitar):
    G               Bm                C              D      D(b9)
e:|-3------------------------------|--0--------------2--------2------|
B:|-3----3----------------3--------|---------------------3----4------|
G:|-4----4-------------22------2-0-|--------1--------------------2---|
D:|-5----5----------4--------------|-----0--0--0-0-------------------|
A:|-5---------5-----2--------------|--3-----2--------0---------------|
E:|-3------------------------------|---------------------------------|

    G                Bm               C             D     D(b9)
e:|-3---3--------------------------|-------0--------2---------------------|
B:|-3-----------0----------3-------|-------------0--------3----4----------|
G:|-0--------0----------2--2----2--|----0-----0--------2-----2----2--2--0-|
D:|-0----------------4-----4-------|----------------0---------------------|
A:|------------------2-------------|--3-----------------------------------|
E:|-3------------------------------|--------------------------------------|

    G                 Bm
e:|-3------3---------------------2----------|
B:|-3------3-------0-----------3---------0--|
G:|-0------0----0-----------2---------2-----|
D:|-0------0-----------4--------------------|
A:|--------------------2--------------------|
E:|-3------3--------------------------------|

    C                   A            D
e:|--------0------------------0----|-2-------2------------|
B:|--------1-------1-0-------------|-3-----3--------------|
G:|----0-------0--------2--2-----2-|-2---2----------------|
D:|---------------------2----------|-0-----------0--------|
A:|-3-------------------0----------|----------------------|
E:|--------------------------------|----------------------|

    D   E  F    ...End Intro
e:|-0---0--1----0--0--1----|
B:|-3-----------3----------|
G:|-2-----------2----------|
D:|-0-----------0----------|
A:|------------------------|
E:|------------------------|

 G               Bm                 C
When you were young  and your heart___

 C           D          D(b9)
___was  an o___pen book,_____

 G            Bm                  C
you used to say live and let live___

 C              D           D(b9)
You know you did, you know you did,

                     G
___you know you  did____

 G            Bm
But if this ev___er chan__in'  world._____

 C                     A
___in which we live in___

 A        D               D  E  F
makes you___give in and__cry,_____

   w/Distortion    G5        C5       G(b5)        G5v
e:|-------------------------------------------------------------|
B:|-------------------------------------------------------------|
G:|---------------------------5---------6-----------7-----------|
D:|-----------------5---------5---------5-----------5-----------|
A:|-----------------5---x-x---3---x-x---4----x-x----5---x-x-----|
E:|-20\----3p0------3---x-x---3---x-x---3----x-x----3---x-x-----|

                           G5
_______say, live and let die,____
 
C5  ...   G(b5) ...  G5v

                          G5
________  live and let   die.__
 
C5  ...   G(b5) ...  G5v

    * Twice ................................
e:|-------------------------|----------------|
B:|--------15--(15)\--------|-10-------------|
G:|--12-14-15--(15)\---7--9-|-10-------5-3-0-|
D:|--12-14-15--(15)\---7--9-|-10-------5-3-0-|
A:|-------------------------|----------------|
E:|-------------------------|----------------|

    * Twice ................................
e:|-------------------------|----------------|
B:|--------15--(15)\--------|-10-------------|
G:|--12-14-15--(15)\---7--9-|-10----5-----3--|
D:|--12-14-15--(15)\---7--9-|-10----5-----3--|
A:|-------------------------|----------------|
E:|-------------------------|----------------|
    * Synth. sound effects..................

** Half time Reggae feel **
    C...........................     G..................... [P.M.]
e:|-------------------------------|[P.M.]--------------3-3---3--3--|
B:|-5-x-x-x-5-5-x---5---5---x-x-5-|-3-3-x-x-x-x-x-x----3-3---3--3--|
G:|-5-x-x-x-5-5-x---5---5---x-x-5-|-4-4-x-x-x-x-x-x----------------|
D:|-5-x-x-x-5-5-x---5---5---x-x-5-|-5-5-x-x-x-x-x-x----------------|
A:|-------------------------------|--------------------------------|
E:|-------------------------------|--------------------------------|
 
    D..........................   (E5)...........   (F5).........
e:|[P.M.]----10-[......P.M......]|---------------------------------|
B:|-7-7--x-x-10--12--10----------|---------------------------------|
G:|-7-7--x-x-----12--10----------|--9----------x--x--10------(10)--|
D:|-7-7--x-x------------12---7-7-|--9----------x--x--10------(10)--|
A:|------------------------------|--7----------x--x---8------( 8)--|
E:|------------------------------|---------------------------------|
 
** Half time Reggae feel **

 C                                 G
What does it   mat - ter to ya,_____

 G
When you got a job__ to do_____

         D        D
ya got to do it well.__________

            E5                     F5
You got to give the oth-er fel-la hell._____

    Fill w/harmonizer
e:|----------------------------------|-----------------------------|
B:|-----------------15---17fb---(17)-|---15p13-12hb----------------|
G:|--14hb-fb-------------------------|-----------------14fb---(14)-|
D:|----------------------------------|-----------------------------|
A:|----------------------------------|-----------------------------|
E:|----------------------------------|-----------------------------|

e:|-------------------------------|
B:|-------------------------------|
G:|-------------------------------|
D:|--12-------------(12)~~~~~~----|
A:|-------------------------------|
E:|-------------------------------|

G         Bm                  C
Used to say live and let live___

 C              D              D(b9)
You know you did, you know you did,

                          G
___you know you  did.__

 G             Bm
But if this ev____er chan__in'  world._____

 C                     A
___in which we live in___

 A             D          D  E  F
makes you__give in and__cry,_____
 
  w/Distortion
e:|------------15-17-18~~-------|-------------------------|
B:|-----------------------15-17-|-18~~--------------------|
G:|-----------------------------|---------15fb-(15)--12---|
D:|-----------------------------|-------------------------|
A:|-----------------------------|-------------------------|
E:|-20\--3p0--------------------|-------------------------|

e:|-15-17-18~~-----------|--------------------------------|
B:|------------15-17-18--|--------------------------------|
G:|----------------------|-15fb---15~~--------------------|
D:|----------------------|--------------------------------|
A:|----------------------|--------------------------------|
E:|----------------------|--------------------------------|

e:|-15-17-18~~--------|-----------------------------------|
B:|------------15-17--|-18~~------------------------------|
G:|-------------------|--------15fb--(15)--12-------------|
D:|-------------------|-----------------------------------|
A:|-------------------|-----------------------------------|
E:|-------------------|-----------------------------------|

e:|-15-17-18~~-----------|--18fb---18~~-------------------|
B:|------------15-17-18--|--------------------------------|
G:|----------------------|----------------------The-------|
D:|----------------------|----------------------End.....--|
A:|----------------------|--------------------------------|
E:|----------------------|--------------------------------|


11.YESTERDAYS

Call this Rhythm Figure A if you want

D                                                  C               G5
               H		      H	
--------------0-2--------------------0-2-------------------2--0-------3-------
--------3--------------3-------3-----------------------3-----------3----3---3-
-----2-----2--------2-------2-----2------------0-------0-------------0----0---
--0-----------------------4-----------------0----------2----------------------
---------------------------------------------------3--------------------------
------------------------------------------------------------------------------

Cadd2             G5
X     O   O     X O O
| | | | | |   | | | | | |
| | * | | |   | | | | | |
| * | | * |   * | | | * *
| | | | | |   | | | | | |
  1 2   3     2       3 4

The song goes like this

2x Rhythm Figure A
enter lyrics (play Rythm Figure A where you see D C G5)


D                   C                    G5
Yesterday there was so many things I was never told.
D                              C          G5
Now that I'm startin' to learn I feel I'm growin' old.
D                      Cadd2                G5
'Cause yesterday's got nothin' for me.  Old pictures that I'll always see.
D                            G5
Time just fades the pages in my book of memories.

(Insert Verse 2)

Chorus (underline indicates drag out the word, 
        C5 is just power chord on 3rd fret):
A               B   C5                              G5
Ooh,____________yesterday's________ got nothin' for me.__________
A               B   C5                              G5
Yesterday's________ooh,__ __________got nothin' for me.__________

Chords for solo are (if someone wants I can post tab of how I play the solo):
Bm   G   Bm   G
Bm   C#m D    E

Other lyrics:
2nd verse
Prayers in my pocket and no hand in destiny.
I'll keep movin' along with no time to plant my feet.
'Cause yesterday's got nothin' for me.
Old pictures that I'll always see.
Some things could be better if we'd just let them be.

3rd verse
Yesterday there were so many things I was never shown.
Suddenly this time I found I'm on the streets and I'm alone.
Yesterday's got nothin' for me.
Old pictures that I'll always see.
I ain't got time to reminisce old novelties.

12.AIN'T IT FUN

1/2 Dropped Tuning
 
---------------------------------------------------------------------------
----------------------------------------------------------10--12--10/12----
--------------------------2/4------------------9------11-------------------
-------------------2--4-----------------9--12-----12-----------------------
----2----2--4--5-----------------------------------------------------------
---------------------------------------------------------------------------

------10--12fb12--10--12--10---------10b-----------------------------------
--12--------------------------12----------12--10/12----12--10--------------
---------------------------------------------------------------11--9b------
---------------------------------------------------------------------------
---------------------------------------------------------------------------
---------------------------------------------------------------------------

---------------------------------------------------------------------------
----------------------12---------------------------------------------------
------9------/11--14------14--9h10p9------9------10p9----------------------
--12-----12---------------------------12-----12--------12--9--12p11--------
---------------------------------------------------------------------12/14-
---------------------------------------------------------------------------

---------------------------------------------------------------------------
---------------------------------------------------------------------------
---------9------/11----11--9------9--------9------11--11--9------9---------
--9--12-----12----------------12-----12-------12-------------12-----12--9--
---------------------------------------------------------------------------
---------------------------------------------------------------------------

------------10-------------------------9-----------------------------------
---------------------------------------10------------------------10-10-----
--9------9fb--------9--------9------9fb--------9--------------9fb11-11-----
-----12---------12-----12-------12---------12-----9----9--12---------------
---------------------------------------------------------------------------
---------------------------------------------------------------------------

---------------------------------------------------------------------------
---------------------------------------------------------------------------
------9------9------10b--9------9------------------------------------------
--12-----12-----12----------12-----11--12--9--11------9--------------------
--------------------------------------------------12-----------------------
---------------------------------------------------------------------------

13.SINCE I DON'T HAVE YOU

INTRO:
E----------------------------------------------------------
B----------------------------------------------------------
G----(18)--------------------------------------------------
D--------18h19p18p16h(18)-18h19p18p16----------------------
A-16---------------------------------------------(17)------
E----------------------------------------------------------

E----------------------------------------------------------
B-----18^18-16^16------------------------------------------
G----------------------18----------------------------------
D--------------------------18h19p18p16---------------------
A-16------------------------------------------17-----------
E----------------------------------------------------------

E----------------------------------------------------------
B----------------------------------------------------------
G----------------------------------------------------------
D-13--15--13--15--18--16--13--11-----11-13-11\-------------
A----------------------------------------13----------------
E----------------------------------------------------------


During the verse just play this chords: Gmaj, Cm, Dmaj.
In the chorus play this chords: Gmaj, Cm, Am, Dmaj.

E-3-----3-----5--------5-----------------------------------
B-3-----4-----7--------5-----------------------------------
G-4-----5-----7--------5-----------------------------------
D-5-----5-----7--------7-----------------------------------
A-5-----3-----5--------7-----------------------------------
E-3-----3-----5--------5-----------------------------------
Gmaj  Cm   Dmaj     Am

14.SYMPATHY FOR THE DEVIL

Intro -
  E     D     A
	
|--------------------|
|-9-----7------------|
|-9-----7-----7------|
|-9-----7-----7------|
|-7-----5-----7--4-5-|
|-------------5------|

Slash's Bits -

|------------------|
|-------10--9------|
|--------9--9------|
|------------------|
|--9h11------------|
|------------------|

|--------------------------------------|
|-9--9--9-9-9-10-9~---7--7--7-7-7-8-7--|
|-9--9--9-9-9--9-9~---7--7--7-7-7-7-7--|
|-9--9--9-------------7--7--7----------|
|-7-------------------5----------------|
|--------------------------------------|... then hit A

Play around with those notes above until 1:05

|--------------------------------------|
|--8~----9~--8~----10--9--9---------9--|
|--8~----9~--8~----10--9--9---9-----9--|
|--8~----9~--8~----10--9--9-x-9-x-x-9--|
|----------------------7--7-x-7-x-x-7--|
|--------------------------------------|

|-------------------------------------------------|
|----------------------------8~---9~--8~---10---9-|
|-7-7-8-9-13-13-12-11--------8~---9~--8~---10---9-|
|---------------------14\\---8~---9~--8~---10---9-|
|-----------------------------------------------7-|
|-------------------------------------------------|

Pause...

Then go back into the main chords

More Slash Bits - 

  2:17
|-----0------------------------------------|
|-------0-3br-0----0---------3p0-----------|
|--2b-----------2b---r2p0-2b-----r2p0------|
|-------------------------------------2~---|
|------------------------------------------|
|------------------------------------------|

  2:25
|--10-9-7-------------------------------|
|---------8~----8---10p8---8-8/10-8~----|
|-------------9---9------9--------------|
|---------------------------------------|
|---------------------------------------|
|---------------------------------------|

  3:06 Solo

|--12-----------------------12----------------------|
|-----15-12--------------------15-12----------------|
|-----------14-14br12----------------14-14br12------|
|---------------------14~----------------------14~~-|
|---------------------------------------------------|
|---------------------------------------------------|

|-12------------------------------------------------|
|----15-12----15-hold-bend--------12~~----------8---|
|----------14-14b------12---------12~~------7-9-----|
|-------------------------14~-----------------------|
|---------------------------------------------------|
|---------------------------------------------------|

|--------------------------12~~----17b-17b-17~---12-12h15-12~--15b|
|-10p8-------12~~--8--8h10----------------------------------------|
|------9~----12~~-------------------------------------------------|
|-----------------------------------------------------------------|
|-----------------------------------------------------------------|
|-----------------------------------------------------------------|

|--rb17-15--17~---//18-17-15------17br15-17p15-----15-17p15--17b--|
|---------17-----------------17~---------------17~----------------|
|-----------------------------------------------------------------|
|-----------------------------------------------------------------|
|-----------------------------------------------------------------|
|-----------------------------------------------------------------|

|-----15h17-17b----15h17-17b-17~-15-17-15~-------|
|--17-----------17--------------------------17~--|
|------------------------------------------------|
|------------------------------------------------|
|------------------------------------------------|
|------------------------------------------------|

  3:31
|-12--12---12--12---12--12--12--15p12--17b--17~-17b-17~-15-17-15b----|
|-----15b------15b------15b----------------------------------------17|
|--------------------------------------------------------------------|
|--------------------------------------------------------------------|
|--------------------------------------------------------------------|
|--------------------------------------------------------------------|

|----------17p15--------------|
|-15h17p15-------17p15h17~----|
|-----------------------------|
|-----------------------------|
|-----------------------------|
|-----------------------------|

Right at the end -

|---------------------------------------------------|
|--10-8-10-h11p10p8-8/10--8\\3-----5----------------|
|------------------------------2/4----2br0---2/3-2~-|
|------------------------------------------2--------|
|---------------------------------------------------|
|---------------------------------------------------|

|-------------------------------|
|-------------------------------|
|-------------------2--1--------|
|-2p0---0-----------2--2--------|
|-----2---2p0-------2--2--------|
|-------------3br-0-------------|
15 comments total. Showing first comments.
0 reply
f117_nighthawk wrote on April 1 2005, 12:00 am

this is pretty good!

0 reply
justin_fraser wrote on January 20 2006, 08:46 pm

wow

this mustve taken hours eh?
very good though

0 reply
McKillswitch wrote on March 27 2006, 02:03 pm

Good, But Are The Rumors True That Your A Butt Monkey?

I want to post or [tab]
guest
You may want to rate the tab now too:
select rating
Please do not post tabs as comments. Select "correction" instead!