Oops, an error
Loading. Please wait.

Greatest Hits Tab

ver2
ver2

Album

More versions @911Tabs.com
11,208 views 15 this week
4 commentsread comments
1 2 3 4 5
accurate
x 8
add to favorites launch autoscroll
font size
0
reset
Autoscroll
+/-
esc
set tempo
stop
Contributor
Difficulty
advanced
WARNING: You are trying to view
                                    content from Ultimate-Guitar.com
                                    in an unauthorized application,
                                    which is prohibited.

                                    Please use an official Ultimate
                                    Guitar Tabs application for iPhone,
                                    iPad or Android to access legitimate
                                    chords, guitar, bass, and drum tabs
                                    from Ultimate-Guitar.com database.

                                    Type "ultimate guitar tabs" in Apple
                                    App Store's or Android Market's
                                    search to find the application.
Guns N' Roses - Greatest Hits Album

Year: 2004
Tracks: 14
Index:

+++++++++++++++++++++++++++++++++
+ 01. Welcome to the Jungle     +
+ 02. Sweet Child o' Mine       +
+ 03. Patience                  +
+ 04. Paradise City             +
+ 05. Knockin' on Heaven's Door +
+ 06. Civil War                 +
+ 07. You Could be Mine         +
+ 08. Don't Cry                 +
+ 09. November Rain             +
+ 10. Live and Let Die          +
+ 11. Yesterdays                +
+ 12. Ain't it Fun              +
+ 13. Since I Don't Have You    +
+ 14. Sympathy for the Devil    +
+++++++++++++++++++++++++++++++++

===========================================================================
===========================================================================
Duration Legend
---------------
W - whole; H - half; Q - quarter; E - 8th; S - 16th; T - 32nd; X - 64th; a - acciaccatura
+ - note tied to previous; . - note dotted; .. - note double dotted
Uncapitalized letters represent notes that are staccato (1/2 duration)
Irregular groupings are notated above the duration line
Duration letters will always appear directly above the note/fret number it represents the
duration for.  Duration letters with no fret number below them represent rests.  Multi-
bar rests are notated in the form Wxn, where n is the number of bars to rest for.  Low
melody durations appear below the staff

Tablature Legend
----------------
 h   - hammer-on
 p   - pull-off
 b   - bend
 pb  - pre-bend
 r   - bend release (if no number after the r, then release immediately)
 /\  - slide into or out of (from/to "nowhere")
 s   - legato slide
 S   - shift slide
 - natural harmonic
[n]  - artificial harmonic
n(n) - tapped harmonic
 ~   - vibrato
 tr  - trill
 T   - tap
 TP  - trem. picking
 PM  - palm muting
\n/  - tremolo bar dip; n = amount to dip
 \n  - tremolo bar down
 n/  - tremolo bar up
/n\  - tremolo bar inverted dip
 =   - hold bend; also acts as connecting device for hammers/pulls
 <> - volume swell (louder/softer)
 x   - on rhythm slash represents muted slash
 o   - on rhythm slash represents single note slash

Misc Legend
-----------
 |  - bar
||  - double bar
||o - repeat start
o|| - repeat end
*|  - double bar (ending)
 :  - bar (freetime)
 $  - Segno
 &  - Coda
Tempo markers -  = BPM(8/16=s8/s16), where s8 = swing 8ths, s16 = swing 16ths

===========================================================================
===========================================================================

1.Welcome to the Jungle

Intro. with echo/ Delay

eb||------------------------------------------|
Bb||------------------------------------------|
Gb||--4--4-4--2-4--2----4------4-------4------|
Db||-----------------4----4--2----2-0----2----|
Ab||---------------------------------------2--|
Eb||------------------------------------------|

------------------------------------------|
------------------------------------------|
--4--4-4--2-4--2----4------4-------4------|
-----------------4----4--2----2-0----2----|
---------------------------------------2--|
------------------------------------------|

------------------------------------------|
------------------------------------------|
--4--4-4--2-4--2----4------4-------4------|
-----------------4----4--2----2-0----2----|
---------------------------------------2--|
------------------------------------------|

------------------------------------------|
------------------------------------------|
--4--4-4--2-4--2----4------4-------4------|
-----------------4----4--2----2-0----2----|
---------------------------------------2--|
------------------------------------------|

------------------------------------------|
------------------------------------------|
--4--4-4--2-4--2----4------4-------4------|
-----------------4----4--2----2-0----2----|
---------------------------------------2--|
------------------------------------------|

------------------------------------------|
------------------------------------------|
--4--4-4--2-2--2--------------------------|
-----------------4--4-4--2-2--2-0--0------|
-------------------------------------2-0--|
------------------------------------------|

-------------------------------------------|
-------------------------------------------|
--4--4-4--2-2--2---------------------------|
-----------------4--4-4--2-2--2-0--0-------|
-------------------------------------2--0--|
-------------------------------------------|

------------------------------------------|--------------------------|
--0--0-0----------------------------------|--------------------------|
----------2-2--2--------------------------|--4--4--4--4--4--4--4--4--|
-----------------4--4-4--2-2--2-0--0------|--4--4--4--4--4--4--4--4--|
-------------------------------------2-0--|--2--2--2--2--2--2--2--2--|
------------------------------------------|--------------------------|

------------------------|--------------------------|
------------------------|--------------------------|
--4--4--4--4--4----4\---|--2-------2-2--0----------|
--4--4--4--4--4----4\---|--2-------2-2--0----------|
--2--2--2--2--2----2\---|--0-------0-0----------0--|
------------------------|-------3b--------3--2-----|

----------------------------|----------------------------|
----------------------------|----------------------------|
--2--x-x----2-2--0----------|--2--x-x----2-2--0----------|
--2--x-x----2-2--0----------|--2--x-x----2-2--0----------|
--0--x-x----0-0----------0--|--0--x-x----0-0----------0--|
---------3b--------3--2-----|---------3b--------3--2-----|


                              Welcome to the jungle
-----------x-5------------||---------------------------|
--------------------------||---------------------------|
--2-----x-----------------||---------------------------|
--2-----x-----------------||---------------------------|
--0--0--x----------3-0----||--0--0------0--0-----------|
-----------------------2--||--------3b-------3--2--0-0-|


  we got fun and games        We got everything you want
---------------------------|---------------------------|
---------------------------|---------------------------|
---------------------------|---------------------------|
---------------------------|---------------------------|
--0--0------0--0-----------|--0--0------0--0-----------|
--------3b-------3--2--0-0-|--------3b-------3--2--0-0-|


 honey we know the names we are the people that can find what
---------------------------|---------------------------|
---------------------------|---------------------------|
-----------------------7/9-|--9--9--7--x-9--9----------|
-----------------------7/9-|--9--9--7--x-9--9-7--6--4--|
--0--0------0--0----0--5/7-|--7--7--5--x-7--7-5--4--2--|
--------3b-------3---------|---------------------------|


  ever you may need           If you got the money honey
---------------------------|---------------------------|
---------------------------|---------------------------|
--9--9--7--x-9--9----------|--9--9--7--x-9--9----------|
--9--9--7--x-9--9-7--6--4--|--9--9--7--x-9--9-7--6--4--|
--7--7--5--x-7--7-5--4--2--|--7--7--5--x-7--7-5--4--2--|
---------------------------|---------------------------|

  we got your disease In the Welcome to the    jungle Want to bring you to your
                     jungle
---------------------------|----------------------|----------------------|
---------------------------|----------------------|----------------------|
--9--9--7--x-9--9----------|--5-------------------|--7-------------------|
--9--9--7--x-9--9-7--9-----|--5-------------------|--7-------------------|
--7--7--5--x-7--7-5--7--0--|--3----2--------------|--5----4--------------|
---------------------------|------------5----3----|------------7----5----|


  sha na na na na (11 na)      knees          knees
----------------------------|----------------------------|
----------------------------|----------------------------|
--9--9----------------------|----------------------------|
--9--9----------------------|----------------------------|
--7--7--5-------------------|--7--7--5-------------------|
-----------6-6~6\5-5--3--0--|-----------6-6-6\5-5--3--0--|


  Uh                ah         I wanna watch you bleed
----------------------------|------------------------|
----------------------------|------------------------|
----------------------------|------------------------|
----------------------------|------------------------|
--7--7--5-------------------|--7---5-----------------|
-----------6-6-6\5-5--3--0--|----------6----5--3--4--|

Welcome to the jungle we take it day by day
If you want it, you're gonna bleed,
but it's the price you pay.
And your a very sexy girl
who's very hard to please
You can taste the bright lights,
but you won't get there for free.
In the jungle, welcome to the jungle
Fell my, my, my,  my serpentine.
Uh ah I wanna hear you scream

        hear you scream       guitar solo 1
------------------------|-------------------------------|
------------------------|-------------------------------|
------------------------|----12/-13-----------13----13~-|
------------------------|----11/-12-----12-14-14----14~-|
--7---5-----------------|-------------------------------|
----------6----5--3--4--|------------0------------------|

--------------------------|----------------------------|
----12------------15~-----|------------------15----15~-|
----12--13--------16~-----|----12/-13--------13----13~-|
--------14----------------|----11/-12------------------|
--------------------------|----------------------------|
--------------------------|------------0--0------------|

------------------15--15-----|----------19b---------19--18--17b-|
---12-14--14\-----15--15-----|------17--------------------------|
------15--15\-------------6/-|--18------------------------------|
-----------------------------|----------------------------------|
-----------------------------|----------------------------------|
-----------------------------|----------------------------------|

--------15-16-------------|------------------------------------------|
--------------15~------15b|----15p-12--------------------------------|
--------------------------|------------14b-14r--12-14-12-------------|
--------------------------|------------------------------14-14-------|
--------------------------|------------------------------------13-13-|
--------------------------|------------------------------------------|

---------------------------|---------------------------|
---------------------------|---------------------------|
--------------8b-----------|---------------------------|
---------------------11\---|---------------------------|
--12r--10------------------|---------------------------|
----------12---------------|---------------------------|

Welcome to the jungle,
it's gets worse here every day
You learn to live like an animal,
in the jungle where we play
If you got a hunger for what you see
you'll take it eventually
You  can have anything you want,
but you better not take it from me
In the jungle, Welcome to the jungle
watch it bring you to your
sha na na na na na na na knees knees
Uh ah I'm gonna watch you bleed


|--------------------|
|--7-----------------|
|--7------------5----|
|--7------------3----|
|--5-----------------|
|--------------------|

--3--------3\--------|------------------------|----------------------------|
--3--------3\---6----|--7------8p-7-----------|--12------13--12---------8--|
--4--------4\---4----|--7------7--------------|--12-------------7-5--5-----|
--5--------5\--------|--7------7-----7--10----|--12------------------------|
--5--------5\--------|--5---------------8-----|--10------------------------|
--3--------3\--------|------------------------|----------------------------|


   And when you're high       you never                    ever want to come down
-------------------------|-------------------------------|---------------------|
--7----------------------|--12------13p-12--------10\-7--|--7------------------|
-----7-------------------|--12---------------------------|--7------------------|
--------7--6--7----10----|--12-------------12\10--10--7--|--7------------10----|
-------------------8-----|--10---------------------------|---------------8-----|
-------------------------|-------------------------------|---------------------|


                        so    down                          suck down
------------------------------|------------------------------|
--12--12--12--12--12----10----|--12--12--12--12--12----10----|
--12--12--12--12--12----10----|--12--12--12--12--12----10----|
--12--12--12--12--12----10----|--12--12--12--12--12----10----|
------------------------------|------------------------------|
------------------------------|------------------------------|


                          suck down
------------------------------|----------------------------------|
------------------------------|----------------------------------|
--12--12--12--12--12----10----|--14--14--14--14--14--14--14\-12--|
--12--12--12--12--12----10----|--14--14--14--14--14--14--14\-12--|
--10--10--10--10--10----8-----|--12--12--12--12--12--12--12\-10--|
------------------------------|----------------------------------|


 Yeah
--------------------------|---------------------------|
--------------------------|---------------------------|
-----6/-7--------9-----9--|--9--6/-7--------12~---12~-|
-----5/-6--------9-----9--|--9--5/-6--------12~---12~-|
--------------------------|---------------------------|
--0--------0--0-----0-----|-----------0--0------------|


                                                       guitar  solo2
--------------------------|---------------------------|----------------------|
--------------------------|---------------------------|----------------------|
-----6/-7--------9-----9--|--9--6/-7--------12~---12~-|----------------------|
-----5/-6--------9-----9--|--9--5/-6--------12~---12~-|----------------------|
--------------------------|---------------------------|-----------7-----9r---|
--0--------0--0-----0-----|-----------0--0------------|--9-----------9-------|

--------------------------|-----------------------|--------------------------|
--------------------------|-----------------------|----------------------12--|
--------------------------|----------9b-----11r---|----------11--9----9b-11r-|
----------------9--9b-11--|-------------11--------|----------------11--------|
--------7-9/11------------|-----------------------|--------------------------|
--------------------------|-----------------------|--------------------------|

------------------------|---------------------0--|------0----0----0----|
----------12------------|---------------5-----5--|------3----2----0----|
----------11---9--------|------------6-----6-----|---------------------|
-----------------11--9~-|--9\-----6--------------|---------------------|
------------------------|------------------------|---------------------|
------------------------|------------------------|---------------------|

------------------------|------------------------|-----------------------------|
--2r-----0-----0-----0--|----0--0--0--0----2--4--|---------------------15--15b-|
--2r-----0/-1--1--2/-4--|----4--2--2--1----2--4--|--------------4--------------|
------------------------|------------------4--4--|--2r--0-2--0--4--12----------|
------------------------|------------------------|-----------------------------|
------------------------|------------------------|-----------------------------|

------------------------|---------------------------------|
------15r---------------|------------------14\12----------|
------------14b---14r---|--14r-12----------------------6b-|
------------------------|---------14\12/14----12----------|
------------------------|---------------------------------|
------------------------|---------------------------------|

----------------------|---------------------|-------------------|
----------------------|---------------------|-------------------|
------4---------------|---------------------|-------------------|
---------6b-----4-----|---------------------|-------------------|
-------------------4r-|------2--------------|-------------------|
----------------------|---------4r-----0----|--2~---------------|


                                              slide up
------------------||-------------------|--------------------|
------------------||--4----------------|-------4/-----------|
------------------||--4----------------|-------4/-----------|
------------------||--4----------------|-------4/-----------|
------------------||--2----------------|--------------------|
------------------||-------------------|--------------------|

----------------------|----------------34--|--31\-----31--31\-30\-----|
------x---------------|--------------------|--------------------------|
------12--------------|--------------------|--------------------------|
------x---------------|--------------------|--------------------------|
------x---------------|--------------------|--------------------------|
----------------------|--------------------|--------------------------|

--28-----24---24\-------|--19\--------------||
------------------------|-------------------||
------------------------|-------------------||
------------------------|-------------------||
------------------------|-------------------||
------------------------|-------------------||

----------------------|-----------------------|
--7----6----7----3----|--5----3----5----6-----|
--6----5----6----4----|--6----4----6----7-----|
--4----3----4----5----|--7----5----7----8-----|
----------------------|-----------------------|
----------------------|--------------------0--|

1st 4 bars 3 times
In the jungle Welcome to the jungle
Watch it bring you to your
sha na na na na knees knees
In the jungle, welcome to the jungle
Feel my, my, my,  my serpentine.
etc..


2. Sweet Child o' Mine

Eb:|--------------15----14-----|--------------15----14-----|
Bb:|-----15--------------------|-----15--------------------|
Gb:|--------14-12----14----14--|--------14-12----14----14--|
Db:|--12-----------------------|--12-----------------------|
Ab:|---------------------------|---------------------------|
Eb:|---------------------------|---------------------------|

|--------------15----14-----|--------------15----14-----|
|-----15--------------------|-----15--------------------|
|--------14-12----------14--|--------14-12----------14--|
|--14-----------------------|--14-----------------------|
|---------------------------|---------------------------|
|---------------------------|---------------------------|

|--------------15----14-----|--------------15----14-----|
|-----15--------------------|-----15--------------------|
|--12----14-12----14----14--|--12----14-12----14----14--|
|---------------------------|---------------------------|
|---------------------------|---------------------------|

|--------------15----14-----|--------------15----14-----|
|-----15--------------------|-----15--------------------|
|--------14-12----14----14--|--------14-12----14----14--|
|--12-----------------------|--12-----------------------|
|---------------------------|---------------------------|
|---------------------------|---------------------------|

|--------------15----14-----|--------------15----14-----|
|-----15--------------------|-----15--------------------|
|--------14-12----------14--|--------14-12----------14--|
|--14-----------------------|--14-----------------------|
|---------------------------|---------------------------|
|---------------------------|---------------------------|

|--------------15----14-----|--------------15----14-----|
|-----15--------------------|-----15--------------------|
|--12----14-12----14----14--|--12----14-12----14----14--|
|---------------------------|---------------------------|
|---------------------------|---------------------------|
|---------------------------|---------------------------|

|--------------15----14-----|--------------15----14-----|
|-----15--------------------|-----15--------------------|
|--------14-12----14----14--|--------14-12----14----14--|
|--12-----------------------|--12-----------------------|
|---------------------------|---------------------------|
|---------------------------|---------------------------|

|--------------15----14-----|--------------15----14-------|
|-----15--------------------|-----15----------------------|
|--------14-12----14----14--|--------14-12----14----14----|
|--12-----------------------|--12-------------------------|
|---------------------------|-----------------------------|
|---------------------------|-----------------------------|

|--------------15----14-----|--------------15----14-------|
|-----15--------------------|-----15----------------------|
|--------14-12----------14--|--------14-12----------14----|
|--14-----------------------|--14-------------------------|
|---------------------------|-----------------------------|
|---------------------------|-----------------------------|

|--------------15----14-----|--------------15----14-------|
|-----15--------------------|-----15----------------------|
|--12----14-12----14----14--|--12----14-12----14----14----|
|---------------------------|-----------------------------|
|---------------------------|-----------------------------|
|---------------------------|-----------------------------|

|--12------------12----14---|--15----14----12---------------14---|
|---------15----------------|---------------------15--------15---|
|-----14------14----14---14-|-----14----14----14------14----14---|
|---------------------------|------------------------------------|
|---------------------------|------------------------------------|
|---------------------------|------------------------------------|
Verse 1:

|-10------------------------|---------8--------------------------|
|-10------------------------|---------8--------------------------|
|-11------------------------|---------9--------------------------|
|-12------------------------|---------10-------------------------|
|---------------------------|------------------------------------|
|---------------------------|------------------------------------|

1-She`s got a smile that it seems to me reminds me of child hood


|--10p8------------------|--3-------------|-3-------3------------|
|-----------8-------(8)/-|--3-------------|----3-----------3-----|
|------------------------|--0-------------|-------0------------0-|
|------------------------|--5-------------|----------------------|
|------------------------|----------------|----------------------|
|------------------------|----------------|----------------------|

       memories,    where everything was as fresh as the bright blue sky.

|--2-------2----------3p2---|---------------0----------------2---|
|--3-------3----------3-----|-------3---------------3------------|
|--2-------2----------2-----|-----------2----------------2-------|
|--0-------0----------0-----|--0---------------------------------|
|---------------------------|------------------------------------|
|---------------------------|------------------------------------|

                               Now and then___        when I

|-----------2--3--3--2--0---|-------------------0----------------|
|---3----------------------3|-----------3----------3----3--------|
|------2--------------------|------0-------0---------------0----0|
|---------0-----------------|--------2--------2------------------|
|---------------------------|---3---------------------3-------3--|
|---------------------------|------------------------------------|

   see her face she takes me away to that special place, and if I


|----------------------0----------0------------------3--------2--|
|---------3------3-------3---3------3-----3-----3----3--3-----3--|
|--------------0---0-------0----------0-----2-----2--2----2---2--|
|-----0-----0---------------------------0-----0---------------0--|
|----------------------------------------------------------------|
|-3--------------------------------------------------------------|

Stared too long I`ll  probably break down and cry__________________


Chorus:
|---------------------------|--------------12----10-----|
|-----14-------15----14-----|-----13--------------------|
|--------14-------14----14--|--------12-10----12----12--|
|-----------14--------------|--10-----------------------|
|---11----------------------|---------------------------|
|---------------------------|---------------------------|
|                           |                           |
|---------------------------|---------------------------|
|---------------------------|---------------------------|
|---2------2-------2--4-----|--5-------5----------------|
|---2------2-------2--4-----|--5-------5----------------|
|---0------0-------0--2-----|--3-------3----------------|
|---------------------------|---------------------------|

  Whoa                  Whoa    Whoa____, sweet child  o`mine

|--------------15----14-----|--------------15---14-----|
|-----15--------------------|-----15-------------------|
|--------14-12----14----14--|--------14-12---14----14--|
|--12-----------------------|--12----------------------|
|---------------------------|--------------------------|
|---------------------------|--------------------------|
|                           |                          |
|-2----------------------2--|-3---2---0---2------------|
|-3----------------------3--|-3---3---3---2------------|
|-2----------------------2--|-2---2---2---3------------|
|-0----------------------0--|-0---0---0---0------------|
|---------------------------|--------------------------|
|---------------------------|--------------------------|


|---------------------------|--------------12----10----|
|-----14-------15----14-----|-----13-------------------|
|--------14-------14----14--|--------12-10----12----12-|
|-----------14--------------|---10---------------------|
|---11----------------------|--------------------------|
|---------------------------|--------------------------|
|                           |                          |
|-2----------------------2--|-3---2---0---2------------|
|-3----------------------3--|-3---3---3---2------------|
|-2----------------------2--|-2---2---2---3------------|
|-0----------------------0--|-0---0---0---0------------|
|---------------------------|--------------------------|
|---------------------------|--------------------------|

  Whoa        oh  oh       sweet love of  mine


|---------------------------|---------------------------|
|--------15-----------------|---------------------------|
|--12s14--------------------|---------------------------|
|---------------------------|---------------------------|
|---------------------------|---------------------------|
|---------------------------|---------------------------|
|                           |                           |
|-2----------------------2--|-3---2---0---2-------------|
|-3----------------------3--|-3---3---3---2-------------|
|-2----------------------2--|-2---2---2---3-------------|
|-0----------------------0--|-0---0---0---0-------------|
|---------------------------|---------------------------|
|---------------------------|---------------------------|

FILL1:

|---------------------------------------------------------------|
|---10---8--7-----10--8--7----10---8------10---8-----10-\-8-----|
|-------------------------------------9------------9------------|
|---------------------------------------------------------------|
|---------------------------------------------------------------|
|---------------------------------------------------------------|

|------------------10--10^--(10)---------------|
|-10-^-(10)8--10-^--------------full-----------|
|--------------------------------9-^-----------|
|----------------------------------------------|
|----------------------------------------------|
|----------------------------------------------|

Verse 2:

|-10------------------------|---------8--------------------------|
|-10------------------------|---------8--------------------------|
|-11------------------------|---------9--------------------------|
|-12------------------------|---------10-------------------------|
|---------------------------|------------------------------------|
|---------------------------|------------------------------------|

2- She`s got eyes of the bluest skies, as if they thought of rain___


|--10p8------------------|--3-------------|-3-------3------------|
|-----------8-------(8)/-|--3-------------|----3-----------3-----|
|------------------------|--0-------------|-------0------------0-|
|------------------------|--5-------------|----------------------|
|------------------------|----------------|----------------------|
|------------------------|----------------|----------------------|

_________________________I`d hate to look into those eyes    and


|--2-------2----------3p2---|---------------0----------------2---|
|--3-------3----------3-----|-------3---------------3------------|
|--2-------2----------2-----|-----------2----------------2-------|
|--0-------0----------0-----|--0---------------------------------|
|---------------------------|------------------------------------|
|---------------------------|------------------------------------|

  See an ounce of pain        Her hair reminds    me   of     a ____


|-----------2--3--3--2--0---|-------------------0----------------|
|---3----------------------3|-----------3----------3----3--------|
|------2--------------------|------0-------0---------------0----0|
|---------0-----------------|--------2--------2------------------|
|---------------------------|---3---------------------3-------3--|
|---------------------------|------------------------------------|

   Warm   safe  place  whre as a child I`d hide,________________and_


|----------------------0----------0------------------3--------2--|
|---------3------3-------3---3------3-----3-----3----3--3-----3--|
|--------------0---0-------0----------0-----2-----2--2----2---2--|
|-----0-----0---------------------------0-----0---------------0--|
|----------------------------------------------------------------|
|-3--------------------------------------------------------------|

Pray__for the thunder  and the rain to quietly pass me by___________


Chorus:

|---------------------------|--------------12----10-----|
|-----14-------15----14-----|-----13--------------------|
|--------14-------14----14--|--------12-10----12----12--|
|-----------14--------------|--10-----------------------|
|---11----------------------|---------------------------|
|---------------------------|---------------------------|
|                           |                           |
|---------------------------|---------------------------|
|---------------------------|---------------------------|
|---2------2-------2--4-----|--5-------5----------------|
|---2------2-------2--4-----|--5-------5----------------|
|---0------0-------0--2-----|--3-------3----------------|
|---------------------------|---------------------------|

  Whoa                  Whoa    Whoa____, sweet child  o`mine

|--------------15----14-----|--------------15---14-----|
|-----15--------------------|-----15-------------------|
|--------14-12----14----14--|--------14-12---14----14--|
|--12-----------------------|--12----------------------|
|---------------------------|--------------------------|
|---------------------------|--------------------------|
|                           |                          |
|-2----------------------2--|-3---2---0---2------------|
|-3----------------------3--|-3---3---3---2------------|
|-2----------------------2--|-2---2---2---3------------|
|-0----------------------0--|-0---0---0---0------------|
|---------------------------|--------------------------|
|---------------------------|--------------------------|

|---------------------------|--------------12----10----|
|-----14-------15----14-----|-----13-------------------|
|--------14-------14----14--|--------12-10----12----12-|
|-----------14--------------|---10---------------------|
|---11----------------------|--------------------------|
|---------------------------|--------------------------|
|                           |                          |
|-2----------------------2--|-3---2---0---2------------|
|-3----------------------3--|-3---3---3---2------------|
|-2----------------------2--|-2---2---2---3------------|
|-0----------------------0--|-0---0---0---0------------|
|---------------------------|--------------------------|
|---------------------------|--------------------------|

  Whoa        oh  oh       sweet love of  mine


|---------------------------|---------------------------|
|--------15-----------------|---------------------------|
|--12s14--------------------|---------------------------|
|---------------------------|---------------------------|
|---------------------------|---------------------------|
|---------------------------|---------------------------|
|                           |                           |
|-2----------------------2--|-3---2---0---2-------------|
|-3----------------------3--|-3---3---3---2-------------|
|-2----------------------2--|-2---2---2---3-------------|
|-0----------------------0--|-0---0---0---0-------------|
|---------------------------|---------------------------|
|---------------------------|---------------------------|


  FILL 2:
|-------------------------------------------------------------|
|---10---8--7-----10--8--7----10---8------10---8-----10-\-8---|
|-------------------------------------9------------9----------|
|-------------------------------------------------------------|
|-------------------------------------------------------------|
|-------------------------------------------------------------|

|--------------------------------10--------------------|
|-10-\-8-7hb--(7)----7-^------------(7)-----10----8--7-|
|------------------7-----------------------------------|
|------------------------------------------------------|
|------------------------------------------------------|
|------------------------------------------------------|

|------------------------10----10-\-8-------/12--------|
|-10---8----7-----/10-^--------------------------------|
|------------------------------------------------------|
|------------------------------------------------------|
|------------------------------------------------------|
|------------------------------------------------------|


|--12---12-\-10---10-(10)\-8---7-^--(7)----------------|
|-----------------------------------------8------------|
|---------------------------------------------7-~~~~~~~|
|------------------------------------------------------|
|------------------------------------------------------|
|------------------------------------------------------|

|-----------------------10---10-^--(10)-------------17----(17)|
|-10-^--(10)p8---10-^-------------------17-^---(17)-------(17)|
|-------------------------------------------------------------|
|-------------------------------------------------------------|
|-------------------------------------------------------------|
|-------------------------------------------------------------|

THIS IS FILL 3:
CHORUS:A5 C5 D5(FILL 3)
       A5 C5 D5
       A5 C5 D5(FILL 3)

       A5 C5 D5 D5 D5 D5
|-----------------------------|
|--7hb------------------------|
|------7----------------------|
|--------7--5-/-4---0---------|
|----------------------3^-----|
|-----------------------------|

 SOLO:

|-17^--hold----15--14--h15p14-----------15--14--h15p14-----------12--14-|
|-----------------------------17-----------------------17-16------------|
|-----------------------------------------------------------------------|
|-----------------------------------------------------------------------|
|-----------------------------------------------------------------------|
|-----------------------------------------------------------------------|

|-----------------------------------------------------------------------|
|--15^--12----------------------------------------13-12-------h13p12\10-|
|----------14^--12--11h12----------------11-12-14-----------------------|
|-----------------------------14-----14---------------------------------|
|-----------------------------------------------------------------------|
|-----------------------------------------------------------------------|

|---------------------------------------------15^-----------------------|
|--13^-----13-----12--12-(12)-------12^----------------7^^--------------|
|-----------------------------------------14-----------------9--9-------|
|-----------------------------------------------------------------------|
|-----------------------------------------------------------------------|
|-----------------------------------------------------------------------|

|-----------------------------------------------------------------------|
|-----7^----------------------------------------------------------------|
|----------9--9-----8^----8/11---------11^---9-----------------9--------|
|-----------------------------------------------9^---7---9--------------|
|-----------------------------------------------------------------------|
|-----------------------------------------------------------------------|

|-----------------------------------------------------------------------|
|--------7h8--p7---------------------------------------------7^---7-10^-|
|----------------------9------8^-----8------/11-----9^--8-9-----9-------|
|-----------------------------------------------------------------------|
|-----------------------------------------------------------------------|
|-----------------------------------------------------------------------|

|-7-8p7-11p7-8-11-12/14-11-12--14/15-12-14-15p14-12----14p11-12h14p12---|
|---------------------------------------------------15----------------15|
|-----------------------------------------------------------------------|
|-----------------------------------------------------------------------|
|-----------------------------------------------------------------------|
|-----------------------------------------------------------------------|

Wah-wah from now on:

|-17--------------------------------------------------------------------|
|----15^---15^---15^---15^---15^-p12-----15^----15^--------15^-p12------|
|------------------------------------14----------------------------14---|
|-----------------------------------------------------------------------|
|-----------------------------------------------------------------------|
|-----------------------------------------------------------------------|

|----------------------------------15-----------------------------------|
|--17^---17^--------17^----17^----------17^---------17^-p15--15h17------|
|-------------------17^-------------------------------------------------|
|-----------------------------------------------------------------------|
|-----------------------------------------------------------------------|
|-----------------------------------------------------------------------|

|-----------12----------------------------------------------------------|
|-15^------------15---12------------------------------------------------|
|---------------------------14^-p12-14---12-14----12--14^----12--14--12-|
|-----------------------------------------------------------------------|
|-----------------------------------------------------------------------|
|-----------------------------------------------------------------------|

|----15-------------15-----15-----15------------------------------------|
|----15-------15----15-----15-------15----------------------------------|
|-14^--14--12-14^-----14^----14^------14^-p12----14p12--x-x----12^------|
|---------------------------------------------14--------x-x-------------|
|-----------------------------------------------------------------------|
|-----------------------------------------------------------------------|

|-----------------------------------------------------------------------|
|-----------------------------------------------------------------------|
|-----------------12h14p12----12^--------------------12h14p12-----12-12-|
|-14p12-14----x-x----------14--------14p12-14----x-x----------14--------|
|-----------------------------------------------------------------------|
|-----------------------------------------------------------------------|

|----------------------------------------------12-12-------15-15p12--15-|
|-------------------12-12-------15-15p12-------------15p12--------------|
|-------14-14p12-14-------14p12-----------------------------------------|
|-14p12-----------------------------------------------------------------|
|-----------------------------------------------------------------------|
|-----------------------------------------------------------------------|

|-14----12h15p12---------12-----------12-----------12-----------12------|
|----15----------15--15^----15p12--------15p12-15^----15p12--------15p12|
|----------------------------------14^-----------------------14^--------|
|-----------------------------------------------------------------------|
|-----------------------------------------------------------------------|
|-----------------------------------------------------------------------|

|------12-----------12-----------12--------------12-------15^-----------|
|--15^----15p12--------15p12-15^----15p12-----12----15p12---------------|
|---------------14^-----------------------14^---------------------------|
|-----------------------------------------------------------------------|
|-----------------------------------------------------------------------|
|-----------------------------------------------------------------------|

|--------------------15------12h15p12----12------12---------------------|
|-------------------------------------15-----15^-----15p12--------------|
|-----------------------------------------------------------14^-p12-14^-|
|-----------------------------------------------------------------------|
|-----------------------------------------------------------------------|
|-----------------------------------------------------------------------|

|---------------------------------------------------|
|-------15------------------------------------------|
|----------14^-p12-14^----14p12--------------12-----|
|----------------------14-------14------------------|
|---------------------------------------------------|
|---------------------------------------------------|

Following vocals ad lib over E  F#  G  A  B  C  D  G chord sequence
Where do we go?_____ Where do we go_____now?
Where do we go?_____ Where do we go?______
Where do we go____now?_____ Where do we go?______
Where do we go?_____  CHILD !
Where do we go____now? Where do we go______now,
Now?_________________Where do  we go?

ENDING :
|--------------------------------------------------------------------|
|-----------------------------------------------------------------9--|
|---------------------------------------------------------------9----|
|--14-/-9----9/5---------------------------------------------9-------|
|---------------------10-/-7-/-2---------------------------7---------|
|-------------------------------------5-/-3hb---3-/-0----------------|

3. Patience

C---------------|----------------|G---------------|----------------|
                |                |                |                |
------0---0-----|----------------|----------------|----------------|
------1---1-1-1-|3p1-1-0h1-1-1p0-|------0---------|1p0-------------|
----0-------0-0-|0---0-0---0-0---|----0-----0-----|----0-2p0---0h2-|
2-2---------2-2-|2---2-2---2-2---|--0---------0---|----------0-0h2-|
3-----------3-3-|3---3-3---3-3---|2-------------2-|----------------|
----------------|----------------|----------------|----------------|

Av--------------|----------------|D---------------|----------------|
                |                |                |                |
----------------|----------------|2---2---2-2-----|3p2-2-0---2-----|
----2---------0-|3p2---0h2-2-----|3-3---3-----3-3-|3---3-3---3-----|
------2---2-----|----2-0h2-2-2-0-|2-------------2-|2---2-2---2-----|
--------2---2---|----2-------2-0-|0-------------0-|0---0-0---0-----|
0---------------|----------------|----------------|------------0-2-|
----------------|----------------|----------------|----------------|
                |                |                |                |
----------------|----------------|----------------|----------------|
----------------|----------------|----------------|----------------|
----------------|----------------|----------------|------------7---|
----------------|----------------|----------------|----------------|
----------------|----------------|----------------|----------------|
----------------|----------------|----------------|----------------|

C---------------|----------------|G---------------|----------------|
                |                |                |                |
------0---0-----|----------------|----------------|----------------|
------1---1-1-1-|3p1-1-0h1-1-1p0-|------0---------|1p0-------------|
----0-------0-0-|0---0-0---0-0---|----0-----0-----|----0-2p0---0h2-|
2-2---------2-2-|2---2-2---2-2---|--0---------0---|----------0-0h2-|
3-----------3-3-|3---3-3---3-3---|2-------------2-|----------------|
----------------|----------------|----------------|----------------|
                |                |                |                |
----------------|----10----------|--7-8-9-10------|----------------|
8-------------8-|1012--10--8-108-|10^-------10^-8-|------------10--|
----------------|------**--------|----------------|--------------9-|
----------------|----------------|----------------|----------------|
----------------|----------------|----------------|----------------|
----------------|----------------|----------------|----------------|


Av--------------|----------------|D---------------|----------------|
                |                |                |                |
----------------|----------------|2---2---2-2-----|3p2-2-0---2-----|
----2---------0-|3p2---0h2-2-----|3-3---3-----3-3-|3---3-3---3-----|
------2---2-----|----2-0h2-2-2-0-|2-------------2-|2---2-2---2-----|
--------2---2---|----2-------2-0-|0-------------0-|0---0-0---0-----|
0---------------|----------------|----------------|------------0-2-|
----------------|----------------|----------------|----------------|
                |                |                |                |
------------7s8s|9---------------|--10----8-----7-|----7s5---------|
10--------------|----------------|----------------|8---------------|
------------7s8s|9---------------|11----9-----7---|--7--s5---------|
----------------|----------------|----------------|----------------|
----------------|----------------|----------------|----------------|
----------------|----------------|----------------|----------------|

C---/---/-/-/-G6|G-/-/-/-/-/-/-/-|C---/-/-/-/-/-G6|Em--/-/-/-/-/-G6|
                |                |                |                |
------0---------|----------------|----------------|----------------|
----1---3p1-----|----------------|------1---------|----------------|
--0-----------0-|------0---------|----0---0-------|------0---------|
2-----------2---|----0-----0-----|--2-------2-----|----2-----------|
3---------------|--2---------2---|3---------------|--2-------------|
----------------|3-------------3-|------------3-2-|0---------------|


C---/-/-/-/-/-G6|G---/-/-/-/-/-G6|D---------------|----------------|
                |                |                |                |
----------------|----------------|------2---------|----------------|
------1---------|--------0-------|3---------------|----------------|
----0---0-------|------0---0-----|2---------------|----------------|
--2-------2-----|----0-------0---|0---------------|----------------|
3-----------3-2-|2-2-------------|----------------|----------------|
----------------|3---------------|----------------|----------------|


    Shed a tear...
----------------|----------------|----------------|----------------|
------1---1-1-1-|3p1---0---1-----|----------------|----------------|
----0-----0-0-0-|0-----------0---|----------------|--------0-----0-|
--2-------2-2-2-|2---------------|----------------|----0-----0-2-0-|
3---------3-3-3-|3---3---------3-|2-------2-0-----|----2-0---------|
----------------|----------------|----------------|3---------------|
                |                |                |                |
----------------|----------------|----------------|----------------|
------1---------|3-1---1---------|----------------|----------------|
----0-----------|----0---0-------|------0---------|------0---------|
--2-------------|----------2-----|----0-----------|----0---0-----0-|
3---------------|------------3-0-|2---------0-----|--2-------2-----|
----------------|----------------|--------------3-|3-----------3---|

--------5-------|----------------|----------------|----------------|
------2---------|3p2---0---2-----|----------------|----------------|
----2-----------|----------------|----------------|--2---2-4-2-----|
2---------------|----2-----------|0-------------0s|4-----------4---|
0---------------|----------0-3-4-|----------------|--------------0-|
----------------|----------------|----------------|----------------|
                |                |                |                |
------5---------|5-----5---------|------0-2-------|3-2-----0-2-----|
----5---5-------|5-------5-------|----3-----------|----------------|
--6-------------|7---------------|----------------|----------------|
7-----------7---|----------------|0-------------0-|----------------|
----------------|----------0-3-4-|----------------|----------------|
----------------|----------------|----------------|----------------|


    Was a time...
----------------|----------------|----------------|----------------|
------1---1-1-1-|3p1---0---1-----|----------------|----------------|
----0-----0-0-0-|0-----------0---|----------------|--------0-----0-|
--2-------2-2-2-|2---------------|----------------|----0-----0-2-0-|
3---------3-3-3-|3---3---------3-|2-------2-0-----|----2-0---------|
----------------|----------------|----------------|3---------------|
                |                |                |                |
----------------|----------------|----------------|----------------|
------1---------|3-1---1---------|----------------|----------------|
----0-----------|----0---0-------|------0---------|------0---------|
--2-------------|----------2-----|----0-----------|----0---0-----0-|
3---------------|------------3-0-|2---------0-----|--2-------2-----|
----------------|----------------|--------------3-|3-----------3---|


--------5-------|----------------|------0-2-------|3-2---0-0-2-----|
------2---------|3p2---0---2-----|----3-----3-----|------3-3-3---0-|
----2-----------|----------------|------------2---|--------2-2-2---|
2---------------|----2-----------|0-------------0-|----------------|
0---------------|----------0-3-4-|----------------|----------------|
----------------|----------------|----------------|----------------|
                |                |                |                |
------5---------|5-----5---------|----2---2-------|----------------|
----5---5-------|5-------5-------|------3---3-----|3-----3---3-3-0-|
--6-------------|7---------------|------------2-0-|----------2-2-0-|
7-----------7---|----------------|0---------------|----------0-0-0-|
----------------|----------0-3-4-|----------------|----------------|
----------------|----------------|----------------|----------------|

CHORUS
    Said woman, take it slow...
C9--/---/-/-/-G6|G---/---/-/-/-G6|C---/-/-/-/-/-G6|Em--/---/-/-/-G6|
                |                |                |                |
----------------|--------3-------|----------------|------0---------|
1-------1-------|3-3-0-0---3---0-|----1-----------|----0---0-------|
0-------0-------|0-----------0---|0---0-----------|----------0---0-|
2-------2-------|0---------------|2---2-----------|--2---------2---|
3-------3-------|2---------------|3---3-----------|----------------|
----------------|3---------------|------------3-2-|0---------------|


C---/---/-/-/-G6|G---/---/-/-/-/-| Same as tabbed | guitar---------|
                |                |                |                |
------0---------|----------------|2---2---0-2---3-|--2---0---2-----|
------1---1-1-0-|--------------0-|3---3(3)3-3---3-|3-3-3-3-3-3-3-0-|
--0---0---0-0-0-|0-----0-------0-|2---2(2)2-2---2-|2-2-2-2-2-2-2-0-|
2---2-----2-2-0-|0---0-----0---0-|0---0(0)0-0---0-|0-0-0-0-0-0-0-0-|
3---3-----3-3---|2-----------2---|----------------|----------------|
----------------|3---------------|----------------|----------------|

C9--/---/-/-/-G6|G---/---/-/-/-G6|C---/-/-/-/-/-G6|Em--/---/-/-/-G6|
                |                |                |                |
----------------|--------3-------|----------------|------0---------|
1-------1-------|3-3-0-0---3---0-|----1-----------|----0---0-------|
0-------0-------|0-----------0---|0---0-----------|----------0---0-|
2-------2-------|0---------------|2---2-----------|--2---------2---|
3-------3-------|2---------------|3---3-----------|----------------|
----------------|3---------------|------------3-2-|0---------------|

                                  Figure 1            (end Figure 1)
C---/---/-/-/-G6|G---/---/-/-/-/-|D---------------|--------------//|
                |                |                |                |
------0---------|----------------|2---2---0-2---3-|--2---0---2---22|
------1---1-1-0-|--------------0-|3---3(3)3-3-3-3-|3-3-3-3-3-3-3-33|
--0---0---0-0-0-|0-----0-------0-|2---2(2)2-2-2-2-|2-2-2-2-2-2-2-22|
2---2-----2-2-0-|0---0-----0---0-|0---0(0)0-0-0-0-|0-0-0-0-0-0-0-00|
3---3-----3-3---|2-----------2---|----------------|----------------|
----------------|3---------------|----------------|----------------|


2---------------|----------------|----10----------|----------------|
3---------------|--------------5s|10--------------|----------------|
2---------------|--------------6s|11--------------|--------------7s|
0---------------|--------------7s|12--------------|----------------|
----------------|----------------|----------------|----------------|
----------------|----------------|----------------|----------------|
                |                |                |                |
2---2---0-2---3-|--2---0---2---22|2---2---0-2---3-|--2---0---2---22|
3---3(3)3-3-3-3-|3-3-3-3-3-3-3-33|3---3(3)3-3-3-3-|3-3-3-3-3-3-3-33|
2---2(2)2-2-2-2-|2-2-2-2-2-2-2-22|2---2(2)2-2-2-2-|2-2-2-2-2-2-2-22|
0---0(0)0-0-0-0-|0-0-0-0-0-0-0-00|0---0(0)0-0-0-0-|0-0-0-0-0-0-0-00|
----------------|----------------|----------------|----------------|
----------------|----------------|----------------|----------------|


______________________
| 1.
----14--------14|----14--14--14\-|
----------------|--14--14--14----|
14--------14----|----------------|
----------------|----------------|
----------------|----------------|
----------------|----------------|
                |                | Go back to play Verse 2.
2---2---0-2---3-|--2---0---2-----|
3---3(3)3-3-3-3-|3-3-3-3-3-3-----|
2---2(2)2-2-2-2-|2-2-2-2-2-2-----|
0---0(0)0-0-0-0-|0-0-0-0-0-0-----|
----------------|------------0-2-|
----------------|----------------|


______________________
| 2.
----14--------14|------------8p7-|8-------8s108---|------------8p7-|
----------------|----------------|--------------12|--------8-------|
14--------14----|----------------|--------------**|----------------|
----------------|----------------|----------------|----------------|
----------------|----------------|----------------|----------------|
----------------|----------------|----------------|----------------|
                |                |                |                |
2---2---0-2---3-|--2-----------00|----------------|----------------|
3---3(3)3-3-3-3-|3-3-3-0-0-3-3-11|----------------|----------------|
2---2(2)2-2-2-2-|2-2-2-0-0-2-2-00|With chorus backing chords-------|
0---0(0)0-0-0-0-|0-0-0-0-0-0-0-22|----------------|----------------|
----------------|--------------33|----------------|----------------|
----------------|----------------|----------------|----------------|

8-------8s10--12|------------8p7-|8-------8s108---|--------------12|
------------12**|----------------|--------------12|--108---8---8-**|
----------------|----------------|--------------**|----------------|
----------------|----------------|----------------|----------------|
----------------|----------------|----------------|----------------|
----------------|----------------|----------------|----------------|
                |                |                |                |
----------------|----------------|----------------|----------------|
----------------|----------------|----------------|----------------|
----------------|----------------|----------------|----------------|
----------------|----------------|----------------|----------------|
----------------|----------------|----------------|----------------|
----------------|----------------|----------------|----------------|

                       h
--1010--------14|--12101210------|----------------|----------------|
--------------**|----------------|----5-8---------|----------------|
----------------|----------------|7^------7^r-5---|----4-7---------|
----------------|----------------|----------------|7^------7^r-5---|
----------------|----------------|----------------|----------------|
----------------|----------------|----------------|----------------|
                |                |                |                |
----------------|----------------|----------------|----------------|
----------------|----------------|----------------|----------------|
With Figure 1---|----------------|With chorus backing chords-------|
----------------|----------------|----------------|----------------|
----------------|----------------|----------------|----------------|
----------------|----------------|----------------|----------------|

----------------|----------------|----------------|----------------|
----5-8---------|--8-10^8----8-10|10^-r-8-10--8-10^--8-10--8-108-12|
7^------7^r-5-7s|9-------9-------|----------9-----|------9-------**|
----------------|----------------|----------------|----------------|
----------------|----------------|----------------|----------------|
----------------|----------------|----------------|----------------|
                |                |                |                |
----------------|----------------|----------------|----------------|
----------------|----------------|----------------|----------------|
----------------|----------------|----------------|----------------|
----------------|----------------|----------------|----------------|
----------------|----------------|----------------|----------------|
----------------|----------------|----------------|----------------|

----------------|----------------|----------------|----------------|
--1010----------|----------------|5---3-------4p2-|----2---------7^|
----------------|----------------|**--------------|3h4---0---------|
----------------|----------------|----------------|----------------|
----------------|----------------|----------------|----------------|
----------------|----------------|----------------|----------------|
                |                |                |                |
----------------|----------------|----------------|----------------|
----------------|----------------|----------------|----------------|
With Figure 1 (3 times)----------|----------------|----------------|
----------------|----------------|----------------|----------------|
----------------|----------------|----------------|----------------|
----------------|----------------|----------------|----------------|

----------------|----------------|----------------|----------------|
----7-----------|-------***----7^|--7-----5-7---3-|----------3-----|
----------------|4p2-----5-------|----------------|--2---0---2-----|
----------------|----3h4-0-------|----------------|------0---0-----|
----------------|----------------|----------------|----------------|
----------------|----------------|----------------|----------------|
                |                |                |                |
----------------|----------------|2---2---0-2---3-|3-2---0---------|
----------------|----------------|3---3(3)3-3-3-3-|3-3---3---3-----|
----------------|----------------|2---2(2)2-2-2-2-|2-2---2---2-----|
----------------|----------------|0---0(0)0-0-0-0-|0-0---0---0-----|
----------------|----------------|----------------|----------------|
----------------|----------------|----------------|----------------|


For the last part of the song use the following figures:

2---2---2---2-2-|-------3-33-3333|
3---3---3---3-30|3-333-33-33-3333|
2---2---2---2-20|0-000-00-00-0000|                 Figure 2
0---0---0---0-00|0-000-00-00-0000|
0--------------0|2---2-22-22-2222|
----2-0-2---2-20|3---3-33-33-3333|

F6//////////////|G-///-///////-/-|D---------------|Figure 3


Play figure 2 10 times, then on the second "I need you" play figure 3.
The song ends as follows:


3p2-------------|2---------------|
----3-----------|3---------------|
------2---------|2---------------|
--------5p4-0---|0---------------|
----------------|----------------|
----------------|----------------|

4. Paradise City

Riff A:(Slash)
eb|----------3---------------3---------|----------3-----3---------3---------|
Bb|------------0---3-----------3---3---|--0h1-------1---------------1---1---|
Gb|--0-----------0---------------0-----|--0-----------0-----0---------0-----|
Db|--0---------------------------------|--0h2-------------------------------|
Ab|--2---------------------------------|------------------------------------|
Eb|--3---------------------------------|------------------------------------|

eb|----------3---------------3---------|----------3-----3-------------------|
Bb|------------1---1-----------1---1---|------------1-----------------------|
Gb|--0h2---------2---0-----------0-----|--0-----------0-------2h4-2h4-2-0---|
Db|--0h3-------------0h2---------------|--0---------------------------------|
Ab|------------------0h3---------------|--2---------------------------------|
Eb|------------------------------------|--3---------------------------------|

Riff B:(Slash+Izzy)
eb|--3---------------------------------|------------------------------------|
Bb|--3------------------------------V--|---------------------------------V--|
Gb|--4----------------------------4-4--|--5----------------------------5-5--|
Db|--5----------------------------5-5--|--5----------------------------5-5--|
Ab|--5----------------------------5-5--|--3----------------------------3-3--|
Eb|--3----------------------------3-3--|--3----------------------------3-3--|

eb|------------------------------------|------------------------------------|
Bb|--------------V------------------V--|---------------------------------V--|
Gb|--2---------2-2-5--------------5-5--|--4----------------------------4-4--|
Db|--3---------3-3-5--------------5-5--|--5----------------------------5-5--|
Ab|--3---------3-3-3--------------3-3--|--5----------------------------5-5--|
Eb|--1---------1-1-3--------------3-3--|--3----------------------------3-3--|

eb|--3---------------------------------|------------------------------------|
Bb|--3------------------------------V--|---------------------------------V--|
Gb|--4----------------------------4-4--|--5---------------------------------|
Db|--5----------------------------5-5--|--5----------------------------1010-|
Ab|--5----------------------------5-5--|--3----------------------------1010-|
Eb|--3----------------------------3-3--|--3----------------------------8-8--|

eb|------------------------------------|------------------------------------|
Bb|--------------V------------------V--|---------------------------------V--|
Gb|--10--------1010--------------------|--7----------------------------4-4--|
Db|--10--------101010-------------1010-|--5----------------------------5-5--|
Ab|--8---------8-8-10-------------1010-|--5----------------------------5-5--|
Eb|--8---------8-8-8--------------8-8--|--7----------------------------3-3--|


Riff C:(Slash+Izzy)
Play Riff B
eb|------------------------------------------|---------------------------------------|
Bb|--------------------15--------------------|-----------------15--------------------|
Gb|--------12-12----------14b16-14b16r14p12--|--------12-12-------14b16-14b16r14p12--|
Db|--13s14-------14p12-----------------------|--12s14-------12-----------------------|
Ab|------------------------------------------|---------------------------------------|
Eb|------------------------------------------|---------------------------------------|

eb|---------------------------------------|-------------------------------------|
Bb|--13b15---13b15---13-------------------|-------------------------------------|
Gb|-----------------------12h14p12----14--|--b16~~~~~~~~~~~~~~~~----------------|
Db|--------------------------------15-----|-------------------------------------|
Ab|---------------------------------------|-------------------------------------|
Eb|---------------------------------------|-------------------------------------|

eb|------------------------------------------|---------------------------------------|
Bb|--------------------15--------------------|-----------------15--------------------|
Gb|--------12-12----------14b16-14b16r14p12--|--------12-12-------14b16-14b16r14p12--|
Db|--13s14-------14p12-----------------------|--12s14-------12-----------------------|
Ab|------------------------------------------|---------------------------------------|
Eb|------------------------------------------|---------------------------------------|

eb|---------------------------------------|-------------------------------------|
Bb|--13b15---13b15---13b15r13-13---12b13--|--12b13r12b13r12b13r12b13-12~~~~~~~--|
Gb|---------------------------------------|-------------------------------------|
Db|---------------------------------------|-------------------------------------|
Ab|---------------------------------------|-------------------------------------|
Eb|---------------------------------------|-------------------------------------|


Riff D:(Slash+Izzy)
eb|----------------------------------|
Bb|----------------------------------|
Gb|----------------------------3-----|
Db|--5---3-4-5---3-4-5--`5--`5-3-----|
Ab|--5---3-4-5---3-4-5--`5--`5-------|
Eb|----------------------------------|
  |                                  |
eb|----------------------------------|
Bb|----------------------------------|
Gb|----------------------------------|
Db|--5---3-3-5---3-3-5-x-5-x-5-8-----|
Ab|--5---3-3-5---3-3-5-x-5-x-5-8-----|
Eb|--3---1-1-3---1-1-3-x-3-x-3-6-----|

Riff E:
eb|----------------------------------|
Bb|----------------------------------|
Gb|----------------------------3-----|
Db|--5--p3--h5p3h5p3`5--`5--`5-------|
Ab|----------------------------------|
Eb|----------------------------------|
  |  Palm muted..............        |
eb|----------------------------------|
Bb|----------------------------------|
Gb|----------------------------------|
Db|--5---3-3-5---3-3-5-x-5-x-5-8-----|
Ab|--5---3-3-5---3-3-5-x-5-x-5-8-----|
Eb|--3---1-1-3---1-1-3-x-3-x-3-6-----|

Riff F:(Slash+Izzy)
eb|----------------------------------|----------------------------------|
Bb|----------------------------------|----------------------------------|
Gb|----------------3h5---------------|----------------3h5p3---3---------|
Db|--5--p3---5-5-5-------------------|--------------5-------5---5p3h5---|
Ab|----------------------------------|----------------------------------|
Eb|----------------------------------|----------------------------------|
  |  Palm muted....                  |                                  |
eb|----------------------------------|----------------------------------|
Bb|----------------------------------|----------------------------------|
Gb|------------------5---------------|----------------5-5-3-3-2---------|
Db|--5---3-3-5-5-5---5---------------|--------------5-5-5-3-3-2-5-3-5---|
Ab|--5---3-3-5-5-5---3---------------|--------------5-3-3-1-1-0-5-3-5---|
Eb|--3---1-1-3-3-3---3---------------|--------------3-3-3-1-1-0-3-1-3---|

Chorus:(Izzy)
eb|------------------------------------|------------------------------------|
Bb|--------------------------------V---|--------------------------------V---|
Gb|--4---------------------------4-4---|--5---------------------------5-5---|
Db|--5---------------------------5-5---|--5---------------------------5-5---|
Ab|--5---------------------------5-5---|--3---------------------------3-3---|
Eb|--3---------------------------3-3---|--3---------------------------3-3---|

eb|------------------------------------|------------------------------------|
Bb|--------------V-----------------V---|--------------------------------V---|
Gb|--2---------2-2-5-------------5-5---|--4---------------------------4-4---|
Db|--3---------3-3-5-------------5-5---|--5---------------------------5-5---|
Ab|--3---------3-3-3-------------3-3---|--5---------------------------5-5---|
Eb|--1---------1-1-3-------------3-3---|--3---------------------------3-3---|

Solo:(Slash+Izzy)
Play the Rhythm of Riff D (once for each bar)
eb|----------------|----------------------|---------------------|--------------3-----|
Bb|----------------|----------------------|----------------6----|--------------------|
Gb|----------------|--5b7---r5-3-5-3------|--3h5----b7-5h7---5--|--5b7----r5p3-------|
Db|--5-3-5v--------|-----------------3h5--|---------------------|--------------------|
Ab|----------------|----------------------|---------------------|--------------------|
Eb|----------------|----------------------|---------------------|--------------------|

eb|-------8-8--------------------------|--------------------------|----------------------------|
Bb|--8b10-----10r8p6h8-----8-8---------|--------------------------|----------------------------|
Gb|--------------------5b7-----7r5-----|--5b7-7-7-----------------|----------------------------|
Db|--------------------------------10--|--------------------8h10--|-------10------8-10---8-----|
Ab|------------------------------------|----------7p5---5---------|--10-------10-----------10--|
Eb|------------------------------------|--------------8---8-------|----------------------------|

eb|-----------------------|-----------|
Bb|-----------------------|-----------|
Gb|-----------------------|--9--------|
Db|-------10------8---10--|----10-----|
Ab|--10--------10---------|-------10--|
Eb|-----------------------|-----------|

Riff G:
     D5          D5          D5          D5          C5                      C5
eb|---------------------------------------------------------------------------------------------------|
Bb|-----13h15-xx----13h15-xx----13h15-xx----13h15-xx----11h13p11-------13-xx-------13p10-------13-xx--|
Gb|--14----------14----------14----------14----------12----------12-------xx----12-------12-------xx--|
Db|-----------------------------------------------------------------10----xx-10-------------10----xx--|
Ab|---------------------------------------------------------------------------------------------------|
Eb|---------------------------------------------------------------------------------------------------|

Last Chorus:
Play Chorus Rhythm
eb|------------------------------------------|---------------------------------------|
Bb|--------------------15--------------------|-----------------15--------------------|
Gb|--------12-12----------14b16-14b16r14p12--|--------12-12-------14b16-14b16r14p12--|
Db|--13s14-------14p12-----------------------|--12s14-------12-----------------------|
Ab|------------------------------------------|---------------------------------------|
Eb|------------------------------------------|---------------------------------------|

eb|---------------------------------------|------10----------------------------------|
Bb|--13b15---13b15---13-------------------|------------------------------------------|
Gb|-----------------------12h14p12----10--|--b12----10b12r10----12---10--------------|
Db|--------------------------------15-----|------------------10---------12-10--------|
Ab|---------------------------------------|-----------------------------------13-10--|
Eb|---------------------------------------|------------------------------------------|

eb|-----------13b15---13b15r13--------|--------------------------------17--------------|
Bb|----------------------------15-13--|--13p11----13-------13----15b17----17r15p13-----|
Gb|-----------------------------------|--------12-------------12-------------------14--|
Db|-----------------------------------|------------------------------------------------|
Ab|-----------------------------------|------------------------------------------------|
Eb|-----------------------------------|------------------------------------------------|

eb|---------------------------|------------------------------------------------|
Bb|--------13-12--------------|-12b13---r12~~~~~~~~---12b13---r12~~~~~~~~~~~---|
Gb|--12b14-------14r12p10-----|------------------------------------------------|
Db|-----------------------12--|------------------------------------------------|
Ab|---------------------------|------------------------------------------------|
Eb|---------------------------|------------------------------------------------|

End Solo:(Slash+Izzy)
Play this riff for the rhythm.
eb|------------------------------------|------------------------------------|
Bb|------V-V-----V-V-----V-----V---V---|------V-V-----V-V-----V-----V---V---|
Gb|------------------------------------|--5---5-5-5---5-5-5---5-5---5-5-5---|
Db|--5---5-5-5---5-5-5---5-5---5-5-5---|--5---5-5-5---5-5-5---5-5---5-5-5---|
Ab|--5---5-5-5---5-5-5---5-5---5-5-5---|--3---3-3-3---3-3-3---3-3---3-3-3---|
Eb|--3---3-3-3---3-3-3---3-3---3-3-3---|--3---3-3-3---3-3-3---3-3---3-3-3---|

eb|------------------------------------|------------------------------------|
Bb|------V-----V---V-----V-----V---V---|------V-----V---V-----V-----V---V---|
Gb|------------------5---5-5---5-5-5---|------------------------------------|
Db|--3---3-3---3-3-3-5---5-5---5-5-5---|--5---5-5---5-5-5-5---5-5---5-5-5---|
Ab|--3---3-3---3-3-3-3---3-3---3-3-3---|--5---5-5---5-5-5-5---5-5---5-5-5---|
Eb|--1---1-1---1-1-1-3---3-3---3-3-3---|--3---3-3---3-3-3-3---3-3---3-3-3---|

5. Knockin' on Heaven's Door

fill 2 (used on intro and verses)
  G5            D                C
|-3---3--------------2-0-------|-----------------0--------------------|
|-3-----3---3------3-----3---3-|----------1--------------1------------|
|-0-------0------2---------2---|-0------0---0----------0---0-0------0-|
|-0------------0---------------|-0h2----------2------2-------0h2------|
|------------------------------|------3---------------------------3---|
|-3----------------------------|--------------------------------------|

fill 1 (used only in verses)
  G5              D                  Am
|-3--------------2-------2-0-------|-0-------------0----------------------|
|-3---3-------3--3-------3-------0-|-1----0h1-------------1---------------|
|-0---0-----0----2----2-------2----|-2--2-----2---------2---2------0---0--|
|-0---0-----0----0----0------------|-2----------2-----2-------0h2----2----|
|----------------------------------|-0------------------------------------|
|-3--------------------------------|--------------------------------------|

Song goes like this:

Intro: Twice with picking fill 2  G5 D C
       Twice just power chords    G5 D C

Verse 1 (with fill 1)
G5         D               Am
Mamma take this badge from me

        (with fill 2)
G5         D         C
I can't use it anymore

        (with fill 1)
G5                D             Am
It's getting dark, too dark to see

        (with fill 2)
G5             D                       C
Feels like I'm knockin' on heaven's door

Chorus:
G5            D5                     C5
Knock, knock, knockin' on heaven's door,
C5
Hey, hey, hey, hey, yeah
G5            D5                     C5
Knock, knock, knockin' on heaven's door,
C5
(no lyrics)
G5                 D5                     C5
Ooh, knock, knock, knockin' on heaven's door
C5
Ooh yeah
G5            D5                     C5
Knock, knock, knockin' on heaven's door
C5
Hey, hey, hey, hey, yeah

 Solo 1: (over G D and C chords)
|----------------------------------------------------------|
|--------------------15fb----------------------------------|
|-12-14fb-14p12-14---------14-12-12~~~----------------12---|
|------------------------------------------13/14-----------|
|----------------------------------------------------------|
|----------------------------------------------------------|


|--------------------------------------------------------15----|
|-15/17--15---13p12-13/15--13p12---13p12-----------12-13----13-|
|--------------------------------------------------------------|
|-----------------------------------------14~~~----------------|
|--------------------------------------------------------------|
|--------------------------------------------------------------|


|--------------15-17fb--17--17fb--17fb--15----20fb-20p19-20-|
|12~~~---15/17----------------------------------------------|
|-----------------------------------------------------------|
|-----------------------------------------------------------|
|-----------------------------------------------------------|
|-----------------------------------------------------------|

|-19-20fb--20-20-20------------------------------------------------|
|-------------------17~~~------------------------------------------|
|-------------------------19fb-19-19fb-19--------------------------|
|-----------------------------------------19fb-19-19fb-19----------|
|----------------------------------------------------------17--17--|
|------------------------------------------------------------------|

 Solo 2:
|-------------------------------------------------------|
|--19b~~~~~~~r-19---19brp17-19-1717----20-17--20-17br---|
|-------------------------------------------------------|
|-------------------------------------------------------|
|-------------------------------------------------------|
|-------------------------------------------------------|

|----------------------------------------16---18b-18p16-|
|-1517--1517--------1517---------------13--16-----------|
|-----------------------------------/13-----------------|
|-----17----19br1719----19br19br17----------------------|
|-------------------------------------------------------|
|-------------------------------------------------------|

|-16-18p16-16-20-19-20-22b-20-19-20-22b--20-19-20-22b-22b-22b---------|
|-------------------------------------------------------------20-22b--|
|---------------------------------------------------------------------|
|---------------------------------------------------------------------|
|---------------------------------------------------------------------|
|---------------------------------------------------------------------|

|----------------------------------------------------------------|
|--20-22br-20-22-22b-20-22-20--20~~---20-19----19br-17-19-17-17--|
|----------------------------------------------------------------|
|----------------------------------------------------------------|
|----------------------------------------------------------------|
|----------------------------------------------------------------|

|----------------------------------------------------------------|
|-2017--17~~15~~12~~~~~~-----------------------------------------|
|------------------------12~--11~---11br-9~---7--5/4-------------|
|----------------------------------------------------5-----------|
|----------------------------------------------------------------|
|----------------------------------------------------------------|

  Solo 2 (another version)
|---------------------------------------------------------------------------|
|-------------20~~~~-20--19~~--19b(20)r19---17-19p17-17~~--20-15b(17)--20---|
|----17---------------------------------------------------------------------|
|-------17------------------------------------------------------------------|
|---------------------------------------------------------------------------|
|---------------------------------------------------------------------------|

|--------------------------15-----------------------15----------------------|
|-15b(17)r(15)--13-15-12~~~---15--10b(12)r10----------15----10/12---10/12---|
|---------------------------------------------12/14-------------------------|
|---------------------------------------------------------------------------|
|---------------------------------------------------------------------------|
|---------------------------------------------------------------------------|

|----------------15------17/19---17p15h17p15---20p19-20b(22)--20p19-20b(22)-|
|-------------15----15------------------------------------------------------|
|-12~~~--14/16--------------------------------------------------------------|
|---------------------------------------------------------------------------|
|---------------------------------------------------------------------------|
|---------------------------------------------------------------------------|

                                  (Hold bend)
|20p19-20-22b(24)-22b(24)-----------22--------------------------------------|
|-------------------------20-22b(24)--22-r22--20--22pb(24)r22b(24)r22-20----|
|---------------------------------------------------------------------------|
|---------------------------------------------------------------------------|
|---------------------------------------------------------------------------|
|---------------------------------------------------------------------------|

|---------------------------------------------------------------------------|
|-20~~-20-19-19b(20)r19--17--19p17--17~---20--15b(17)---20-----15b(17)--13--|
|---------------------------------------------------------------------------|
|---------------------------------------------------------------------------|
|---------------------------------------------------------------------------|
|---------------------------------------------------------------------------|

|---------------------------------------------------------------------------|
|-15-12~~-------------------------------------------------------------------|
|--------12~~~--11~~~-11b(12)r11/9--9~~~------------------------------------|
|---------------------------------------12~~9b(10)r9------------------------|
|-----------------------------------------------------10--------------------|
|---------------------------------------------------------------------------|

6. Civil War

Intro g1 (acous.)
    Em                                   G
E|--------------------------------------------------------------------|
B|--------------------------------------------------------------------|
G|----------0--------------0---------------------0---------------0----|
d|------2-----2---2-----2----2-------0-------0-----0---0-----0-----0--|
a|----2---2-----2-----2---2----0h(2)-------2---2-----2-----2---2------|
e|--0---------------0--------------------3---------------3------------|
              Em                                    G
E|--------------------------------------------------------------------|
B|--------------------------------------------------------------------|
G|--------------------0---------------0---------------------0---------|
d|--------0-------2-----2---2-----2-----2-------0-------0-----0-------|
a|--0h(2)-------2---2-----2-----2---2-----0h(2)-------2---2-----0h(2)-|
e|------------0---------------0---------------------3-----------------|

       D/F#
E|----------------------|
B|----------------------|
G|-------------2-0---0--|
d|--0------0-------2----|
a|-------0---0----------|
e|-----2----------------| end intro

Riff A
(g1 play intro)
g2 (elec. w/slight dirty tone)
    Em                       G           Em                       G
E|--12-------10--------------------------12-------10------------------|
B|-------------------10--11--12--------x------------------10--11--12--|
G|--------------------------------------------------------------------|
d|--------------------------------------------------------------------|
a|--------------------------------------------------------------------|
e|--------------------------------------------------------------------|

    D/F#             Let ring.........................................
E|--------------------------------------------------------------------|
B|--10--\-(8)\(7)\(5)-------------------------------------------------|
G|--------------------------------------------------------------------|
d|--------------------------------------------------------------------|
a|--------------------------------------------------------------------|
e|--------------------------------------------------------------------|
                                                            end Riff A

1st verse
(g1 repeats intro)
   "look at your..."   "look at your..."    "look at your..."
    Em                  G                    Em
E|-------------------|--------------------|---------------------------|
B|-------------------|--------------------|---------------------------|
G|-------------------|--------------------|---------------------------|
d|-------------------|--------------------|---------------------------|
a|-------------------|--------------------|---------------------------|
e|-------------------|--------------------|---------------------------|

   "way   they  always  done before."
    G                   D'f#
E|-------------------|-----------------|
B|-------------------|-----------------|
G|-------------------|-----------------|
d|-------------------|-----------------|
a|-------------------|-----------------|
e|-------------------|-----------------|

Interlude
(g1 plays intro)
(g2 plays riff A)
g3 (acous.)
(Let ring through)
    Em                              G
E|----------0---------------0-----------------0----------------------0--|
B|------5-----5---5-----5-----5---0-------3-----3---3------3-------3----|
G|----4---4-----4-----4---4-----4-------0---0-----0------0---0---0------|
d|--5---------------5-----------------5----------------5-------4--------|
a|----------------------------------------------------------------------|
e|----------------------------------------------------------------------|

    Em                             G               D/f#           Let ring
E|-----------0---------------0-------------0---------------0----------|
B|-------0-----0---0-----0-----3-------3-----3---3-----3-----3---0----|
G|-----0---0-----0-----0---0---------0---0-----------0---0------------|
d|---2---------------2-------------5-----------5---4-----------4------|
a|--------------------------------------------------------------------|
e|--------------------------------------------------------------------|
                                                               end Interlude
2nd verse
(g1 plays intro)
   "look at the..."        "look at the..."    "look at the..."
    Em                      G                   Em
E|-----------------------|-------------------|---------------------|
B|-----------------------|-------------------|---------------------|
G|-----------------------|-------------------|---------------------|
d|-----------------------|-------------------|---------------------|
a|-----------------------|-------------------|---------------------|
e|-----------------------|-------------------|---------------------|

   "way   we've    always    done before."
    G                        D/F#
E|-----------------------|-------------------|
B|-----------------------|-------------------|
G|-----------------------|-------------------|
d|-----------------------|-------------------|
a|-----------------------|-------------------|
e|-----------------------|-------------------|

g1 and 2(w/chorus effect)                             "My hands are..."
    A7(no3)      B7add4/A          A7(no3)         D/A
E|-----------------------0-----------------3-0---0---------3-2--------|
B|------5------------------4---------------------4-------3-----3/(5)--|
G|----2---2---2------2---------2-------2---------------2--------------|
d|----------5------4---4-----4-------5---5-----5-----4----------------|
a|--0------------0-----------------0---------------0------------------|
e|--------------------------------------------------------------------|
 |  A5                             A5
 | g4(elec. w/dist.)
E|---------------------------------5----------------------------------|
B|---------------------------------5----------------------------------|
G|--2------------------------------2------------------2-2-2-2-2-2-----|
d|--2------------------------------2------------------2-2-2-2-2-2-----|
a|--0------------------------------0------------------0-0-0-0-0-0-----|
e|----------------------------------------------------------------0---|

Pre-chorus                             "the billions shift..."
g2(chorus off)                                   (bend)
    E5  let ring..                       G5        (1\2)
E|------0-----------------------------------------------|
B|------0-----------------------------------------------|
G|---------------------------------------0--------------|
d|---------------------------------------0--------------|
a|--2------------------------------------x--------------|
e|--0------------------------------------3--------3-2b--|
 |        (p.m)        (p.m)
 | g4      ....         .....
E|------------------------------------------------------|
B|------------------------------------------------------|
G|-----------------------------------0---0--------------|
d|-----------------------------2p(0)-0---0--------5-4---|
a|------2--------2---2---------2p(0)-0---x--------x-x---|
e|--0---0--0--0--0---0--0-0-0--0---------3-----0--3-2---|
                                  "love of god.."
                                             (bend,release)
    E5  let ring.................  G5    D      (1/2)
E|------0----------------------------------------------|
B|------0--------------------------3-----3--3----------|
G|---------------------------------0-----2--2----------|
d|---------------------------------0-----0--0----------|
a|--2------------------------------x-------------------|
e|--0------------------------------3-----------0-2br---|
 |        (p.m)        (p.m)
 |         ....         ....
E|---------------------------------------2--2----------|
B|------------------------------------3--3--3----------|
G|---------------------------------0--0--2--2----------|
d|----------------------------0-0--0--0--0--0----------|
a|--2---2--------2---2--------0-0--x--x--0--0----5-4---|
e|--0---0--0--0--0---0--0--0--0-0--3--3--------0-3-2---|

                                    "blood hands.."
    E5  let ring.................... G5
E|------0--------------------------------------------------|
B|-----------------------------------3---------------------|
G|------------------------------0-0--0---------------------|
d|------------------------------0-0--0---------------------|
A|-----------------------------------x---------------------|
e|--0--------------------------------3---------------------|
 |        (p.m)        (p.m)                      -1/2
 |         ....         ....                       \ /
E|---------------------------------------------------------|
B|-----------------------------------3---------------------|
G|-----------------------------------0-----0--0-(0)(0)(0)--|
d|-----------------------------------0----x----------------|
A|--2---2--------2---2--------2------x---x-----------------|
e|--0---0--0--0--0---0--0--0--0------3---------------------|
                                               push guitar neck forward
                                              w/fretting hand whileholding
                                               body of guitar w/picking hand

   (bend,release)
     (1\2)  E5 let ring.......................
E|-------------0------------------------------|
B|-------------0------------------------------|
G|--------------------------------------0--0--|
d|--------------------------------------0--0--|
A|----------2---------------------------------|
e|--3-2br-0-0---------------------------------|
 |               (p.m)         (p.m)
 |                ....         ....
E|--------------------------------------------|
B|--------------------------------------------|
G|--------------------------------------------|
d|--------------------------------------------|
A|--5-4---2----2--------2---2--------2--0--0--|
e|--3-2---0----0--0--0--0---0--0--0--0--0--0--|

    G5          D   "civil
E|--------------2--------|
B|--3-----------3--------|
G|--0-----------2--------|
d|--0---------0-0---0----|
A|--x-------2-------0-0--|
e|--3--------------------|
 |
 |
E|-----------------------|
B|--3----3------3--------|
G|--0----0------2--------|
d|--0----0------0--------|
A|--x----x------0--------|
e|--3----3---------------|end pre-chorus
  ("waaaaarrrrrrs!")
    A5 let ring.......................
E|---------------------------------------------------------------|
B|---------------------------------------------------------------|
G|--2------(2)----------------------4-4-4----2-p-0--------2------|
d|--2------(2)----------------------4-4-4----2-p-0--------2------|
A|--0------(0)-------------------------------0------------0------|
e|---------------------------------------------------------------|
 |     (p.m)        (vibrato)
 |      ....     ....      ....     ....      ....     ....
E|---------------------------------------------------------------|
B|---------------------------------------------------------------|
G|--2---------2--------4~~~------4--------5~~~------5--------7~~~|
d|--2---------2--------4~~~------4--------5~~~------5--------7~~~|
A|--0---0--0-----0--0------0--0-----0--0------0--0-----0--0------|
e|---------------------------------------------------------------|


E|-----------------------|
B|-----------------------|
G|-----------------------|
d|-----------------------|
A|-----------------------|
e|----------------5\(0)--|
 |
 |
E|-----------------------|
B|-----------------------|
G|--7-7-----8--9--9\-----|
d|--7-7--0--8--9--9\-----|
A|-----------------------|
e|-----------------------|

1st Solo
(g2 and 4 play pre-chorus)
g5 (elec. w/dist and wah            (tremolo picking while sliding upstring)
   (full) (1\2)  (1/4)  (1/2)          /\/\/\/\/\
     E5                            G5
E|-----0------0---3b-0------0--------------------------|
B|-------0-3b---0-3b---0-3b---0---8~~~-----------------|
G|--2b--------------------------0-7~~~-------------0---|
d|-------------------------------------2-/-4-/-x-\-0---|
A|-----------------------------------------------------|
e|-----------------------------------------------------|

  (full)  (1/2)   (1/4)  (1/4)
    E5                             G5                 D
E|-----0------0---3-b-0------0-------------------------------------|
B|-------0-3b---0-3-b---0-3b---0---8~~~~-8-7-h(8)p(7)--------------|
G|--2b---------------------------0-7~~~~--------------9-7---7-p(0)-|
d|--------------------------------------------------------7--------|
A|-----------------------------------------------------------------|
e|-----------------------------------------------------------------|

   (full) (1/2)   (1/4)  (1/2)
    E5                             G5
E|-----0------0---3-b-0------0----------------------------------------|
B|-------0-3b---0-3-b---0-3b---0---8--(5)/6--7-(7)/8-(9)/10--10-10----|
G|--2b---------------------------0-7--(4)/5--6-(6)/7-(8)/9---9--9/19\-|
d|--------------------------------------------------------------------|
A|--------------------------------------------------------------------|
e|--------------------------------------------------------------------|

    (full) (1/2)         (full)
     E5                            G5    D
E|------0------0---3--0------0-----------------|
B|--------0-3b---0-3----0-3b---0---8~~~~-7~~~~-|
G|(\)2b--------------------------0-7~~~~-7~~~~-|
d|---------------------------------------------|
A|---------------------------------------------|
e|---------------------------------------------| end 1st solo

Bridge
g5 "black armband when"
    G5         Gmaj7/B       Em
E|----3----------------------------------------------------------|
B|--3-3----------------------------------------------------------|
G|--0------------------------------------------------------------|
d|--0------------------------------------------------------------|
A|--x------------------------------------------------------------|
e|--3------------------------------------------------------------|
 |
 |g1
E|---------------------------------------------------------------|
B|--------3---0--------3-----0-----------------------------------|
G|----0------------0-----0--------------------------0------------|
d|------0---0----4---4-----4------2---2---2-----2-----2-------0--|
A|---------------2----------------------2-----2---2-----(0)h2----|
e|--3---------------------------0---0-------0--------------------|
   "first memories they shot..."
g2(w/clean tone)
    G5             Gmaj7/B          Em              C       D
E|---------------------------------------------------0--------0----|
B|-------------------------------------------------1---3-1--3---3--|
G|-----------------------------------------------------------------|
d|-----------------------------------------------------------------|
A|-----------------------------------------------------------------|
e|-----------------------------------------------------------------|
 |
 |
E|-----------------------------------------------------------------|
B|----------3---0----------3-----0-----------------------1------3--|
G|------0--------------0-----0------------0------------0------2----|
d|----0---0---0------4---4-----4------2-----2---2----2------0------|
A|-----------------2--------------------2-----2----3---------------|
e|--3-------------------------------0------------------------------|
   "never fell...vietnam"
g1 and 2
    G5           Gmaj7/B        Em
E|---------------------------------------------------------------|
B|--------3---0--------3-----0-----------------------------------|
G|----0------------0-----0--------------------------0------------|
d|------0---0----4---4-----4------2---2---2-----2-----2-------0--|
A|---------------2----------------------2-----2---2-----(0)h2----|
e|--3---------------------------0---0-------0--------------------|
   "Can't trust..."
    G5             Gmaj7/B
E|----------------------------------|
B|----------3---0----------3-----0--|
G|------0--------------0-----0------|
d|----0---0---0------4---4-----4----|
A|-----------------2----------------|
e|--3-------------------------------|

                 "promised land..."
g2                (w/dist.)
    Em            C/G    D/A
E|------------------------------|
B|-----------------------7-7----|
G|---------0------5-5----7-7----|
d|-------2--------5-5--0-7-7-0--|
A|-----2----------3-3--0-5-5-0--|
e|--0-------------3-3----5-5----|
 |
 |g1              (g4 takes over)
E|------------------------------|
B|-----------------------7-7----|
G|---------0------5-5----7-7----|
d|-----2------4---5-5--x-7-7-0--|
A|-------2--------3-3--x-5-5-0--|
e|--0-------------3-3--x-5-5----|

Chorus
g2 and 4
        "I don't need..."                                      "It..."
           (pm)
           ....   let ring          ....         ....
    G5           B5          E5                              G5    B5
E|--------------------------------------------------------------------|
B|--3--------------------------------------------------------3--------|
G|--0--------------------------------------------------------0--------|
d|--0------------4-----4-------------------------------------0-----4--|
A|--x------------2---2-P-0---2---2--------2---2--------2--2--x-----2--|
e|--3------3--3--------------0---0--0--0--0---0--0--0--0--0--3--------|
                                           "You're power-hungry..."
               E5         C      D        G5         B5          E5
E|--------------------------------------------------------------------|
B|------------------------5-5----7-7p(0)--3----3----------------------|
G|------------------------5-5----7-7p(0)--0----0----------------------|
d|--4-4-4-------------x-x-5-5--x-7-7p(0)--0----0-----4-----4----------|
a|--2-2-2p(0)--2---2--x-x-3-3--x-5-5p(0)--x----x--0--2---2-------2----|
e|-------------0---0----------------------3----3--------------0--0----|
                                     "I don't need..."
       ....         ....
                                 G5           B5
E|------------------------------------------------------|
B|-------------------------------3----3---3-------------|
G|-------------------------------0----0---0-------------|
d|-------------------------------0----0---0---4-----4---|
A|--2--------2---2-------2-2-2---x----x---x---2---2-p-0-|
e|--0--0--0--0---0--0--0-0-0-0---3----3---3-------------|

    E5       C        D
E|-----------------------------|
B|-----------5-5------7-7p(0)--|
G|-----------5-5------7-7p(0)--|
d|-----------5-5---0--7-7p(0)--|
A|--2--2--2--3-3---0--5-5p(0)--|
e|--0--0--0--------------------|end chorus

2nd Solo                      (Bend, strike then release)
g5 (w/wah)                        (full)
  (full) (strike then release from bend)
    G5                B5              E5
E|------------------------------------------------------------------------|
B|-------15---------------------------------------------------------------|
G|--14b-----14r-p(12)-14~~~~~-12-14-pb14r-p(12)------------------/19\-----|
d|----------------------------------------------14-14~~~~~~~~~------------|
A|------------------------------------------------------------------------|
e|------------------------------------------------------------------------|
 |Riff B                                              (p.m)
 |g2 and 4               let ring                      ...      ...
E|------------------------------------------------------------------------|
B|--3---3---3-------------------------------------------------------------|
G|--0---0---0----0--------------------------------------------------------|
d|--0---0---0----0----4-----4---------------------------------------------|
A|--x---x---x----0----2---2-----------2------------2-2-----2--2-----2-2-2-|
e|--3---3---3----0--------------------0------------0-0-0-0-0--0-0-0-0-0-0-|

  (full)
    G5          B5                        E5                       C5
E|--------------------------------------------------------------------|
B|------3---------------------3-----------------(3)/5~~~~-3-5p(3)\(1)-|
G|--2b----2p(0)-2~~~~-0-2/(4)---4\(2)p(0)-2p(0)-----------------------|
d|--------------------------------------------------------------------|
A|--------------------------------------------------------------------|
e|--------------------------------------------------------------------|
 |
 |                        let ring
E|--------------------------------------------------------------------|
B|--3--3--3-----------------------------------------------------------|
G|--0--0--0-----------------------------------------------------------|
d|--0--0--0--0--4-------------4------------------------------------5--|
A|--x--x--x--0--2----------2--------------2-----------2-----2------3--|
e|--3--3--3-------------------------------0-----------0-----0---------|

                      (full)
                 D5
E|--------------------------|
B|--3-1h(3)p(1)p(0)---0-8b~~|
G|------------------0-------|
d|--------------------------|
A|--------------------------|
e|--------------------------|
 |
 |
E|--------------------------|
B|--------------------------|
G|--------------------------|
d|---------------7----------|
A|---------------5----------|
e|--------------------------|end Riff B

(play Riff B(g2 and 4)once)
               (1/2)             (full)
     G5          B5                  E5
E|---------5-----------------------8b--8-7-8p(7)p(5)-|
B|~~(8)~~~~--8-7-7b-7~~~~7p(5)---5-------------------|
G|-----------------------------7---------------------|
d|---------------------------------------------------|
A|---------------------------------------------------|
e|---------------------------------------------------|

                                                         (1/2)(full)
                              (full)  (strike then release from bend)
                               G5                   B5
E|----8p(7)p(5)---7-7-7-----------------------------------------------|
B|--8-----------8-------5~~~-------12-15----------------15-15b-15b----|
G|--------------------------7--14b-------14r-12-14/(16)---------------|
d|--------------------------------------------------------------------|
A|--------------------------------------------------------------------|
e|--------------------------------------------------------------------|
            (1/2)                                    (full)
       (pre-bend, strike, release)
               E5                                C5        D5
E|--12---------------------------------------------------------------------|
B|-----15-12---------------------------------------------------------------|
G|-----------pb14r-p(12)---------------------------------------------------|
d|-----------------------14-14~~~12----------------------------------------|
A|----------------------------------14p(12)\(10)-12-10-12b-12p(10)---------|
e|-----------------------------------------------------------------12p(10)-|
                                                        end 2nd solo


3rd Verse
(g1 plays intro)
   "look at the..."        "look at the..."    "look at the..."
    Em                      G                   Em
E|-----------------------|-------------------|---------------------|
B|-----------------------|-------------------|---------------------|
G|-----------------------|-------------------|---------------------|
d|-----------------------|-------------------|---------------------|
a|-----------------------|-------------------|---------------------|
e|-----------------------|-------------------|---------------------|
 |
 |(g2 and 4)
E|-----------------------------------------------------------------|
B|-----------------------------------------------------------------|
G|--7/(9)----------------------------------------------------------|
d|--x--------------------------------------------------------------|
A|--5/(7)7---------------------------------------------------------|
e|-----------------------------------------------------------------|
       (g5)
   "way   we've    always    done before."
    G                        D/F#
E|-----------------------|-------------------|
B|-----------------------|-------------------|
G|-----------------------|-------------------|
d|-----------------------|-------------------|
a|-----------------------|-------------------|
e|-----------------------|-------------------|end 3rd verse

4th Verse
(g1 plays intro)
(g2 plays Riff A)
   "Look in the..."        "Look at the..."    "Look at the..."
    Em                      G                   Em
E|-----------------------|-------------------|------------------------|
B|-----------------------|-------------------|------------------------|
G|-----------------------|-------------------|------------------------|
d|-----------------------|-------------------|------------------------|
A|-----------------------|-------------------|------------------------|
e|-----------------------|-------------------|------------------------|
   "I   don't   want   to   hear no more."
    G                       D/f#
E|-----------------------|-------------------|
B|-----------------------|-------------------|
G|-----------------------|-------------------|
d|-----------------------|-------------------|
A|-----------------------|-------------------|
e|-----------------------|-------------------|end 4th verse

g1 and 2(w/chorus effect)                             "My hands are..."
    A7(no3)      B7add4/A          A7(no3)         D/A
E|-----------------------0-----------------3-0---0---------3-2--------|
B|------5------------------4---------------------4-------3-----3/(5)--|
G|----2---2---2------2---------2-------2---------------2--------------|
d|----------5------4---4-----4-------5---5-----5-----4----------------|
a|--0------------0-----------------0---------------0------------------|
e|--------------------------------------------------------------------|
 |  A5                             A5
 | g4(elec. w/dist.)
E|---------------------------------5----------------------------------|
B|---------------------------------5----------------------------------|
G|--2------------------------------2------------------2-2-2-2-2-2-----|
d|--2------------------------------2------------------2-2-2-2-2-2-----|
a|--0------------------------------0------------------0-0-0-0-0-0-----|
e|----------------------------------------------------------------0---|

Pre-chorus
(g2 and 4 play pre-chorus)
                                  "All I've seen..."
    E5                             G5
E|------------------------------|-------------------------------------|
B|------------------------------|-------------------------------------|
G|------------------------------|-------------------------------------|
d|------------------------------|-------------------------------------|
A|------------------------------|-------------------------------------|
e|------------------------------|-------------------------------------|
                                                 "Human rights..."
    E5                             G5             D
E|------------------------------|--------------|----------------------|
B|------------------------------|--------------|----------------------|
G|------------------------------|--------------|----------------------|
d|------------------------------|--------------|----------------------|
A|------------------------------|--------------|----------------------|
e|------------------------------|--------------|----------------------|
                                  "Bloody hands..."
    E5                             G5
E|------------------------------|-------------------------------------|
B|------------------------------|-------------------------------------|
G|------------------------------|-------------------------------------|
d|------------------------------|-------------------------------------|
A|------------------------------|-------------------------------------|
e|------------------------------|-------------------------------------|
                                                 "Scars of our civil
    E5                             G5             D
E|------------------------------|--------------|----------------------|
B|------------------------------|--------------|----------------------|
G|------------------------------|--------------|----------------------|
d|------------------------------|--------------|----------------------|
A|------------------------------|--------------|----------------------|
e|------------------------------|--------------|----------------------|
                                                              end Pre-chorus
   "waaaaarrrrrrs!"
    A5 let ring.......................
E|---------------------------------------------------------------|
B|---------------------------------------------------------------|
G|--2------(2)----------------------4-4-4----2-p-0--------2------|
d|--2------(2)----------------------4-4-4----2-p-0--------2------|
A|--0------(0)-------------------------------0------------0------|
e|---------------------------------------------------------------|
 |     (p.m)        (vibrato)
 |      ....     ....      ....     ....      ....     ....
E|---------------------------------------------------------------|
B|---------------------------------------------------------------|
G|--2---------2--------4~~~------4--------5~~~------5--------7~~~|
d|--2---------2--------4~~~------4--------5~~~------5--------7~~~|
A|--0---0--0-----0--0------0--0-----0--0------0--0-----0--0------|
e|---------------------------------------------------------------|


E|-----------------------|
B|-----------------------|
G|-----------------------|
d|-----------------------|
A|-----------------------|
e|----------------5\(0)--|
 |
 |
E|-----------------------|
B|-----------------------|
G|--7-7-----8--9--9\-----|
d|--7-7--0--8--9--9\-----|
A|-----------------------|
e|-----------------------|

3rd Solo
(g2 and 4 play Pre-chorus,once)
g5 (elec. w/dist. and wah)

    E5                             G5
E|-----0------0---3-b-0------0-----3~~~~3-0-3p(0)-2h(3)p(2)p(0)-|
B|-------0-3b---0-3-b---0-3b---0---3~~~~------------------------|
G|--2b---------------------------0------------------------------|
d|--------------------------------------------------------------|
A|--------------------------------------------------------------|
e|--------------------------------------------------------------|

                                 E5                           G5
E|-------0------------0--------------0----0---3--0------0-------|
B|-----0---0-3p(0)------3p(0)--------0-3b---0-3----0-3b---0---8-|
G|--2b-------------2b---------2b-r-b-0----------------------0-7-|
d|--------------------------------------------------------------|
A|--------------------------------------------------------------|
e|--------------------------------------------------------------|
                                                           release, pull off)
   (bend,release,pull off)                        (bend, hold,
            D      E5                              G5
E|--------------------0------0---3-b-0------0---------------------|
B|--7brp(5)-7--7\-------0-3b---0-3-b---0-3b---0---3bh--3----------|
G|-----------------2b---------------------------0-2bh--2---2rp(0)-|
d|----------------------------------------------------------------|
A|----------------------------------------------------------------|
e|----------------------------------------------------------------|

      E5                           G5         D
E|------0------0---3--0------0-----------------------|
B|--------0-3b---0-3----0-3b---0---8~~~~7h(8)-7--7/--|
G|--2-b--------------------------0-7~~~~7-----7--7/--|
d|---------------------------------------------------|
A|---------------------------------------------------|
e|---------------------------------------------------|end 3rd Solo
         (p.m)         (pm)           (pm)
       .........    ...........    ...........
g4  A5           B5/A           C5/A           D5/A
E|-----------------------------------------------|
B|-----------------------------------------------|
G|--2------------4--------------5--------------7-|
d|--2------------4--------------5--------------7-|
A|--0--0-0-0-0-0----0-0-0-0-0-0----0-0-0-0-0-0---|
e|-----------------------------------------------|
 |
 |g5
E|-----------------------------------------------|
B|--/10~~~~~~~~~~~~~~~~~~~~~~~~~~~~~~~~~~~~~~~~~-|
G|--/9~~~~~~~~~~~~~~~~~~~~~~~~~~~~~~~~~~~~~~~~~~-|
d|-----------------------------------------------|
A|-----------------------------------------------|
e|-----------------------------------------------|
    (pm)
    .....    ...     .....     ...    .....
                 F5/A              C5/A     C5
E|---------------------------------------------------|
B|---------------------------------------------------|
G|--------7------10--------10------5--------5-5-5-0--|
d|--------7------10--------10------5--------5-5-5-0--|
A|--0-0-0----0-0-----0-0-0-----0-0----0-0-0-3-3-3----|
e|---------------------------------------------------|

Chorus
(g2 and 4 play chorus)
        "I   don't  need..."                          "I don't need..."
    G5              B5              E5              G5         B5
E|---------------|---------------|---------------|----------|----------|
B|---------------|---------------|---------------|----------|----------|
G|---------------|---------------|---------------|----------|----------|
d|---------------|---------------|---------------|----------|----------|
A|---------------|---------------|---------------|----------|----------|
e|---------------|---------------|---------------|----------|----------|
                                      "Your're power-hungry..."
    E5              C     D          G5             B5         E5
E|---------------|------|---------|--------------|----------|----------|
B|---------------|------|---------|--------------|----------|----------|
G|---------------|------|---------|--------------|----------|----------|
d|---------------|------|---------|--------------|----------|----------|
A|---------------|------|---------|--------------|----------|----------|
e|---------------|------|---------|--------------|----------|----------|
         "I  don't  need..."
    G5              B5
E|---------------|---------------|
B|---------------|---------------|
G|---------------|---------------|
d|---------------|---------------|
A|---------------|---------------|
e|---------------|---------------|end Chorus

g2 and 4 (p.m)
   "war  no no no no no oh no oh no
       .......
    E5               C     D
E|--------------------------------|
B|-------------------5-5---7-7----|
G|-------------------5-5---7-7----|
d|-------------2-2-2-5-5---7-7----|
A|--2--2-2-2-2-2-2-2-3-3---5-5----|
e|--0--0-0-0-0-0-0-0-----x-----0--|

Riff C
g2 and 4
         " I don't need..."
       (pm)  (pm)   (pm)           (pm)  (pm)(pm)  (pm)  (pm)
        .     .      .              .     .   ...   .     ...
    G5          B5           E5                               G5
E|----------------------------------------------------------------|
B|----------------------------------------------------------------|
G|----------------------------------------------------------------|
d|--------------4--5---4-5----------------------------------------|
A|--5-7---5-7-0-2--2-2-2-2-2-2--2-3---2-3---2-----3---2-3-----5-7-|
e|--3-3-3-3-3----------------0--0-0-0-0-0-0-0-0-0-0-0-0-0-0-0-3-3-|
   (pm)  (pm)   (pm)           (pm)  (pm)(pm)
    .     .      .              .     .   .
            B5           E5                 C5   D5
E|------------------------------------------------------|
B|------------------------------------------------------|
G|------------------------------------------------------|
d|----------4--5---4-5----------------------5-5--7-7----|
A|----5-7-0-2--2-2-2-2-2-2--2-3---2-3---2---3-3--5-5-0--|
e|--3-3-3----------------0--0-0-0-0-0-0-0-0----------0--|end Riff C

(g2 and 4 plays Riff C)
    G5         B5          E5         G5          B5
E|----------|-----------|----------|-----------|----------------------|
B|----------|-----------|----------|-----------|----------------------|
G|----------|-----------|----------|-----------|----------------------|
d|----------|-----------|----------|-----------|----------------------|
A|----------|-----------|----------|-----------|----------------------|
e|----------|-----------|----------|-----------|----------------------|

    E5         C5          D5
E|----------|-----------|----------|
B|----------|-----------|----------|
G|----------|-----------|----------|
d|----------|-----------|----------|
A|----------|-----------|----------|
e|----------|-----------|----------|

4th solo
(g2 and 4 play Riff C)
g5 (elec. dist. w/wah)
  (full)                                         (full) (full) (full)
    G5                                     B5
E|--------------------------------------------------------------------|
B|-------12h(15)----12h(15)----12h(15)-----12h(15)-----15-----15------|
G|--14b----------14---------14----------14---------14b----14b----14b--|
d|--------------------------------------------------------------------|
A|--------------------------------------------------------------------|
e|--------------------------------------------------------------------|
     (full)  (full) (full)             (full)       (1/2)      (full)
               E5
E|--------------------------------------------------------------------|
B|--15------15-----15------15----12h(15)-----12h(15)-----12h(15)------|
G|-----14b-----14b----14b-----14---------14b---------14b---------14b--|
d|--------------------------------------------------------------------|
A|--------------------------------------------------------------------|
e|--------------------------------------------------------------------|
                                      (Full)(full) (full)
                                                 G5
E|-----------------------------------------------12-----12------------|
B|--15----12-15p(12)----12-15p(12)----12-15b-15b----15b----15p(12)----|
G|-----14------------14------------14------------------------------14-|
d|--------------------------------------------------------------------|
A|--------------------------------------------------------------------|
e|--------------------------------------------------------------------|

                                 B5
E|--------------------------------------------------------------------|
B|--15p(12)-13h(15)p(13)p(12)----12h(13)p(12)----12-------------------|
G|----------------------------14--------------15----15-14~~~~p(12)----|
d|-----------------------------------------------------------------14-|
A|--------------------------------------------------------------------|
e|--------------------------------------------------------------------|
           (full) (full)
             E5                                        C5
E|-----------15b--r-15b-15-14-15-14h(15)p(14)p(12)-14----12h(14)p(12)-|
B|----------------------------------------------------15--------------|
G|--14----12----------------------------------------------------------|
d|-----14-------------------------------------------------------------|
A|--------------------------------------------------------------------|
e|--------------------------------------------------------------------|
                 (bend, hold, release)
         (1/2)         (full)                                    (1/2)
             D5     G5         B5                                 E5
E|-----12-14b-\--------20b-h-20r-19-20-19h(20)p(19)p(17)-19~~~~17-----|
B|--15--------------17--------------------------------------------19br|
G|--------------/19---------------------------------------------------|
d|--------------------------------------------------------------------|
A|--------------------------------------------------------------------|
e|--------------------------------------------------------------------|
(pre-bend, strike, release, pull off)
       (1 1/2)         (full)         (full)            (full)
                                                         G5
E|--------------------------12---------------------------17b-17-15-17-|
B|--17-pb17rp(15)----17-15b----15p(12)--------------------------------|
G|----------------16-------------------14b-14-12----------------------|
d|-----------------------------------------------14~~~~---------------|
A|--------------------------------------------------------------------|
e|--------------------------------------------------------------------|
                   (1/2)          (full)(1/4)           (full)
    B5                           E5                           C5
E|--17~~~~15-17-15-pb17r-p(15)-17-15-17b-15b-------------------12------|
B|------------------------------------------17~~~~15h(17)-15b-----15-12|
G|---------------------------------------------------------------------|
d|---------------------------------------------------------------------|
A|---------------------------------------------------------------------|
e|---------------------------------------------------------------------|
         (1/4)
          D5
E|------------------|
B|------------------|
G|--14----12b-12----|
d|-----14--------14-|
A|------------------|
e|------------------|end 4th solo

Outro
g5
    G5                                     G5
E|--------------------------------------------------------------------|
B|--------------------------------------------------------------------|
G|--12~~~~~~~~~~~~~~~~~~~~~~~~~~~~~~~~~~~~----------------------------|
d|--------------------------------------------------------------------|
A|--------------------------------------------------------------------|
e|--------------------------------------------------------------------|
 |
 |g6 (elec. w/light dist. and wah)
E|--------------------------------------------------------------------|
B|--------------------------------------------------------------------|
G|---------7/(9)\(7)---------------------------7/(9)-9----------------|
d|---------x----------9--9-7/(9)\(7)\(5)-------x-----x--7/(9)\(7)-p(0)|
A|---------5/(7)\(5)--x--x-x-------------------5/(7)-7--x-------------|
e|--------------------7--7-5/(7)\(5)\(3)-p(0)-----------5/(7)\(5)-----|
 |
 | g2 and 4
E|--------------------------------------------------------------------|
B|--------------------------------------------------------------------|
G|--0--------------------------------------0--------------------------|
d|--0--------------------------------------0--------------------------|
A|--x--------------------------------------x--------------------------|
e|--3--------------------------------------3--------------------------|

g6
E|----------------------------------------------------------------|
B|----------------------------------------------------------------|
G|-----7/(9)\(7)---------------------------7/(9)------------------|
d|--5--x----------9--9-7/(9)\(7)\(5)-------x------7/(9)\(7)-p(0)--|
A|--x--5/(7)\(5)--x--x-x-------------------5/(7)--x---------------|
e|--3-------------7--7-5/(7)\(5)\(3)-p(0)---------5/(7)\(5)-------|


E|----------------------------------------------------------------|
B|----------------------------------------------------------------|
G|-----7/(9)\(7)---------------------------7/(9)------------------|
d|--5--x----------9--9-7/(9)\(7)\(5)-------x------7/(9)\(7)-p(0)--|
A|--x--5/(7)\(5)--x--x-x-------------------5/(7)--x---------------|
e|--3-------------7--7-5/(7)\(5)\(3)-p(0)---------5/(7)\(5)-------|


E|----------------------------------------------------------------|
B|----------------------------------------------------------------|
G|-----7/(9)\(7)---------------------------7/(9)------------------|
d|--5--x----------9--9-7/(9)\(7)\(5)-------x------7/(9)\(7)-p(0)--|
A|--x--5/(7)\(5)--x--x-x-------------------5/(7)--x---------------|
e|--3-------------7--7-5/(7)\(5)\(3)-p(0)---------5/(7)\(5)-------|

E|-------------------|
B|-------------------|
G|-----7/(9)\(7)-----|
d|--5--x---------7---|
a|--x--5/(7)\(5)-x---|
e|--3------------9---|end outro

7. You Could be Mine

 F#m-
 F#m--Em--F#m-Em-------------|
(F#m-F#sus--;(2X) Em-Emsus---| (2X)) (2X)

        F#
I'm a cold heartbreaker
Fit ta burn and I'll rip your heart in two
        E                       F#-B5-
An I'll leave you lyin' on the bed
        F#
I'll be out the door before ya wake
It's nuthin' new ta you
        E
'Cause I think we've seen that movie,
    F#-B5-
too


CHORUS:

                 A    B         F#
(OH woh) 'Cause you could be mine
          A     B        F#m-
But you're way out of line
            A
With your bitch slap rappin'
           B
And your cocaine tongue
         F#m
You get nuthin' done
        A    B
I said you could be mine

F#----E--F#--

Now holidays come and then they go
It's nothin' new today
Collect another memory
When I come home late at night
Don't ask me where I've been
Just count your stars
I'm home again

'Cause you could be mine
But you're way out of line
With your bitch slap rappin'
And your cocaine tongue
You get nuthin' done
I said you could be mine


F#--E--;(6X)

G               F#m     G         A
You've gone sketchin' too many times
     G     F#m      G         A
Ooh, Why don't ya give it a rest
G-F#m-G             B-A-G
  Why Must you find
F#m
Another reason to cry

Solo:

B--D,B----D,A---------------------------------------------|D,B
D,B-------------------------------------------------------|(2X)
D,A-----D,B-----------------------------------------------|
                                      1/2    1/2 hold-----|

|------------------------------------------------------------------------------|
|-------------------------------9-----9-----9--------9--(9)p7---9--7-----------|
|-------------------------------9-----9-----9--------9--(9)p7---9--7-----------|
|------------------------(9)-9-----9---------------------------------9--7--9~~-|
|------------------------------------------------------------------------------|
|------------------------------------------------------------------------------|

|------------------------------------------------------------------------------|
|---7--9--9--9--7--9-----9--------------------7--------------------------------|
|---7--9--9--9--7--9--7--9----------7h9--9----7--9p7s6---7--6--7--6h7p6----6---|
|---------------------7--------------------7-----------------------------9-----|
|------------------------------------------------------------------------------|
|------------------------------------------------------------------------------|

|------------------------------------------------------------------------------|
|------------------------------------------------------------------------------|
|----6----------------------------------------------------------------------10-|
|9------9--9--7-----9---7------------------------7-----------------------9-----|
|----------------9----9---9--8--8---7----(7)p5---7--5--------------------------|
|----------------------------------------------7-------7--7--10--7---(7)s------|


|--10------7-------10---x--------10--9h10p9p7-----9-----7h9p7------10-------10-|
|--10~~~~~~--10p7-------x--10p7---------------10----10---------10-----8s12-----|
|------------------------------------------------------------------------------|
|------------------------------------------------------------------------------|
|------------------------------------------------------------------------------|
|------------------------------------------------------------------------------|

|----------12-----10--------14-------------17~~~-14--17------------------14----|
|--12--10------------12--10-----17--14------------------14--17---17~~~~~~---17-|
|-------------------------------------16---------------------------------------|
|------------------------------------------------------------------------------|
|------------------------------------------------------------------------------|
|------------------------------------------------------------------------------|

|------17--14-----------------14-------17-----17---14--17----17------17----17--|
|---14--------17p14--17~~~~~-----17p14----14--------------14-------------------|
|------------------------------------------------------------------------------|
|------------------------------------------------------------------------------|
|------------------------------------------------------------------------------|
|------------------------------------------------------------------------------|

B
While you're breakin' down my back n'
     Db
I been rackin' out my brain
          D
It don't matter how we make it
                               D, Db
'Cause it always ends the same
  B
You can push it for more mileage
          Db
But your flaps r' wearin' thin
           D
And I could sleep on it 'til mornin'
                            D, Db
But this nightmare never ends
B
Don't forget to call my lawyers

        Db
With ridiculous demands
               D
An you can take the pity so far
                                D, Db
But it's more than I can stand
            B
'Cause this couchtrip's gettin' older
         Db
Tell me how long has it been
       D--
'Cause 5 years is forever
An you haven't grown up yet


You could be mine
But you're way out of line
With your bitch slap rappin'
And your cocaine tongue
You get nuthin' done
I said you could be mine


 A      B
You should be
 A      B       F#
You could be mine
 B5            F#
You could be mine (7X)
 B5          F# break
You could be mi---ne

Yeah!

 1/2                      While you're breakin down my       back an' I been
|---------------------------------------------------------------------------|
|17------16-----------------------------------------------------------------|
|------------16--14------------------------14s16-------------16~~~~~~~~~~~~~|
|--------------------16p15p14--122--14--12----------------------------------|
|---------------------------------------------------------------------------|
|---------------------------------------------------------------------------|

  matter how we maek it cause it always
|---------------------------------------------------------------------------|
|--7------------------------------------------------------------------------|
|--7------------------------------------------------------------------------|
|--7-----------------------------7(harmonic)--------------------------------|
|--5------------------------------------------------------------------------|
|---------------------------------------------------------------------------|

 I     said    you                              could       be
|---------------------------------------------------------------------------|
|-------------------------10-------------------------10---------------------|
|9s11--11s14---11-----11------11----------------11-------11-----------------|
|---------------------------------9(full)p7---------------------------------|
|7s9---9s12----------------------------------9---------------------9--9-----|
|---------------------------------------------------------------------------|

you                               should  be         you
|---------------------------------------------------------------------------|
|--------------10------------------------------------------10---------------|
|--------11---------11---11----------------------------11------11------11---|
|-----------------------------9---------------------------------------------|
|9--9----------------------------9----------------------------------9------9|
|---------------------------------------------------------------------------|

could              be                   mine
|-------14--16--14--16--14--------------------------------------------------|
|--11---14--16--14--16--14--------------------------------------------------|
|-----------------------------16----14--16~~~~~~----------------------------|
|---------------------------------------------------------------------------|
|---------------------------------------------------------------------------|

Here's another tab:

|-----------------------------------------|-------------------------------|
|-----------------------------------------|-------------------------------|
|-----------------------------------------|-------------------------------|
|-----------------------------------------|-------------------------------|
|-----------------------------------------|-------------------------------|
|--12-12-12-12-12-12-12-12-9-9-9-9-9-9-7-7|7-7-7-7-7-7-7-7-5-5-4-4-3-3-3-3|

|----14------ Then do some funky feedback with  ---------------|
|----14------                                  ----------------|
|----14------                                  ------2---------|
|------------                                  ------2---------|
|------------                                  ----------------|
|------------                                  ----------------|

  ¼ B     p                                 1/2    p
|------------------------------------------------------------------3-------------------|
|-4-----4---2------------2---------------2-----2-----0-------------3-------------------|
|-4-----4---2------------2---------------2-----2-----0---------------------------------|
|-------------------4----2------------------------------------2------------------------|
|--------------------------------------------------------------------------------------|
|--------------------------------------------------------------------------------------|
  |------Lick 1----------------|        |------Lick 2----------------------------------|

from now on play lick 1 with 1/2 bend.


Note: when playing the bends make sure that you bend both notes.

repeat lick 1 twice    repeat lick 2 twice
repeat lick 1 twice    repeat lick 2 once

|-----3--|
|-----3--|
|--2-----|
|--------|   (then repeat this 5 times)
|--------|
|--------|

Now we have about 4 measures of powerchords ect.
Listen to the song to see how the timing goes(That goes for this whole work)

|--------------------|
|--------------------|
|-----------7------9-|
|-----9-----9------9-|
|-----7-----7------7-|
|--------------------|


Then the main riff that is used through out the chorus and verses is this:
|--------------------------------------------------------------------------------|
|--------------------------------------------------------------------------------|
|---2--4--2--4--2---------------------------------2--4--2--4--2------------------|
|---2--4--2--4--2--4--2------------4--2--4--2--4--2--4--2--2--2--4--2------------|
|------------------4--2--4---------4--2--4--2--4-----------------4--2--4---------|
|------------------------2---------------------------------------------2---------|

A couple people wanted the solo so here it is:


Solo:
You could be mineanother reason to cry---            1/2    1/2 hold------------|
|-------------------------------------------------------------------------------|
|------------------------------9-----9-----9--------9--(9)p7---9--7-------------|
|------------------------------9-----9-----9--------9--(9)p7---9--7-------------|
|-----------------------(9)-9-----9---------------------------------9--7--9~~---|
|-------------------------------------------------------------------------------|
|-------------------------------------------------------------------------------|

                       1/2
|-----------------------------------------------------------------------------|
|---7--9--9--9--7--9-----9--------------------7-------------------------------|
|---7--9--9--9--7--9--7--9----------7h9--9----7--9p7s6---7--6--7--6h7p6----6--|
|---------------------7--------------------7-----------------------------9----|
|-----------------------------------------------------------------------------|
|-----------------------------------------------------------------------------|

                            1/2 1/2~~           1/2     1/2 2(1/2)       F~~
|-----------------------------------------------------------------------------|
|-----------------------------------------------------------------------------|
|---6----------------------------------------------------------------------10-|
|-9----9--9--7-----9---7------------------------7-----------------------9-----|
|---------------9----9---9--8--8---7----(7)p5---7--5--------------------------|
|---------------------------------------------7-------7--7--10--7---(7)s------|

                1/2
|-10------7-------10---x--------10--9h10p9p7-----9-----7h9p7------10-------10-|
|-10~~~~~~--10p7-------x--10p7---------------10----10---------10-----8s12-----|
|-----------------------------------------------------------------------------|
|-----------------------------------------------------------------------------|
|-----------------------------------------------------------------------------|
|-----------------------------------------------------------------------------|

        F(ull)
|--------12-----10--------14-------------17~~~-14--17------------------14-----|
|-12--10------------12--10-----17--14------------------14--17---17~~~~~~---17-|
|--------------------------------------16-------------------------------------|
|-----------------------------------------------------------------------------|
|-----------------------------------------------------------------------------|
|-----------------------------------------------------------------------------|

                                                          F        F     F
|-----17--14-----------------14-------17-----17---14--17----17------17----17--|
|--14--------17p14--17~~~~~-----17p14----14--------------14-------------------|
|-----------------------------------------------------------------------------|
|-----------------------------------------------------------------------------|
|-----------------------------------------------------------------------------|
|-----------------------------------------------------------------------------|

  ½B                      While you're breakin down my       back an' I been
|-----------------------------------------------------------------------------|
|-17------16------------------------------------------------------------------|
|-------------16--14------------------------14s16-------------16~~~~~~~~~~~~~-|
|---------------------16p15p14--122--14--12-----------------------------------|
|-----------------------------------------------------------------------------|
|-----------------------------------------------------------------------------|

 matter how we maek it cause it always
|---------------------------------------------------------------------------|
|--7------------------------------------------------------------------------|
|--7------------------------------------------------------------------------|
|--7-----------------------------7(harmonic)--------------------------------|
|--5------------------------------------------------------------------------|
|---------------------------------------------------------------------------|

  I     said    you                              could       be
|-----------------------------------------------------------------------------|
|---------------------------10-------------------------10---------------------|
|-9s11---11s14---11-----11------11----------------11-------11-----------------|
|-----------------------------------9(full)p7---------------------------------|
|-7s9----9s12----------------------------------9---------------------9--9-----|
|-----------------------------------------------------------------------------|

you                               should  be         you
|-----------------------------------------------------------------------------|
|---------------10------------------------------------------10----------------|
|---------11---------11---11----------------------------11------11------11----|
|------------------------------9----------------------------------------------|
|-9--9----------------------------9----------------------------------9------9-|
|-----------------------------------------------------------------------------|

could              be                   mine
|---------------------------------------------------------------------------|
|-------14--16--14--16--14--------------------------------------------------|
|--11---14--16--14--16--14--------------------------------------------------|
|-----------------------------16----14--16~~~~~~----------------------------|
|---------------------------------------------------------------------------|
|---------------------------------------------------------------------------|

8. Don't Cry

 Intro
  Rock Ballad Q=62
               Am            D
 4/4
  Gtr I
  H    Q  Q    E S S S S S S E S S S S S S
|------------|-------0-------------1-------|
|------------|---------1---------3---3-----|
|------------|-----2-----2-----2-------2---|
|------------|---2---------0-0-------------|
|------------|-0-------------------------0-|
|---------3--|-----------------------------|
|
| Gtr II
| W            W
|------------|-----------------------------|
|------------|-----------------------------|
|------------|-----------------------------|
|------------|-----------------------------|
|------------|-----------------------------|
|------------|-----------------------------|


  G               C
  S S S S S S S S  S      S S S S S S S
|---------3-----------------------------|
|-----------3---------------------------|
|-------0-----0-------------0-----0-----|
|-----0-------------------0-----0-------|
|---2-----------0--3----------2-----3-2-|
|-3-------------------------------------|
|
|                  <
| H                H
|---------------------------------------|
|---------------------------------------|
|-----------------[2]pb4================|
|---------------------------------------|
|---------------------------------------|
|---------------------------------------|


  Am                        D
    E     S   S   S   S S S   E   S S S S S S
|-----------------0-------------------1-------||
|---------------------1-------------3---3-----||
|-------------2---------2---------2-------2---||
|---------2---------------0---0---------------||
|---0---------------------------------------0-||
|---------------------------------------------||
|
|  +E    +E      +Q          +H
|---------------------------------------------||
|---------------------------------------------||
|-([2])r([2])---([2])-------([2])-------------||
|---------------------------------------------||
|---------------------------------------------||
|---------------------------------------------||


  G                      A5
 2/4                    4/4
   S  S S S +S  S S S     W
|---------------------||--------||
|---------------------||--------||
|---------0-(0)-------||--------||
|-------0-------------||--2-----||
|-----2---------------||--0-----||
|--3------------2-3-4-||--------||
|
| +H                     +W
|---------------------||--------||
|---------------------||--------||
|-(2)-----------------||-(2)----||
|---------------------||--------||
|---------------------||--------||
|---------------------||--------||


 1st Verse
  Am            D               G               C
  E S S S S S S E S S S S S S   S S S S S S S S S S S S S S S S
|-------0-------------1-------|---------3-----------------------|
|---------1---------3---3-----|-----------3---------------------|
|-----2-----2-----2-------2---|-------0-----0-------0-----0-----|
|---2---------0-0-----------0-|-----0-------------0-----0-------|
|-0---------------------------|---2-----------0-3-----2-----3-2-|
|-----------------------------|-3-------------------------------|
|
| Gtr III
| Q     S S S S Q     S S S S   Q       S S S S S S S S S S S S
|-------0-------------1-------|---------3-----------------------|
|---------1---1---------3-----|-----------0---0-----------------|
|-----------2-------------2-0-|-0-----------0-------0-----0-----|
|---------------0-------------|-0-----------------2-----0-------|
|-0---------------------------|-----------------3-----2-----3-2-|
|-----------------------------|-3-------------------------------|
|
| Gtr IV
| H                             H
|-----------------------------|---------------------------------|
|-----------------------------|---------------------------------|
|-----------------------------|---------------------------------|
|-----------------------------|---------------------------------|
|-----------------------------|---------------------------------|
|-----------------------------|---------------------------------|


    Am             D
    E  S S S S S S E S S S S S S
|----------0-------------1-------|
|------------1---------3---3-----|
|--------2-----2-----2-------2---|
|------2---------0-0-----------0-|
|---0----------------------------|
|--------------------------------|
|
|   Q      S S S S Q     E   S S
|----------0-------------1-------|
|------------1---1-------------0-|
|--------------2-------------2---|
|------------------0-------------|
|---0----------------------------|
|--------------------------------|
|
| a H.                   Q
|--------------------------------|
|-8p5----------------------------|
|--------------------------------|
|--------------------------------|
|--------------------------------|
|--------------------------------|


  G                C
  S  S S S S S S S S  S S S  S  S S S
|----------3--------------------------|
|------------3------------------------|
|--------0-----0--------0-------0-----|
|------0--------------2------0--------|
|----2-----------0-3------2-------3-2-|
|-3-----------------------------------|
|
| Q        S S S S S  S S S  S  S S S
|----------3--------------------------|
|------------0---0--------------------|
|-0------------0--------0-------0-----|
|-0-------------------2------0--------|
|------------------3------2-------3-2-|
|-3-----------------------------------|
|
| Q.           E   E.     S +E    E
|-------------------------------------|
|-------------------------------------|
|-7------------4---5------4-(4)-------|
|-------------------------------------|
|-------------------------------------|
|-------------------------------------|


    Am             D               G                C
    E  S S S S S S E S S S S S S   S  S S S S S S S S  S S S  S  S S S
|--------3-0-------------1-------|----------3---------------------------|
|------------1---------3---3-----|------------3-------------------------|
|------0-------2-----2-------2---|--------0-----0--------0-------0------|
|----------------0-0-----------0-|------0--------------2------0---------|
|---0----------------------------|----2-----------0-3------2-------3-2--|
|--------------------------------|-3------------------------------------|
|
|   Q      S S S S Q     E   S S   Q        S S S S S  S S S  S  S S S
|----------0-------------1-------|----------3---------------------------|
|------------1---1-------------0-|------------0---0---------------------|
|--------------2-------------2---|-0------------0--------0-------0------|
|------------------0-------------|-0-------------------2------0---------|
|---0----------------------------|------------------3------2-------3-2--|
|--------------------------------|-3------------------------------------|
|
| a H.                   Q         Q.           E   E.     S +E    E
|--------------------------------|--------------------------------------|
|-8p5----------------------------|--------------------------------------|
|--------------------------------|-7------------4---5------4-(4)--------|
|--------------------------------|--------------------------------------|
|--------------------------------|--------------------------------------|
|--------------------------------|--------------------------------------|


  Am                 D
  E    S S  S  S S S E    S S  S  S S S
|-----------0------------------1--------|
|--------------1------------3-----3-----|
|--------2-------2--------2---------2---|
|------2-----------0-0----------------0-|
|-0-------------------------------------|
|---------------------------------------|
|
| Q         S  S S S Q         E    S S
|-----------0------------------1--------|
|--------------1---1------------------0-|
|----------------2------------------2---|
|--------------------0------------------|
|-0-------------------------------------|
|---------------------------------------|
|
| S E.     +Q        S E.     +Q
|---------------------------------------|
|-8p5------(5)-------8p5------(5)-------|
|---------------------------------------|
|---------------------------------------|
|---------------------------------------|
|---------------------------------------|


                                Chorus
  G               C              Csus4/F       G5
  S S S S S S S S S S E E S S    S E. E.     S Q       E S S
|---------3-------------------||---------------3-------3-------|
|-----------3-----------------||-1----1--------3-------3-------|
|-------0-----0-------0---x-x-||-0h2--2------0-0-------0-------|
|-----0-------------2-----x-x-||-3----3------0-0-------0-------|
|---2-----------0-3-----2-x-x-||-3----3------------------3-2---|
|-3---------------------------||-1----1--------3-------3-------|
|
| Q       S S S S S S E E E      S E. S  S S S S S S S E S S
|---------3-------------------||-------------------------------|
|-----------0---0-------------||-1----1----1---------3-3-------|
|-0-----------0-------0-------||-0h2--2--0-2-0-----0-0-0-------|
|-0-----------------2---------||-3----3--3-3-3---0-------------|
|-----------------3-----2-0---||-3-----------------------3-2---|
|-3---------------------------||-1-------------3---------------|
|
| H               H              W
|-----------------------------||-------------------------------|
|-----------------------------||-------------------------------|
|-7---------------------------||-------------------------------|
|-----------------------------||-------------------------------|
|-----------------------------||-------------------------------|
|-----------------------------||-------------------------------|


  Am                                    F
  Q       +E.     S  E    E   S S S S   S S S S  E    E   Q.     E
|-0-------(0)-------------------------|-1-1-1-1--1-----------------|
|-1-------(1)-----x--x----x---x-x-x-x-|-1-1-1-1--1-----------------|
|-2-------(2)-----x--x----x---x-x-x-x-|-2-2-2-2--2--------0--------|
|-2-------(2)-----x--x----x---x-x-x-x-|-3-3-3-3--3----0----------0-|
|-0-------(0)-------------------------|-3--------------------------|
|-------------------------------------|-1--------------------------|
|
| S S S S  S  S S S +S  S S S S S S S   S S S S +S  S S S E  E E E
|-----------------0-(0)---------------|-------1-(1)----------------|
|-------0h=1------------1-----0h1-----|-----1-------1----------3---|
|-----2-------2-----------2-------2-0-|---2---------0h2-2----0-----|
|---2-----------2-----------2---------|-3-----------------0------0-|
|-0-----------------------------------|-------------------2--------|
|-------------------------------------|----------------------------|


  Am        D5/E          Am/E
  E S S S S S S   S S   S S   +S  S S   S
|-------------------0----------------------|
|-----1-1---3-3---3p1---x-1---(1)---0------|
|---2-2-2---2-2---2-----x-2---(2)---0------|
|---2-----2-2-2---2-----x-2---(2)-0-----0--|
|-0----------------------------------------|
|------------------------------------------|
|
| E E   S S S S a S S a S.  T  S  S T T S
|-------------------0----------------------|
|-------0h1---1-3s5---5s3p==1--3--1--------|
|---2-------------------------------2p0----|
|-----------2---------------------------2--|
|-0----------------------------------------|
|------------------------------------------|


  F               G5
  e   S S E   S S E Q.
|----------------------------------|
|-----1---1---1-0-3-3--------------|
|-2---2p0-2---2-0-0-0--------------|
|-3---3---3---3-0-0-0--------------|
|----------------------------------|
|-----------------3-3--------------|
|
| S S S S S S S S E S  S +S  S S S
|----------------------------------|
|-----1---0h1----------3-(3)-------|
|---2---2-----2-0---0--------0---0-|
|-3-----------3--------------------|
|-----------------2------------2---|
|----------------------------------|


  C               Am      G5        F          G5
  E   S S E   S S S S S S S S S S   Q  S S S S E S S +E  S S
|-------------3-----0-5---------3-|-1------------3-------------|
|-1-----1-------1-1-----1-----1---|-1------1---3-3-3-(3)-------|
|-0---0-----------2---------0-----|-2--0h2-2-0-0---0-(0)-------|
|-2---------------2-------0-------|-3--3---3-0-0---------------|
|-3-------2-------0---------------|-3--------------------2-0---|
|-------------------------3-------|-1----------3---------------|
|
| S S S S S S S S S S S S S S S S   Q  S S S S E E    E  E
|---------------------------------|-1-----------------3--------|
|-------1-------1-------1---------|-1------1---3---------0-----|
|-----0-------0-------2---------0-|-2--0h2---0-0-0-------0-----|
|---2-------0-------2---------0---|-3----------0-0-------0-----|
|-3-------2-------0---------2-----|-3--------------------------|
|-------------------------3-------|-1----------3---------------|


  Am
  W
  E. S +S  Q  S +S  S S S +E
|-----------------------------||
|-1-----------0-(0)h1---------||
|-2--------2------------2-(2)-||
|-2--2-(2)------------2-------||
|-0---------------------------||
|-----------------------------||
|
| W
|-0---------------------------||
|-1---------------------------||
|-2---------------------------||
|-2---------------------------||
|-0---------------------------||
|-----------------------------||


 2nd Verse
  Am           Dm           G5
  Gtr IV
  Q.       S S Q.     S S   H           H
  |        | | |      | |   |
  /        / / /      / /   /

  H            H            H           H
|-------------------------|------------------------------|
|-5-----------------------|------------------------------|
|-------------------------|-7----------------------------|
|-------------------------|------------------------------|
|-------------------------|------------------------------|
|-------------------------|------------------------------|
|
| E  E S S S S E  E E S S   E S S E S S S S S S S S S S
|-------------------1-----|-------3----------------------|
|------0h1--------3-----0-|-----0-----0------------------|
|----2----------------2---|-0-0-----0-------0-----0------|
|----------2-2-0----------|-0-------------2-----0--------|
|-0-----------------------|-------------3-----2-----3-2--|
|-------------------------|-3----------------------------|


     Am            Dm                G5
  E  S S +S  S S S E   Q       S S   E S S E   S S H
  |  | |  |  | | | |   |       | |   | | | |   | |
  o  / /  /  / / / /   /       / /   / / / /   / /

  E.   S +Q        H                 H             H
|----------------------------------|-------------------------------|
|-8----5-(5)-----------------------|-------------------------------|
|----------------------------------|-7-----------------------------|
|----------------------------------|-------------------------------|
|----------------------------------|-------------------------------|
|----------------------------------|-------------------------------|
|
| E  E    S  S S S S S S S S S S S   E S S S S S S S S S S S S S S
|---------0----------------1-------|-------3-----------------------|
|------------1---1-----3-----3-----|---------0---0-----------------|
|----2---------2-----2---2-----2-0-|-----0-----0-------0-----0-----|
|------------------0---------------|---0-------------2-----0-------|
|-0--------------------------------|---------------3-----2-----3-2-|
|----------------------------------|-3-----------------------------|


     Am                 DmDsus2  Dm    G5
  E  S S +S S S S +E    S S +E   S S   E   Q       E   H
  |  | |  | | | |  |    | |  |   | |   |   |       |
  o  / /  / / / /  o    / /  /   / /   /   /       /

  E.   S +Q        E.     S +Q         H               H
|------------------------------------|----------------------------------|
|-8----5-(5)-------8------5-(5)------|----------------------------------|
|------------------------------------|-7--------------------------------|
|------------------------------------|----------------------------------|
|------------------------------------|----------------------------------|
|------------------------------------|----------------------------------|
|
| E  E    S S S S  S  S S S  S S S S   S S S S S S S S S S S S S S S S
|----------------------------0h1-----|---------3------------------------|
|---------0h1-----------3----------0-|-------0---0---0------------------|
|----2----------------2---2------2---|---0---------0-------0-----0------|
|-------------2-2--0-----------------|-----0-------------2-----0--------|
|-0----------------------------------|-----------------3-----2-----3-2--|
|------------------------------------|-3--------------------------------|


     Am                 DmDsus2 G5
  E  S S +S  S S S E    S S +S  S S S
  |  | |  |  | | | |    | |  |  | | |
  o  / /  /  / / / o    / /  /  / / /

  E.   S +Q        E.     S +Q
|-------------------------------------||
|-8----5-(5)-------8------5-(5)-------||
|-------------------------------------||
|-------------------------------------||
|-------------------------------------||
|-------------------------------------||
|
| E  S S  S  S S S S  S S S  E    S S
|------0--0---------------0--1--------||
|------------1---1------3-----------0-||
|----2---------2------2-----------2---||
|------------------0------------------||
|-0-----------------------------------||
|-------------------------------------||


  G5               C       B/A     Am      G
 2/4              4/4
  E S S E   E      W
  | | | |   |
  / / / /   /

  H                W
|---------------||----------------------------------||
|---------------||----------------------------------||
|-7-------------||----------------------------------||
|---------------||----------------------------------||
|---------------||----------------------------------||
|---------------||----------------------------------||
|
| E S S S S S S    S S S S S S S S S S S S S S S S
|-------3-------||----------------------------------||
|-3-------3---0-||-------1-------1-------1----------||
|-----------0---||-----0-------0-------2---------0--||
|---0-0---------||---2-------0-------2---------0----||
|---------------||-3-------2-------0---------2------||
|---------------||-------------------------3--------||


 Chorus
  F            G5                    Am      Asus4 Am7 Am
  Q    S S S S E   E   E   S S   E   S S E   S S S S S S +S S S S
  |    | | | | |   |   |   | |   |   | | |   | | | | | |  | | | |
  /    / / / / /   /   /   / /   o   / / /   / / / / / /  / / / /

  S E. S S S S S S S S S S S S   S S S S S S S S S S S S  S S E
|------------------------------|-----------------3-0--------------|
|-1----1-1-1-1-------3---------|-------0h1-----------1------1-----|
|-0h2--0-2-2-0-----0---0-------|-----2-----2---2-------2----------|
|-3----3-3-3-3---0-------0-----|---2---------2------------2-------|
|-3------------2-----------3-2-|-0----------------------------3---|
|-1----------------------------|----------------------------------|


  F                                Am          AsAm4      G5
  E   Q.        E E   +S S S S   E S S E   S S S S S S +S S S S
  |   |         | |    | | | |   | | | |   | | | | | |  | | | |
  /   /         o o    / o o o   / / / /   / / / / / /  / / / /

  S S S S E S S E S S  E   S S   E S S S S S S S S S S  S S S S
|------------------------------|-----------0-----0-0----0-------|
|---------1-1-1-----3--3-------|-----1-3s5---5s8---8s5--5s3-3p1-|
|-----0h2-2-2-0---0------------|---2----------------------------|
|---3-----3-3-3----------------|--------------------------------|
|-3-------------2----------2-0-|-0------------------------------|
|------------------------------|--------------------------------|


  F               G5            C5 G/BA5 G5
                                Gtr V
  E E S S S S S S E    E  S S   Q  Q  Q  Q
  | | | | | | | | |    |  | |   |  |  |  |
  / / / / / / o o /    /  / /   /  /  /  /

  Q   S S S S S S S S +E  S S   W
|-----------------------------|-------------|
|-1-------1---------3-(3)-----|-------------|
|-----0h2---0-----0-----------|-------------|
|-----3---------0-------------|-------------|
|-------------2-----------3-2-|-------------|
|-----------------------------|-------------|


              Guitar Solo
  F5   G5      A5
  H    H        H     +S S S S E     E
  |    |        |      | | | | |     |
  /    /        /      / / / / /     /

            Gtr II
                ~~~
                                     |-3--|
  W             H.             E    +S  S S
|-----------||------------------------------|
|-----------||------------------------------|
|-----------||-----------------7b9==(7)r7p5-|
|-----------||-[7]--------------------------|
|-----------||------------------------------|
|-----------||------------------------------|


  D5                    F5
  Q.              +E    H
  |                |    |
  /                /    /

      ~~~~~~~                    ~~~~~~
  E  +E  +S  S    +S  S S    +S  E +S  S +S  S
|----------------------------------------------|
|--------------------------------8-(8)---------|
|-7--(7)-(7)-7pb8r(7)p5-7b9==(7)-------7r(7)p5-|
|----------------------------------------------|
|----------------------------------------------|
|----------------------------------------------|


  G5                           A5   G5             F5                  G5
  H                            E.   S +Q           H                    H
  |                            |    |  |           |                    |
  /                            /    /  /           /                    /

                               ~~
  S    +S  S S S +S  S     +S  E  E    S   +S  E   S S S  S S  S  S  S  S  S  S  S  S  S  E
|------------------------------------------------|---------------------------------------------|
|----------8-8-----------------------------------|---------------------------------------13b17-|
|-7b9==(7)-----7r(7)-5b5.5-(5)-------------------|-7s9-9s10------------------------12h14-------|
|------------------------------7--5--------------|---------------------10h12-12s14-------------|
|--------------------------------------5b6r(5)-3-|-5s7-7s=8-8h10-10s12-------------------------|
|------------------------------------------------|---------------------------------------------|


  A5                                                            G5
   H                           +S     S  S     S     S     S     E
   |                            |     |  |     |     |     |     |
   /                            /     /  /     /     /     /     /

           ~~
   E       E  S  S  T  T  T  T  T  T  S  T  T  T  T  S     T  T  S  +S
|------------------------------------------------------------------------|
|-13b13.5----------------------------------------------------------------|
|---------14-12----------------------------------------------------------|
|---------------14-13h14p13p12-13p12-10-12p10-------10b11----------------|
|---------------------------------------------12p10-------12p10-12-(12)\-|
|------------------------------------------------------------------------|


  F5                         G5
   H                          H
   |                          |
   /                          /

   E      S  S  S  S  +S   S  E      S  S  S  +S   S  S
|--------15-15-15-------------------15-15---------------|
|-15b17===========15r(15)p13-15b17========15r(15)-13-12-|
|-------------------------------------------------------|
|-------------------------------------------------------|
|-------------------------------------------------------|
|-------------------------------------------------------|


  E5                        F5
   E    S    S  E    S    S  E    S    S  S  S  S    S
   |    |    |  |    |    |  |    |    |  |  |  |    |
   /    /    /  /    /    /  /    /    /  /  /  /    /

                                                ~~~~~~~~
   |---3---|    |---3---|    |---3---|
   E  E    E    E  E    E    E  E    E    S  S  E
|----------------------------------------13------------|
|---------12S==15-13---12---13--------------13-15b17---|
|----13------------------------14----------------------|
|-14--------------------------------15-----------------|
|------------------------------------------------------|
|------------------------------------------------------|


                           G5
   Q.               S S     Q.                S S
   |                | |     |                 | |
   /                / /     /                 / x

 ~~~~~
   Q    S      +S   S S    +S  S S S S    +S  S T T
|------------------------------5--------------------|
|-15---15pb17r(15)p13-8b10-(8)---8-5------------x-x-|
|------------------------------------7pb9r(7)p5-x-x-|
|---------------------------------------------------|
|---------------------------------------------------|
|---------------------------------------------------|


                         3rd Verse
  A5                      Dm                     G5
  W                        W
  |
  /

                       Gtr I
  W                        E.     S  E       S S Q     +E    a  S     S
|----------------------||--1------1--1-------1-0-3-----(3)--------------|
|----------------------||--3------3--3-------3-0-3-----(3)--------------|
|----------------------||--2------2--2-------2-0-0-----(0)------------0-|
|----------------------||--0------0--0-------0-0-0-----(0)--------------|
|----------------------||------------------------------------1s=2-------|
|----------------------||------------------------3-----(3)--------------|
|
|                      Gtr III
| W                        S  S S S  S     S S S E S S  S  S    S     S
|----------------------||------------1------------------3---------------|
|----------------------||-------3----------3---3-----------0----------0-|
|----------------------||-----2---2----------2------------------0-------|
|----------------------||--3-------------------------0------------------|
|----------------------||--------------------------2--------------------|
|----------------------||------------------------3----------------------|
|
| Gtr VI
|        ~~~~~~~~~
| Q     +Q   +Q.   +E     +Q         H                 +E      +E
|----------------------||-----------------------------------------------|
|-8--------------------||-----------[5]b6==============(5)r====(5)b6====|
|-7b9===(7)--(7)r==(7)-||-(7)-------------------------------------------|
|----------------------||-----------------------------------------------|
|----------------------||-----------------------------------------------|
|----------------------||-----------------------------------------------|


  C         B/A           A
    W
    S   S S S   S   S S S   S    S  S  S S S S S
|--------------------------------0-----0-----------|
|--------------------------------------1-----------|
|---------0---------0---------------2----0---2-0---|
|-------0-------0-------------------2----0---2-0---|
|---3-------2---------3-2---0--------------0-------|
|--------------------------------------------------|
|
|   S   S S S   S   S S S   S    S  S  S S S S S
|--------------------------------0-----------------|
|--------------------------------------0h1---------|
|---------0---------0---------------2------2---2---|
|-------2-------0----------------------------2-----|
|---3-------2---------3-2---0----------------------|
|--------------------------------------------------|
|
|                           \1.5
|  +Q          +Q          +S    S  E    Q
|--------------------------------------------------|
|-([5])-------([5])r======([5])----<5>-------------|
|--------------------------------------------------|
|--------------------------------------------------|
|--------------------------------------------------|
|--------------------------------------------------|


  D5            G5              C                     Am7/EsusAm/EEsus4
                                                          |---3---|
  E S S E   S S E S S S S S S   E   +S  S E   S S E   E   E   E   E
|---1-1-1---1-0---3-3-3-3-3-0-|-----------------------3---------------|
|---3-3-3---3-0---3-3-3-3-3-0-|-----------------------1---0---1---0---|
|-2-2-2-2---2-0-0-0-0-0-0-0-0-|---------0-------------2---2---2---2---|
|-0-0-0-0---0-0-0-0-0-0-0-0-0-|-----------------------2---2---2---2---|
|-----------------------------|-3---(3)---2---3-2-0-------------------|
|---------------3-------------|---------------------------------------|
|
| E S S S S S S E S S S S S S   S S  S  S S S S S S S S S S S   S   S
|-------0h1-----------3-------|---------------------------------------|
|-----3-----3-----------0---0-|-------------------------1-0-----------|
|---2---------0-----0-----0---|------0------0---------2-----2-------3-|
|-0---------------0-----------|---2-------0---------2-----------2-----|
|-----------------------------|-3-------2-----3-2-0-------------------|
|---------------3-------------|---------------------------------------|


  D5              G5
  E   S S E   S S E   S S S S S S
|-----1-1-1---1-0-----3-3-3-3-3-3-|
|-----3-3-3---2-0-----3-3-3-3-3-3-|
|-2---2-2-2---3-0-0---0-0-0-0-0-0-|
|-0---0-0-0---0-0-0---0-0-0-0-0-0-|
|---------------------------------|
|-----------------3---------------|
|
| S S S S S S S S S S S S S S S S
|-------1-0h1-------------3-------|
|-----3-------3-------------0---0-|
|---2-----------2-------0-----0---|
|-0-------------------0-----------|
|-------------------2-------------|
|-----------------3---------------|


  C                   Am/E              Dm          G5
  S S S S S S S S E   e   S S S S   E   S S E   S S E   S S S S S S
|---------------------0---0-0-----|-----1-1-1---1-0-----3-3-3-3-3-0-|
|---------------------1---0-1-1-0-|-----3-3-3---3-0-----3-3-3-3-3-0-|
|-----0-----0---------2---2-2-2-2-|-2---2-2-2---2-0-0---0-0-0-0-0-0-|
|---0-----0-----------2---2-2-2-2-|-0---0-0-0---0-0-0---0-0-0-0-0-0-|
|-3-----2-----3-2-0---------------|---------------------------------|
|---------------------------------|-----------------3---------------|
|
| S S S S S S S S S S S S S S S S   S S S S S S S S S S S S S S S S
|---------------------------------|---------0h1-------------3-------|
|-----------------------0h1-------|-----3---------------------0---0-|
|-----0-----0---------2-----2---2-|---2---2---------------0-----0---|
|---2-----0---------2---------2---|-0-----------0-0-----0-----------|
|-3-----2-----3-2-0---------------|-------------------2-------------|
|---------------------------------|-----------------3---------------|


                                    Chorus
  C5      G/B     A5      G5         F5         G5
  Gtr V
  Q       Q       Q       Q          H          H
  |       |       |       |          |          |
  /       /       /       /          /          /

  S S S S S S S S S S S S S S S S    Q  S S S S E S S +E  S S
|---------------------------------||-1--1-1-1-1-----3-(3)-----|
|-------1-------1-------1-------0-||-1--1-1-1-1-3-3-3-(3)-3-3-|
|-----0-------0-------2-------0---||-2--2-2-2-2-0-0-------0-0-|
|---2-------0-------2-------0-----||-3--3-3-3-3-0-0-------0-0-|
|-3-------2-------0---------------||-3------------------------|
|-------------------------3-------||-1----------3-------------|


  A5
   H                         S     S  S S  E       S S
   |                         |     |  | |  |       | |
   /                         /     /  / /  /       / /

                                      PM|
   E     S S  S S  S   S     S     S  S S  S   S   S S
|--------0-0--0-0--0-----------------------------------|
|--------1-1--1-1--1---3-----------1-------0h==1-------|
|--------2-2--2-2--2---2-----------2-------2-------2-0-|
|--------2-2--2-2--2---2-----------2-------2-------2-0-|
|--0----------------------------------0-0--------------|
|------------------------------------------------------|
|
| Gtr II
|                                  ~~~
|                      |---3----|
|  Q          E    S  +S   S    S  E.      S  +S   e
|------------------------------------------------------|
|-15b17======15---15-(15)-15---15-15------15r(15)-13---|
|------------------------------------------------------|
|------------------------------------------------------|
|------------------------------------------------------|
|------------------------------------------------------|


  F5                    G5               A5
   Q.               S S   H               Q.         S S  E           S   S  E        S     S
   |                | |   |               |          | |  |           |   |  |        |     |
   /                / /   /               /          / /  /           /   /  /        /     /

                                                     PM|
                                                                             |-----3-----|
   E     S S   S  S S S   E    E   E E    E    E S S S S  S    S      S   S  E    E      E
|--1-----------------------------------|------------------------------------------------------|
|--1-----1-1---1--1-1-----3----3---3-3-|---------0h1------1------------------1----3------3----|
|--2-----2-2---2--2-2-----0----0---0-0-|--2------2--------2------------------2----0------0----|
|--3-----3-3---3--3-3-3---0----0---0-0-|--2------2--------2------------------2----0------0----|
|--3-----3-3---3--3-3-3----------------|-------0-----0-0-------0------0---0--0----------------|
|--1-----1-1---1--1-1-1---3----3---3-3-|------------------------------------------3------3----|
|
|        ~~~~~~~~~                        ~~~~~
|  S  S  E    +Q         +E   +E   Q      H               S.      T  +S   S  E       +S     S
|--------------------------------------|-15b17-----------15b17---15-(15)-12-------------------|
|-15p13--------------------------------|------------------------------------15b16r==(15)p==13-|
|-------14---(14)-------(14)-(14)\-----|------------------------------------------------------|
|--------------------------------------|------------------------------------------------------|
|--------------------------------------|------------------------------------------------------|
|--------------------------------------|------------------------------------------------------|


  F5               G5
   H                H
   |                |
   /                /

   E  S  S S S S S  E  E E  E
|--1-----------------------------|
|--1--1--1-1-1-1-1--3--3-3--3----|
|--2--2--2-2-2-2-2--0--0-0--0----|
|--3--3--3-3-3-3-3--0--0-0--0----|
|--3--3--3-3-3-3-3---------------|
|--1--1--1-1-1-1-1--3--3-3--3----|
|
|     ~~~              ~~
|  E  Q.            E  Q    S  S
|--------------------------------|
|-15p13------------15-15---13-15-|
|--------------------------------|
|--------------------------------|
|--------------------------------|
|--------------------------------|


  C5          G/B      A5          G5
   Q           Q        Q           Q
   |           |        |           |
   /           /        /           /

   S    S S S  S S S S  S    S S S  S       S    S  S
|-----------------------------------------------------|
|-----------1--------1-----------1------------------0-|
|---------0--------0-----------2-----------------0----|
|-------2--------0-----------2--------------0---------|
|--3-----------2--------0-----------------------------|
|-----------------------------------3-----------------|
|
|              ~~
|  Q           Q        Q           S      +S   +E
|-----------------------------------------------------|
|-15b17-------15-------12b13-------12b13==(12)r(12)---|
|-----------------------------------------------------|
|-----------------------------------------------------|
|-----------------------------------------------------|
|-----------------------------------------------------|


  F5           G5                        F5                   G5
   Q.      S S  H                          Q.            S  S H
   |       | |  |                          |             |  | |
   /       / /  /                          /             /  / /

   Q   S S S S  S     S   S  S S S S S     E  S S   E    S  S S S S S S S S S
|--1---1-1-1-1--3-----3---3--3-3-3-3-3-|---1--1-1---1----1--1-3-3-3-3-3-3-3-3-|
|--1---1-1-1-1--3-----3---3--3-3-3-3-3-|---1--1-1---1----1--1-3-3-3-3-3-3-3-3-|
|--2---2-2-2-2--0-----0---0--0-0-0-0-0-|---2--2-2---2----2--2-0-0-0-0-0-0-0-0-|
|--3---3-3-3-3--0-----0---0--0-0-0-0-0-|---3--3-3---3----3--3-0-0-0-0-0-0-0-0-|
|--3---3-3-3-3-------------------------|---3--3-3---3----3--3-----------------|
|--1---1-1-1-1--3-----3---3--3-3-3-3-3-|---1--1-1---1----1--1-3-3-3-3-3-3-3-3-|
|
|  ~~~
|  H            E        +Q.              +Q       +E   +E    H
|--------------------------------------|--------------------------------------|
|-10-----------10b12====(10)-----------|-(10)-----(10)r(10)-------------------|
|--------------------------------------|--------------------------------------|
|--------------------------------------|--------------------------------------|
|--------------------------------------|--------------------------------------|
|--------------------------------------|--------------------------------------|


  F5           G5            F5  E5              F5
  H            Q       E   E     S S S S S S S S S S S S S S S S
  |            |       |   |     | | | | | | | | | | | | | | | |
  /            /       /   /     / / / / / / / / / / / / / / / /

  E. S S S S S S S S S S S S S   S S S S S S S S S S S S E   S S
|------------------------------|-0-----0-0-0-0-0-1-1-1-1-1---1-1-|
|----1-1---1---3-3-3-3-3-3-3-3-|-0---0---0-0-0-0-1-1-1-1-1---1-1-|
|-2----0h2-0---0-0-0-0-0-0-0-0-|-1-1-------------2-2-2-2-2---2-2-|
|-3----3-----3-0-0-0-0-0-0-0-0-|-2---------------3-3-3-3-3---3-3-|
|-3----------3-----------------|-2-------------------------------|
|-1------------3-3-3-3-3-3-3-3-|-0-------------------------------|


             G5
   H          H
   |          |
   /          /

   E E E S S  S  S  S S   S  S  S  S
|--1-1-1-1-1--3--3--3-3---3--3--3--3-|
|--1-1-1-1-1--3--3--3-3---3--3--3--3-|
|--2-2-2-2-2--0--0--0-0---0--0--0--0-|
|--3-3-3-3-3--0--0--0-0---0--0--0--0-|
|--3-3-3-3-3-------------------------|
|--1-1-1-1-1--3--3--3-3---3--3--3--3-|
|
| Gtr II
|  H          Q           E     S  S
|------------------------------------|
|------------------------------12h13-|
|------------------------------------|
|------------------------------------|
|------------------------------------|
|------------------------------------|
|
| Gtr VI
|  H          S  E.      +Q
|------------------------------------|
|------------------------------------|
|-10---------10s12------(12)---------|
|------------------------------------|
|--8----------8s10------(10)---------|
|------------------------------------|


  F5                         G5
   H                          H
   |                          |
   /                          /

   S  S  S S   S  S  S     S  E     S S  E     S  S
|-----------------------------3-----3-3--3-----3--3-|
|--1-----1-1---1-----1--------3-----3-3--3-----3--3-|
|--0h=2--2-2---0h=2--0h====2--0-----0-0--0-----0--0-|
|--3-----3-3---3-----3--------0-----0-0--0-----0--0-|
|--3-----3-3---3-----3------------------------------|
|--1-----1-1---1-----1--------3-----3-3--3-----3--3-|
|
|  ~~~                        ~~~
|  Q.                E        H
|---------------------------------------------------|
|-------------------15b17----15---------------------|
|-14------------------------------------------------|
|---------------------------------------------------|
|---------------------------------------------------|
|---------------------------------------------------|
|
|  S  E.      +E     S     S  S  E.      S  S  S  S
|---------------------------------------------------|
|---------------------------------------------15s12-|
|-12s14------(14)---12----14-14-16------16s14-------|
|---------------------------------------------12s=9-|
|-10s12------(12)---10----12-12s14------14s12-------|
|---------------------------------------------------|


                      H.=H
  F5              G5
   H               H
   |               |
   /               /

   Q   E   S    S  Q   E           S  S
|--1---1--------------------------------|
|--1---1---1-------3---3-----------3--0-|
|--2---2---2----0--0---0-----------0--0-|
|--3---3---3----0--0---0-----------0--0-|
|--3---3--------------------------------|
|--1---1-----------3---3-----------3----|
|
|                  ~~
|  Q.      E       Q   S      +S   S  S
|-13------15b17---15--------------------|
|---------------------15pb17r(15)-13----|
|------------------------------------14-|
|---------------------------------------|
|---------------------------------------|
|---------------------------------------|
|
|  Q.     +E       H
|---------------------------------------|
|-13-----(13)\--------------------------|
|---------------------------------------|
|-10-----(10)\--------------------------|
|---------------------------------------|
|---------------------------------------|


  C5
   W                         +W                    +H     H
   |                          |                     |
   /                          /                     /

                                                    >
   E  Q.   +H                +W                    +H     H
|-------------------------:---------------------:--------------|
|--1-(1)---(1)------------:--(1)----------------:--(1)---------|
|--0-(0)---(0)------------:--(0)----------------:--(0)---------|
|--0h=2----(2)------------:--(2)----------------:--(2)---------|
|--3-(3)---(3)------------:--(3)----------------:--(3)---------|
|-------------------------:---------------------:--------------|
|
|  W                         +W                    +H     H
|-------------------------:---------------------:--------------|
|-13----------------------:-(13)----------------:-(13)---------|
|-------------------------:---------------------:--------------|
|-------------------------:---------------------:--------------|
|-------------------------:---------------------:--------------|
|-------------------------:---------------------:--------------|
|
|                  <                      >
|  H        Q   E  E         +E   +Q.    +H        +H     H
|-------------------------:---------------------:--------------|
|-------------------------:---------------------:--------------|
|-----------------12pb14==:=(12)r(12)---(12)----:-(12)---------|
|-------------------------:---------------------:--------------|
|-------------------------:---------------------:--------------|
|-------------------------:---------------------:--------------|


 Free Time
  N.C.
   S  S  E  E  E  S  S  E  E  S  S
|-12-12----------12-12----13-------:
|-------13-13-13-------13----------:
|----------------------------12s14-:
|----------------------------------:
|----------------------------------:
|----------------------------------:


                                          >
   E  E  E  S  S  +S  S E a E E   S S E a E E H
|-13----12----10-(10)---8-------:------------------*|
|-------------------------------:------------------*|
|----12----10---------9---5h7-5-:-----5------------*|
|-------------------------------:-5h7--------------*|
|-------------------------------:-------6h7--------*|
|-------------------------------:------------------*|

9. November Rain

Fmaj7                  Dm9                       C      Csus4  C
When I look in to your eyes i can see a love restrained
Fmaj7              Dm9                                    C      Csus4  C
but darlin' when i hold you, don't you know i feel the same?
Dm               G                                     C
nothing lasts for ever and we both know hearts can change
Dm                        G                            C
and it's hard to hold a candle in the cold november rain
Fmaj7                              Dm
we've been through this such a long long time just tryin' to kill the pain
C Csus4  C   Fmaj7                                             Dm
oh_ yeah___  but lovers always come and lovers always go and no one's
                                C    Csus4        C
really sure who's letting go today__  walking a way__
Fmaj7                                                    Dm
if we could take the time to lay it on the line, i could rest my head
                         C  Csus4        C     Dm
just knowing that you were mine  all mine
                      G                             C
so if you want to love me, then darlin' don't refrain
Dm                      G                           C
or i'll just end up walkin' in the cold november rain
           F                    G
do you need sometime on your own
          F                  G
do you need sometime all alone
              F                          G
ooh, everybody needs sometime on their own
                         F                     G
ooh, don't you know you need some time all alone
E5            F5            C5        E5                F5
i know it's hard to keep an o-pen heart when even friends seem
           D5                    E5            F5              C5
E|-----------------------------------------------------------------------|
B|--------------3-5-5br-3------------------------------------------------|
G|-------------------------4br~~~----------------------------------------|
D|-----------------------------------------------------------------------|
A|-----------------------------------------------------------------------|
E|-----------------------------------------------------------------------|
out to harm you                      but if you could heal a broken heart

E|----------------------------|
B|----------------------------|
G|-/5~~~~-------4br~~~~--2--0-|
D|----------------------------|
A|----------------------------|
E|----------------------------|

E5             F5              G5
   wouldn't time be out to charm you woh_____________

  Guitar solo 1:
E|-----------8-----------------------------8------------8~~~~~~-------|
B|-b8---r8b----8---r(8)p6--8brbr----r8b------r8--5br~~----------5brbr-|
G|--------------------------------------------------------------------|
D|--------------------------------------------------------------------|
A|--------------------------------------------------------------------|
E|--------------------------------------------------------------------|

E|------------------------------------------------------------------|
B|-5~~----------8------------------------8--------------------------|
G|-----7p5--7/9---9\7--5---b8-------r8b----8--r(8)p6--8brb-----r8b--|
D|------------------------------------------------------------------|
A|------------------------------------------------------------------|
E|------------------------------------------------------------------|

E|-8-8br---10b(hold)-8h10p8----8-------13p12-----13p12----13b---13~~~~--|
B|--------------------------10---11b----------13-------13---------------|
G|----------------------------------------------------------------------|
D|----------------------------------------------------------------------|
A|----------------------------------------------------------------------|
E|----------------------------------------------------------------------|

E|----12--13-12h13p12---------12-13br-13-12-12b-12~~~-20--(20)~~~-|
B|-15-----------------15~~-15-------------------------------------|
G|----------------------------------------------------------------|
D|----------------------------------------------------------------|
A|----------------------------------------------------------------|
E|----------------------------------------------------------------|

E|-19-19--19\17--17\15--15\13--13--13\12--12--12h13p12-----12h13~~~|
B|------------------------------------------------------15---------|
G|-----------------------------------------------------------------|
D|-----------------------------------------------------------------|
A|-----------------------------------------------------------------|
E|-----------------------------------------------------------------|

E|-12-13-12h13p12--------12---------------------------------------------|
B|----------------15p13-----13---15h17p15-15-12h13-12h13p12--------12---|
G|-----------------------------------------------------------14p12------|
D|----------------------------------------------------------------------|
A|----------------------------------------------------------------------|
E|----------------------------------------------------------------------|

E|-------------------------------------------------------------|
B|----10-----------------------------13~~~~--------------13~~~-|
G|-12----10--12--10--9~~~~--12p10\9-----------10h12p10\9-------|
D|-------------------------------------------------------------|
A|-------------------------------------------------------------|
E|-------------------------------------------------------------|

E|--------------------------15--------------------|
B|-------------15b-------------r15---13-----(13)b-|
G|-10h12p10\9-------------------------------------|
D|------------------------------------------------|
A|------------------------------------------------|
E|------------------------------------------------| (end of solo 1)

   F                    G                   F
E|----------------------------------------------------------|
B|-13-----------(13)b-------------------6-5-----------------|
G|----------------------------5h7p5----------5---------5h7--|
D|-----------------------------------7----------7-----------|
A|----------------------------------------------------------|
E|----------------------------------------------------------|
need some time on my own  sometimes i need sometime all alone

      G                         F                 G
E|------------------------------------------------------------------------|
B|------6b-------6p5----6---5---------------------------------------------|
G|----------------------------5-------------5h7-------------5h7p5---------|
D|-7-5---------------------------7----------------------7----------7------|
A|------------------------------------------------------------------------|
E|------------------------------------------------------------------------|
      ooh, everybody needs sometime on their own  ooh, don't you know you

 F                G
E|-----------------------------------------------------------|
B|-6--5------------------------------------------------------|
G|------5---------------------7--9--10--12--14--16--17--19---|
D|--------7--------------------------------------------------|
A|-----------------------------------------------------------|
E|-----------------------------------------------------------|
need sometime all alone

  Guitar solo 2:
E|--------------------------------------20---------------20---------19b-|
B|-----------------------18~~~~~~-20b------r20-----(20)b----18-17~------|
G|-7-9-10-12-14-16-17-19------------------------------------------------|
D|----------------------------------------------------------------------|
A|----------------------------------------------------------------------|
E|----------------------------------------------------------------------|

        w/Fill 2.
E|----------------------17--------------------------------------------------|
B|-17b-rb-r----17-18-20----18--20-17-18-20--17br-17-------------------------|
G|----------19--------------------------------------19brp17--19p17-----17---|
D|------------------------------------------------------------------19------|
A|--------------------------------------------------------------------------|
E|--------------------------------------------------------------------------|

E|-----------------------------------------------------------------------|
B|-20---------------20----------------20b--20--18h20p18p17--18-17h18p17--|
G|----17-17------17----17-17-17----17------------------------------------|
D|-----------19-----------------19---------------------------------------|
A|-----------------------------------------------------------------------|
E|-----------------------------------------------------------------------|

E|------------------------------------|
B|-----17------20---------------------|
G|-19-----19b------19---17~~~~--------|
D|------------------------------------|
A|------------------------------------|
E|------------------------------------| (end of solo 2)

Fmaj7                      Dm                     C Csus4       C
and when your fears subside and shadows still remain  oh_ yeah_
Fmaj7                Dm
i know that you can love me when there's no one left to blame
C      Csus4      C                    Dm
ah______________________________________
                    G                          C
so nevermind the darkness we still can find a way
Dm                G                          C5      G/B
nothing lasts forever even cold november rain

end solo
E--2O--------19----- 2O-|-(2O)-------2O--19--2O--15---------15--|
B-----------------------|----------------------------16---------|
G-----------------------|---------------------------------------|
D-----------------------|---------------------------------------|
A-----------------------|---------------------------------------|
E-----------------------|---------------------------------------|

E-16----151615------15----------15-|
B-----------------18---------18----|
G----------------------------------|
D----------------------------------|
A----------------------------------|
E----------------------------------|

E---16---15--1615----------------15-------------------------------|
B------------------18-16----16-18----18-16-18-15-16--18-16-15-16--|
G------------------------17---------------------------------------|
D-----------------------------------------------------------------|
A-----------------------------------------------------------------|
E-----------------------------------------------------------------|

E-----------------------------------------------------------------|
B---15-----------------15--16--18--15--16--18---15----------------|
G------------------17-------------------------------17------------|
D-----------------------------------------------------------------|
A-----------------------------------------------------------------|
E-----------------------------------------------------------------|

E-2O-----------------19----------2O-|-(2O)---2O--19--2O--15------15-|
B-----------------------------------|------------------------16-----|
G-----------------------------------|-------------------------------|
D-----------------------------------|-------------------------------|
A-----------------------------------|-------------------------------|
E-----------------------------------|-------------------------------|

E--16-----151615----15---------------|
B-----------------18-------15-16-18--|
G------------------------------------|
D------------------------------------|
A------------------------------------|
E------------------------------------|

E-15-16-151615------15-----15---------------------15-1615----15------|
B-------------18-16---16-18--1816-18-16--15-16-18--------1816---1618-|
G--------------------------------------17----------------------------|
D--------------------------------------------------------------------|
A--------------------------------------------------------------------|
E--------------------------------------------------------------------|

E-15-----------------------------------------------------------------|
B---18-16----15-16-18-15----16-15------------------------------------|
G---------17-------------17-------17-15-17--151315131513-------------|
D---------------------------------------------------------12---------|
A--------------------------------------------------------------------|
E--------------------------------------------------------------------|

E---2O-------------19-------------2O-|-(2O)---2O--19-------------15--|
B------------------------------------|----------------15-----------17|
G------------------------------------|-------------------------------|
D------------------------------------|-------------------------------|
A------------------------------------|-------------------------------|
E------------------------------------|-------------------------------|

E---------------------------------|-----2O-(2O)-------2O-15-2O-19-2O-|
B--15-------15------18---------16-|---16-----------------------------|
G---------------17----------------|-17-------------------------------|
D---------------------------------|----------------------------------|
A---------------------------------|----------------------------------|
E---------------------------------|----------------------------------|

E--15--18-16-18-15-1615-------15---------15------15------15-----|
B-------------------------18------16-18------16------16------16-|
G---------------------------------------------------------------|
D---------------------------------------------------------------|
A---------------------------------------------------------------|
E---------------------------------------------------------------|

E--2O----------------19----------2O--|-(2O)----2O--19--2O--15----15-|
B------------------------------------|------------------------16----|
G------------------------------------|------------------------------|
D------------------------------------|------------------------------|
A------------------------------------|------------------------------|
E------------------------------------|------------------------------|

E--16------151615---15------------15-|--18--(18)-------15---15------|
B----------------18------------18----|-------------------16---16----|
G------------------------------------|---------------------------17-|
D------------------------------------|------------------------------|
A------------------------------------|------------------------------|
E------------------------------------|------------------------------|

E-----------------------------------------------------------------|
B-----------------------------------------------------------------|
G--(17)--15-17---17-15--------------------------------------------|
D-----------------------17--16----15--15---15---13---15--13-------|
A--------------------------------------------------------------15-|
E-----------------------------------------------------------------|

E--2O-------------19---------2O-|-(2O)----2O--19--2O--15------15-|
B-------------------------------|-------------------------16-----|
G-------------------------------|--------------------------------|
D-------------------------------|--------------------------------|
A-------------------------------|--------------------------------|
E-------------------------------|--------------------------------|

E--16------151615---15---------15-|
B----------------18---------18----|
G---------------------------------|
D---------------------------------|
A---------------------------------|
E---------------------------------|

E--151618--151618--1516181615------16------151615-------15-----|
B------------------------------18------18-----------18------18-|
G--------------------------------------------------------------|
D--------------------------------------------------------------|
A--------------------------------------------------------------|
E--------------------------------------------------------------|

E------------------------------15--(15)----(15)-----------------|
B--16-------18-----16--18--16-----------------------15-----(15)-|
G------17-------------------------------------------------------|
D---------------------------------------------------------------|
A---------------------------------------------------------------|
E---------------------------------------------------------------|

E--2O--------------19--------2O-|-(2O)---2O--19----2O--15------15-|
B-------------------------------|--------------------------16-----|
G-------------------------------|---------------------------------|
D-------------------------------|---------------------------------|
A-------------------------------|---------------------------------|
E-------------------------------|---------------------------------|

E--16------15-----------------------|----------------------------|
B------------18-16--18-----------16-|--15-----------(15)---------|
G-----------------------------------|----------------------------|
D-----------------------------------|----------------------------|
A-----------------------------------|----------------------------|
E-----------------------------------|----------------------------|

feedback
E------------------------------------|
B--(15)-------------(15)-------------|
G------------------------------------|
D------------------------------------|
A------------------------------------|
E------------------------------------|

10. Live and Let Die

  (G)             (Bm)              (C)            (D)     D(b9)

 e-3------------------------------|--0--------------2--------2--------|
 B-3----3----------------3--------|---------------------3----4--------|
 G-4----4-------------22------2-0-|--------1--------------------2-----|
 D-5----5----------4--------------|-----0--0--0-0---------------------|
 A-5---------5-----2--------------|--3-----2--------0-----------------|
 E-3------------------------------|-----------------------------------|


  (G)              (Bm)             (C)           (D)    D(b9)

e-3---3--------------------------|-------0--------2-----------------------|
B-3-----------0----------3-------|-------------0--------3----4------------|
G-0--------0----------2--2----2--|----0-----0--------2-----2----2--2--0---|
D-0----------------4-----4-------|----------------0-----------------------|
A------------------2-------------|--3-------------------------------------|
E-3------------------------------|----------------------------------------|
  (G)               (Bm)
 e-3------3---------------------2------------|
 B-3------3-------0-----------3---------0----|
 G-0------0----0-----------2---------2-------|
 D-0------0-----------4----------------------|
 A--------------------2----------------------|
 E-3------3----------------------------------|

  (C)                 (A)          (D)
 e--------0------------------0----|-2-------2--------------|
 B--------1-------1-0-------------|-3-----3----------------|
 G----0-------0--------2--2-----2-|-2---2------------------|
 D---------------------2----------|-0-----------0----------|
 A-3-------------------0----------|------------------------|
 E--------------------------------|------------------------|

  (D) (E)(F)  ...End Intro
 e-0---0--1----0--0--1------|
 B-3-----------3------------|
 G-2-----------2------------|
 D-0-----------0------------|
 A--------------------------|
 E--------------------------|

                         WORDS AND MUSIC BY:
                 Paul McCartney and Linda McCartney


       (G)             (Bm)                (C)
         When you were young  and your heart__
       (C)        (D)        D(b9)
         __was  an o__pen book,___
       (G)          (Bm)                   (C)
         you used to say live and let live.__
       (C)            (D)          D(b9)
         You know you did, you know you did,
                          (G)
         ___you know you  did.__
       (G)          (Bm)

         But if this ev___er chan__in'  world._____
       (C)                      (A)
         _____in which we live in_____
       (A)            (D)              (D)(E)(F)
         makes you__give in and__cry,_____


 w/Distortion
                 (G5)      (C5)      G(b5)       (G5v)
 e---------------------------------------------------------------|
 B---------------------------------------------------------------|
 G---------------------------5---------6-----------7-------------|
 D-----------------5---------5---------5-----------5-------------|
 A--sl-----p-------5---x-x---3---x-x---4----x-x----5---x-x-------|
 E-20----3>0------3---x-x---3---x-x---3----x-x----3---x-x--------|

                                 (G5)
         _______say, live and let die,____

         (C5) ...  G(b5) ... (G5v)
                                 (G5)

         ________  live and let   die.__

         (C5) ...  G(b5) ... (G5v)

  * Twice ................................
 e-------------------------|------------------|
 B--------15--(15)--------|-10----------------|
 G--12-14-15--(15)---7--9-|-10-------5-3-0----|
 D--12-14-15--(15)---7--9-|-10-------5-3-0----|
 A-------------------------|------------------|
 E-------------------------|------------------|
  * Twice .................................
 e-------------------------|------------------|
 B--------15--(15)--------|-10----------------|
 G--12-14-15--(15)---7--9-|-10----5-----3-----|
 D--12-14-15--(15)---7--9-|-10----5-----3-----|
 A-------------------------|------------------|
 E-------------------------|------------------|
 * Synth. sound effects....................

                 ** Half time Reggae feel **

  (C)..........................    (G).................... [P.M.]
 e-------------------------------|[P.M.]--------------3-3---3--3----|
 B-5-x-x-x-5-5-x---5---5---x-x-5-|-3-3-x-x-x-x-x-x----3-3---3--3----|
 G-5-x-x-x-5-5-x---5---5---x-x-5-|-4-4-x-x-x-x-x-x------------------|
 D-5-x-x-x-5-5-x---5---5---x-x-5-|-5-5-x-x-x-x-x-x------------------|
 A-------------------------------|----------------------------------|
 E-------------------------------|----------------------------------|

  (D).........................   (E5)...........   (F5).........
 e[P.M.]----10-[......P.M......]|-----------------------------------|
 B-7-7--x-x-10--12--10----------|-----------------------------------|
 G-7-7--x-x-----12--10----------|--9----------x--x--10------(10)----|
 D-7-7--x-x------------12---7-7-|--9----------x--x--10------(10)----|
 A------------------------------|--7----------x--x---8------( 8)----|
 E------------------------------|-----------------------------------|

        ...... (Half time Reggea feel) ......

       (C)                               (G)
         What does it   mat - ter to ya,_____
       (G)
         When you got a job__ to do_____
                 (D)      (D)
         ya got to do it well.__________
                    (E5)                   (F5)
         You got to give the oth-er fel-la hell._____


 Fill w/harmonizer

 e-----------------------full-------|-----p----half-----------------|
 B---half/full-----15---17-----(17)-|---15>13-12-------full---------|
 G--14------------------------------|-----------------14-----(14)---|
 D----------------------------------|-------------------------------|
 A----------------------------------|-------------------------------|
 E----------------------------------|-------------------------------|

                   ...........Vibrato
 e---------------------------------|
 B---------------------------------|
 G---------------------------------|
 D--12-------------(12) -----------|
 A---------------------------------|
 E---------------------------------|


       (G)       (Bm)               (C)
         Used to say live and let live.__
       (C)            (D)             D(b9)
         You know you did, you know you did,
                          (G)
         ___you know you  did.__
       (G)          (Bm)

         But if this ev___er chan__in'  world._____

       (C)                      (A)
         _____in which we live in_____
       (A)            (D)              (D)(E)(F)
         makes you__give in and__cry,_____

 w/Distortion        ~~~~ vibrato
 e------------15-17-18---------|---~~~~-vibrato-----------|
 B-----------------------15-17-|-18-------full------------|
 G-----------------------------|---------15--(15)--12-----|
 D-----------------------------|--------------------------|
 A-sl----p---------------------|--------------------------|
 E-20--3>0--------------------|---------------------------|

          ~~~~ vibrato
 e-15-17-18------------|----------------------------------|
 B------------15-17-18-|--full---~~~-vibrato--------------|
 G---------------------|-15-----15------------------------|
 D---------------------|----------------------------------|
 A---------------------|----------------------------------|
 E---------------------|----------------------------------|

          ~~~ vibrato
 e-15-17-18---------|--~~~~-vibrato-----------------------|
 B------------15-17-|-18-------full-----------------------|
 G------------------|---------15--(15)--12----------------|
 D------------------|-------------------------------------|
 A------------------|-------------------------------------|
 E------------------|-------------------------------------|

          ~~~~ vibrato      full ~~~~ vibrato  End......
 e-15-17-18-------------|--18---18-------------------------|
 B------------15-17-18--|----------------------------------|
 G----------------------|----------------------------------|
 D----------------------|----------------------------------|
 A----------------------|----------------------------------|
 E----------------------|----------------------------------|

#----------------------------------PLEASE NOTE---------------------------------#
#This file is the author's own work and represents their interpretation of the #
#song. You may only use this file for private study, scholarship, or research. #
#------------------------------------------------------------------------------#
#

Subject:         guns n' roses tabs
   Date:         Sun, 26 Oct 1997 17:59:35 -0500
   From:         "David W. Iggulden"

Live and let die
Guns N' Roses (originally recorded by Paul McCartney)
Use your illusion I

Tabbed by:     Fernando Alpuche
               fam632@www.interacces.com.mx

Tuned half step down

Intro (Piano arr. for guitar):
    G               Bm                C              D      D(b9)
e:|-3------------------------------|--0--------------2--------2------|
B:|-3----3----------------3--------|---------------------3----4------|
G:|-4----4-------------22------2-0-|--------1--------------------2---|
D:|-5----5----------4--------------|-----0--0--0-0-------------------|
A:|-5---------5-----2--------------|--3-----2--------0---------------|
E:|-3------------------------------|---------------------------------|

    G                Bm               C             D     D(b9)
e:|-3---3--------------------------|-------0--------2---------------------|
B:|-3-----------0----------3-------|-------------0--------3----4----------|
G:|-0--------0----------2--2----2--|----0-----0--------2-----2----2--2--0-|
D:|-0----------------4-----4-------|----------------0---------------------|
A:|------------------2-------------|--3-----------------------------------|
E:|-3------------------------------|--------------------------------------|

    G                 Bm
e:|-3------3---------------------2----------|
B:|-3------3-------0-----------3---------0--|
G:|-0------0----0-----------2---------2-----|
D:|-0------0-----------4--------------------|
A:|--------------------2--------------------|
E:|-3------3--------------------------------|

    C                   A            D
e:|--------0------------------0----|-2-------2------------|
B:|--------1-------1-0-------------|-3-----3--------------|
G:|----0-------0--------2--2-----2-|-2---2----------------|
D:|---------------------2----------|-0-----------0--------|
A:|-3-------------------0----------|----------------------|
E:|--------------------------------|----------------------|

    D   E  F    ...End Intro
e:|-0---0--1----0--0--1----|
B:|-3-----------3----------|
G:|-2-----------2----------|
D:|-0-----------0----------|
A:|------------------------|
E:|------------------------|

 G               Bm                 C
When you were young  and your heart___

 C           D          D(b9)
___was  an o___pen book,_____

 G            Bm                  C
you used to say live and let live___

 C              D           D(b9)
You know you did, you know you did,

                     G
___you know you  did____

 G            Bm
But if this ev___er chan__in'  world._____

 C                     A
___in which we live in___

 A        D               D  E  F
makes you___give in and__cry,_____

   w/Distortion    G5        C5       G(b5)        G5v
e:|---------------------------------------------------------------|
B:|---------------------------------------------------------------|
G:|---------------------------5---------6-----------7-------------|
D:|-----------------5---------5---------5-----------5-------------|
A:|-----------------5---x-x---3---x-x---4----x-x----5---x-x-------|
E:|-20----3p0------3---x-x---3---x-x---3----x-x----3---x-x--------|

                           G5
_______say, live and let die,____

C5  ...   G(b5) ...  G5v

                          G5
________  live and let   die.__

C5  ...   G(b5) ...  G5v

    * Twice ................................
e:|-------------------------|------------------|
B:|--------15--(15)--------|-10----------------|
G:|--12-14-15--(15)---7--9-|-10-------5-3-0----|
D:|--12-14-15--(15)---7--9-|-10-------5-3-0----|
A:|-------------------------|------------------|
E:|-------------------------|------------------|

    * Twice ................................
e:|-------------------------|------------------|
B:|--------15--(15)--------|-10----------------|
G:|--12-14-15--(15)---7--9-|-10----5-----3-----|
D:|--12-14-15--(15)---7--9-|-10----5-----3-----|
A:|-------------------------|------------------|
E:|-------------------------|------------------|
    * Synth. sound effects..................

** Half time Reggae feel **
    C...........................     G..................... [P.M.]
e:|-------------------------------|[P.M.]--------------3-3---3--3--|
B:|-5-x-x-x-5-5-x---5---5---x-x-5-|-3-3-x-x-x-x-x-x----3-3---3--3--|
G:|-5-x-x-x-5-5-x---5---5---x-x-5-|-4-4-x-x-x-x-x-x----------------|
D:|-5-x-x-x-5-5-x---5---5---x-x-5-|-5-5-x-x-x-x-x-x----------------|
A:|-------------------------------|--------------------------------|
E:|-------------------------------|--------------------------------|

    D..........................   (E5)...........   (F5).........
e:|[P.M.]----10-[......P.M......]|---------------------------------|
B:|-7-7--x-x-10--12--10----------|---------------------------------|
G:|-7-7--x-x-----12--10----------|--9----------x--x--10------(10)--|
D:|-7-7--x-x------------12---7-7-|--9----------x--x--10------(10)--|
A:|------------------------------|--7----------x--x---8------( 8)--|
E:|------------------------------|---------------------------------|

** Half time Reggae feel **

 C                                 G
What does it   mat - ter to ya,_____

 G
When you got a job__ to do_____

         D        D
ya got to do it well.__________

            E5                     F5
You got to give the oth-er fel-la hell._____

    Fill w/harmonizer
e:|----------------------------------|-----------------------------|
B:|-----------------15---17fb---(17)-|---15p13-12hb----------------|
G:|--14hb-fb-------------------------|-----------------14fb---(14)-|
D:|----------------------------------|-----------------------------|
A:|----------------------------------|-----------------------------|
E:|----------------------------------|-----------------------------|

e:|-------------------------------|
B:|-------------------------------|
G:|-------------------------------|
D:|--12-------------(12)~~~~~~----|
A:|-------------------------------|
E:|-------------------------------|

G         Bm                  C
Used to say live and let live___

 C              D              D(b9)
You know you did, you know you did,

                          G
___you know you  did.__

 G             Bm
But if this ev____er chan__in'  world._____

 C                     A
___in which we live in___

 A             D          D  E  F
makes you__give in and__cry,_____

  w/Distortion
e:|------------15-17-18~~-------|---------------------------|
B:|-----------------------15-17-|-18~~----------------------|
G:|-----------------------------|---------15fb-(15)--12-----|
D:|-----------------------------|---------------------------|
A:|-----------------------------|---------------------------|
E:|-20--3p0--------------------|----------------------------|

e:|-15-17-18~~-----------|--------------------------------|
B:|------------15-17-18--|--------------------------------|
G:|----------------------|-15fb---15~~--------------------|
D:|----------------------|--------------------------------|
A:|----------------------|--------------------------------|
E:|----------------------|--------------------------------|

e:|-15-17-18~~--------|-----------------------------------|
B:|------------15-17--|-18~~------------------------------|
G:|-------------------|--------15fb--(15)--12-------------|
D:|-------------------|-----------------------------------|
A:|-------------------|-----------------------------------|
E:|-------------------|-----------------------------------|

e:|-15-17-18~~-----------|--18fb---18~~-------------------|
B:|------------15-17-18--|--------------------------------|
G:|----------------------|--------------------------------|
D:|----------------------|--------------------------------|
A:|----------------------|--------------------------------|
E:|----------------------|--------------------------------|

11. Yesterdays

Figure A

   D                                                  C               G5
|--------------0h2--------------------0h2-------------------2--0-------3-------|
|--------3--------------3-------3-----------------------3-----------3----3---3-|
|-----2-----2--------2-------2-----2------------0-------0-------------0----0---|
|--0-----------------------4-----------------0----------2----------------------|
|---------------------------------------------------3--------------------------|
|------------------------------------------------------------------------------|

Chords:  Cadd2=> x32030 and
            G5=> 3x0033

The song goes like this
2x Rhythm Figure A

enter lyrics
(play Rythm Figure A where you see D C G5)

D                   C                    G5
Yesterday there was so many things I was never told
D                              C          G5
Now that I'm startin' to learn I feel I'm growin' old
D                      Cadd2                G5
'Cause yesterday's got nothin' for me.  Old pictures that I'll always see
D                            G5
Time just fades the pages in my book of memories.

(Insert Verse 2)

Chorus (underline indicates drag out the word,
        C5 is just power chord on 3rd fret):

A               B   C5                              G5
Ooh,____________yesterday's________ got nothin' for me.__________
A               B   C5                              G5
Yesterday's________ooh,__ __________got nothin' for me.__________

Chords for solo are (if someone wants I can post tab of how I play the solo):
Bm   G   Bm   GBm   C#m D    E

Other lyrics:

2nd verse:
Prayers in my pocket and no hand in destiny.
I'll keep movin' along with no time to plant my feet.
'Cause yesterday's got nothin' for me.
Old pictures that I'll always see.
Some things could be better if we'd just let them be.

3rd verse:
Yesterday there were so many things I was never shown.
Suddenly this time I found I'm on the streets and I'm alone.
Yesterday's got nothin' for me. Old pictures that I'll always see.
I ain't got time to reminisce old novelties.

The song structure is basically:

2x Rythm Figure A
Verse 1
Verse 2
Chorus

Solo:
|---------------------------------------------------------------------|
|------------------------------------12-------------------------------|
|-9fb-r9h-r9p7-9-7---7--------14fb~~----14-11-------------------------|
|------------------9---9----------------------14hbr-12-14-14hb-12~~~~-|
|---------------------------------------------------------------------|
|---------------------------------------------------------------------|

|-------------------------------------------------------------------------|
|---------12-14~~~-14-12fb~~~~-14-14hb---14--14-14-15fb~~~~-15-12---------|
|-14fb~~~---------------------------------------------------------13------|
|--------------------------------------------------------------------14~~-|
|-------------------------------------------------------------------------|
|-------------------------------------------------------------------------|

|--------12--------12--------------------------12-------15-------|
|----------12-15fb---15-12-------------------12---15/17----17\15-|
|-12/13--------------------14-12h13----12h13---------------------|
|-----------------------------------14---------------------------|
|----------------------------------------------------------------|
|----------------------------------------------------------------|


Verse 3
Chorus

12. Ain't it Fun

Intro
e --------------------------------|
B --------------------------------|
G --------------------------------|
D --------------------7--9~~~9~~~-|
A ---------------7--9-------------|
E –7~~~7—-9--10~------------------|

e -----------------7----7~-|
B -------------10----10----|
G ----7—9-7-9b-------------|
D -9-----------------------|
A -------------------------|
E -------------------------|

e -7-10-12-12b---12r-10-12-10~-10--7------7~~-|
B ------------------------------------10—-----|
G --------------------------------------------|
D --------------------------------------------|
A --------------------------------------------|
E --------------------------------------------|

e -----------------------7----------------------------|
B –10br-7-----------7-10---10-------------------------|
G --------9br-9-7-9-----------9br-9-9b---7--6---------|
D ---------------------------------------------7—-9~~-|
A ----------------------------------------------------|
E ----------------------------------------------------|

e ----------------------------------------|
B --------------------------7-7-----------|
G ----7-9-7-9b---9r-7-9-7-9-----9p7-9p7---|
D -9------------------------------------9-|
A ----------------------------------------|
E ----------------------------------------|

e --------10------------------------7------------|
B ------------------------------7-7---7----------|
G -7-9-9b----9r-7-9-7-----7-9-7---------9-9-7----|
D ---------------------9~---------------------9~-|
A -----------------------------------------------|
E -----------------------------------------------|

e ----------------------------------------------------------|
B ----------10-10--------------7----------------------------|
G ---7-9-9b-------9r--7--7-9-7---9-7-9--7-6-7--6---6---6----|
D -9---------------------------------------------9---7---9--|
A ----------------------------------------------------------|
E ----------------------------------------------------------|
                               ^-----------fast-------------|


Ain't it fun when you're always on the run
e -------------|
B -x-x---------|
G -x-x---------|
D -x-x-7-9-7-9-|
A -----7-9-7-9-|
E -------------|

Ain't it fun when your friends despise what you've become
e --------------|
B --------------|
G -----------7~-|
D -x-x-9-7-9-7~-|
A -----9-7-9----|
E --------------|

Ain't it fun when you get so high... that you just can't come
e ----------|
B ----------|
G --7-------|
D ----7-9~--|
A ----------|
E ----------|


Ain't it fun when you know that you gonna die young
e ---------------|
B ---------------|
G ---------------|
D ---------------| Riff 1
A -9/7/9/7/9/7/9-
E -7/5/7/5/7/5/7-

 Riff 2:
e ----------------------------------------------------------------|
B ----------------------------------------------------------------|
G ----------------------------------------------------------------|
D --5---5-5---5-5-5---7---7-7---7-7-7----9--7---9-7-9---9--7--9---|
A --5---5-5---5-5-5---7---7-7---7-7-7----9--7---9-7-9---9--7--9---|
E --3---3-3---3-3-3---5---5-5---5-5-5----7--5---7-5-7---7--5--7---|

             Such Fun! (10 times)
e --------------------------|
B ------10------------------|
G ---9b-----7-9-7---9---7---|
D –9~----------------9---9--|
A --------------------------|
E --------------------------|

Ain't it fun when you're taking care of number one
e ---------------|
B ---------------|
G ---7-9-7-9b----|
D ------------9~-|
A ---------------|
E ---------------|

Ain't it fun when you feel like you just gotta get a gun
e --------------------|
B -------------10-12~-|
G -7-9-11-7-11--------|
D --------------------|
A --------------------|
E --------------------|

Ain't it fun when you just can't seem to find your tongue
e -10-------|
B ----10h12-|
G ----------|
D ----------|
A ----------|
E ----------|

Cause you stuck it too deep into something that really stung
e -14-14p12p10-7-|
B ---------------|
G ---------------|
D ---------------|
A ---------------|
E ---------------|

It's such fun!
 Riff 2:
Then
 Riff 3:
e ------------------------------------------------------------------|
B ------------------------------------------------------------------|
G ------------------------------------------------------------------|
D -5--5-5--5-5-5--7--7-7--7-7-7--12--12-12--12-12-12--9--9-9--9-9-9-|
A -5--5-5--5-5-5--7--7-7--7-7-7--12--12-12--12-12-12--9--9-9--9-9-9-|
E -3--3-3--3-3-3--5--5-5--5-5-5--10--10-10--10-10-10--7--7-7--7-7-7-|

Well, so you come up to me to spit right in my face,
I didn't even feel it, it was such a disgrace

I punched my fist right through the glass
I didn't even feel it, it happened so fast!

       Play that 4
         times
      |            |
e -12b--(12)-(12)-(12)---(12)-12r-----------------|
B --------------------------------15-15b-b--12-12-|
G ------------------------------------------------|
D ------------------------------------------------|
A ------------------------------------------------|
E ------------------------------------------------|

e -------14-17b-14-17-----|
B -12-15--------------17b-|
G ------------------------|
D ------------------------|
A ------------------------|
E ------------------------|

e -----------------------------------|
B -17-15-15p14-15p14---12-14b-p12-12-|
G -----------------------------------|
D -----------------------------------|
A -----------------------------------|
E -----------------------------------|

Ain't it fun when you tell her she's just a cunt
e -7---------------------7-|
B ---10-7---------7-10-7---|
G --------9-9-9b-----------|
D -------------------------|
A -------------------------|
E -------------------------|

Ain't it fun when she splits you and leaves you on the run
e ------7-9-7--------------|
B -7-10--------10-12--12b--|
G -------------------------|
D -------------------------|
A -------------------------|
E -------------------------|

Well, Ain't it fun when you've broken up every band
that you ever begun
e -------------------------------------|
B -------------------------------------|
G -7-9b-7---7--------------------------|
D --------9---9--9-11-9-11-9-7h9-7-9-7-|
A -------------------------------------|
E -------------------------------------|

    Ain't it fun when you know that you're gonna die young
e ----------------------------------------------|
B ----------------------------------------------|
G ----------------------------------------------|
D -11-9-11b---11-9-11b---11-9-11-9-7-9- then?---|
A ----------------------------------------------|
E ----------------------------------------------|

It's such fun!


and then come two guitars:
e -------------------------
B –12~~~~~~~~~~~~~~~~~~~~~-
G --------------11~~~~~~~~-|
D -------------------------|
A -------------------------|
E -------------------------|

Finish:
e ----------10-9-----------------------------------------|
B ----10-12------12-10---------------------------12------|
G -11------------------11---7-9-7----------------11------|
D --------------------------------9-7-9-7--------9-------|
A ----------------------------------------9-7------------|
E -------------------------------------------------------|

13. Since I Don't Have You

Chords
   G  Am Cm D  Em
E|-3--0--x--2--0-|
B|-0--1--2--3--0-|
G|-0--2--0--2--0-|
D|-0--2--2--0--2-|
A|-2--0--3--x--2-|
E|-3--x--x--x--0-|

Intro:
e|---------------------------------------------------------|
B|------13b15---10br------10-----10h11p10------------------|
G|--------------------12-------------------8-7-------------|  x2
D|--12-----------------------------------------------------|
A|---------------------------------------------------------|
E|---------------------------------------------------------|
then
e|----14br--14--12h14p12-10--------------------------------|
B|----------------------------10br----10--10h11p10---------|
g|---------------------------------12---------------10-8---|
D|---------------------------------------------------------|
A|---------------------------------------------------------|
E|---------------------------------------------------------|

e|---------------------------------------|
B|---------------------------------------|
G|--/9-11-9--11--14--11--9---7------7h9--|
D|-----------------------------9---------|
A|---------------------------------------|
E|---------------------------------------|

G           Cm         D
I don't have plans and schemes,
    G          Cm          D
And I don't have hopes and dreams.
G          Cm
I don't have anything,
Am            D
Since I don't have you.
    G          Cm     D
And I don't have fond desires,
    G          Cm      D
and I don't have happy hours.
G          Cm
I don't have anything,
Am                 D
Since I don't have you.
D                D
Happiness, and I guess,
Am            G
I never will again.
Am
When you walked out on me,
G
In walked ol' misery,
Am                      D
And he's been here since then.

(Yeah, we're f****d!)

Solo:


e|-------------------------------------|--------------------------|
B|-------------------------------------|--------------------------|
G|-----19^-----------------------------|-----19^^-----------------|
D|---------21b--19-21--19h21p19p17\15~-|-----------21b--19-21-----|
A|--17---------------------------------|-17-----------------------|
E|-------------------------------------|--------------------------|

e|-------------------|--------------------------------------------|
B|-------------------|---19^^--19--17h19p17\15~-------------------|
G|-------------------|---------------------------17--15--19^^-----|
D|--19h21p19p17\15~--|--------------------------------------------|
A|-------------------|--------------------------------------------|
E|-------------------|--------------------------------------------|

e|-------------------|--------------------------------------------|
B|-------------------|--------------------------------------------|
G|--17h19p17p15\13~--|--------------------------------------------|
D|-------------------|----15--h17p15---15--17/19--21-21-21--------|
A|-------------------|--------------------------------------------|
E|-------------------|--------------------------------------------|

e|----------------------------------------------------------------|
B|----------------------------------------------------------------|
G|----------------------------------------------------------------|
D|---19-19-19---17b--15-------------------------------------------|
A|----------------------19--17------------------------------------|
E|----------------------------------------------------------------|

(Rhythym Guitar plays
G, Cm, D x2
G, Cm, Am, D
In background)

G          Cm        D
I don't have love to share,
    G           Cm       D
And I don't have one who cares.
G          Cm
I don't have anything,
Am                 D
Since I don't have you.

G   Em  Am  D
You You You Naaahaa
G   Em  Am  D
You You You naaahaa

14. Sympathy for the Devil

         Please allow me         to intro- -duce myself
|-------------------------|-------------------------------------|--------------|
|-------------------------|-------------------------------------|--------------|
|*---------9-----9-----9--|----------------------7-----7-----7--|--------------|
|*--9---9--9--9--9--9--9--|------9--9------7--7--7--7--7--7--7--|--------------|
|---7---7-----7-----7-----|------7--7------5--5-----5-----5-----|--------------|
|-------------------------|-------------------------------------|--------------|


I'm a man       with wealth                 and taste
------------------------------------------------------------------------||------|
------------------------------------------------------------------------||------|
--------------------------------------------------------9-----9-----9--*||------|
-7--7---------------7--7-----7--7------------7-9--9--9--9--9--9--9--9--*||------|
-5--5--7--7--7------5--5-----5--5-----x--x---5/7--7--7-----7-----7------||------|
-------5--5--5----------------------------------------------------------||------|


oooah       Pleased to meet you        hope you guessed my name
----------------------------------------------------------------|---------------|
----------------------------------------------------------------|---------------|
----------------------------------------------------------------|---------------|
---------4---------------------9--9-4---------------------------|--7-9--9--9----|
-/-------2---------------------7--7/2---------------------------|--5/7--7--7----|
----------------------------------------------------------------|---------------|
 (long slide)

                                            But what's puzzling you is the
-----------------------------------------|--------------------------------------|
-----------------------------------------|--------------------------------------|
9-----9-----9-------------9-----9-----9--|--------------------------------------|
9--9--9--9--9--7-9--9--9--9--9--9--9--9--|------------4--------9--9-4-----------|
---7-----7-----5/7--7--7-----7-----7-----|------------2--------7--7/2-----------|
-----------------------------------------|--------------------------------------|


nature of my game.
-----------------------------------------------|--------------------------------|
-----------------------------------------------|--------------------------------|
---------------------------9-----9-------------|--------------------------------|
----------------7-9--9--9--9--9--9--9-----9-4--|--------------------------------|
----------------5/7--7--7-----7-----7--x--7\2--|--------------------------------|
-----------------------------------------------|--------------------------------|

E                        D                  A                  E
Please allow me to introduce myself, I'm a man of wealth and taste
E                       D                    A                           E
I've been around for long, long years I've stolen many a man's soul and faith
E                    D                  A                     E
I was around when Jesus Christ had His moments of doubt and pain
E                      D                  A                    E
I made damn sure that Pilate washed his hands and sealed his fate
B                      B                 E                   D
Pleased to meet you, hope you guess my name, but what's puzzling you, is
  A               E
the nature of my game

I stuck around St. Petersburg when I saw it was time for a change
I killed the Tzar and his ministers, Anastasia screamed in vain
I rode a tank, held a gen'ral's rank, when the blitzkrieg raged and the
bodies stank Pleased to meet you, hope you guess my name, but what's
puzzling you, is the nature of my game

I watched with glee while your kings and queens, fought for ten decades for
the gods they made I shouted out "Who killed the Kennedys?", when after all it
was you and me
So let me please introduce myself, I am a man of wealth and taste
And I lay traps for troubadours, who get killed before they reach Bombay
Pleased to meet you, hope you guess my name, but what's puzzling you, is the
nature of my game

Pleased to meet you, hope you guess my name, but what's confusing you, is
just the nature of my game

Just as every cop is criminal, and all the sinners, Saints
As heads is tails, just call me Lucifer, 'cause I'm in need of some restraint
So if you meet me, have some courtesy, have some sympathy and some taste
Use all your well-learned politesse, or I'll lay your soul to waste
Pleased to meet you, hope you guess my name, but what's puzzling you, is the
nature of my game

Solo:

|--12-----------------------12----------------------|
|-----15-12--------------------15-12----------------|
|-----------14-14br12----------------14-14br12------|
|---------------------14~----------------------14~~-|
|---------------------------------------------------|
|---------------------------------------------------|

|-12------------------------------------------------|
|----15-12----15-hold-bend--------12~~----------8---|
|----------14-14b------12---------12~~------7-9-----|
|-------------------------14~-----------------------|
|---------------------------------------------------|
|---------------------------------------------------|

|--------------------------12~~----17b-17b-17~---12-12h15-12~--15b|
|-10p8-------12~~--8--8h10----------------------------------------|
|------9~----12~~-------------------------------------------------|
|-----------------------------------------------------------------|
|-----------------------------------------------------------------|
|-----------------------------------------------------------------|

|--rb17-15--17~---//18-17-15------17br15-17p15-----15-17p15--17b--|
|---------17-----------------17~---------------17~----------------|
|-----------------------------------------------------------------|
|-----------------------------------------------------------------|
|-----------------------------------------------------------------|
|-----------------------------------------------------------------|

|-----15h17-17b----15h17-17b-17~-15-17-15~-------|
|--17-----------17--------------------------17~--|
|------------------------------------------------|
|------------------------------------------------|
|------------------------------------------------|
|------------------------------------------------|

|-12--12---12--12---12--12--12--15p12--17b--17~-17b-17~-15-17-15b----|
|-----15b------15b------15b----------------------------------------17|
|--------------------------------------------------------------------|
|--------------------------------------------------------------------|
|--------------------------------------------------------------------|
|--------------------------------------------------------------------|

|----------17p15--------------|
|-15h17p15-------17p15h17~----|
|-----------------------------|
|-----------------------------|
|-----------------------------|
|-----------------------------|

That's it, the end, hope you liked this album, unlike others I don't copy.. I just made 
all myself so any suggestions, corrections, etc... would be appreciated at: 
and please DO rate my tab, thanks.
comments
print report bad tab
4 comments total. Showing first comments.
-1 reply
sunny_5940 wrote on August 6 2006, 11:26 am

rad

not

Read An Destroy

+1 reply
NIrvana_267 wrote on August 6 2006, 08:21 pm

umm yeah i saw this in the menu and i dont even like gnr

+1 reply
AK-47 wrote on September 18 2006, 05:38 pm

So why r u commenting on it?^

I want to post or [tab]
guest
You may want to rate the tab now too:
select rating
Please do not post tabs as comments. Select "correction" instead!