Oops, an error
Loading. Please wait.

Its So Easy Tab

ver2
ver2

Whole song

More versions @911Tabs.com
29,803 views 87 this week
no commentswrite comment
1 2 3 4 5
excellent!
x 5
Autoscroll
+/-
esc
set tempo
stop
Contributor
Difficulty
Tuning
intermediate
D# G# C# F# A# D#
WARNING: You are trying to view
                                    content from Ultimate-Guitar.com
                                    in an unauthorized application,
                                    which is prohibited.

                                    Please use an official Ultimate
                                    Guitar Tabs application for iPhone,
                                    iPad or Android to access legitimate
                                    chords, guitar, bass, and drum tabs
                                    from Ultimate-Guitar.com database.

                                    Type "ultimate guitar tabs" in Apple
                                    App Store's or Android Market's
                                    search to find the application.
-------------------------------------------------------------------------------
                             IT'S SO EASY - Guns N' Roses
-------------------------------------------------------------------------------
Tabbed by: ironmanben
Email: bentrooper@gmail.com

Tuning: eb Bb Gb Db Ab Eb

guitar 1 - Slash - lead
guitar 2 - Izzy Stradlin - rhythm

intro:
eb|------------------------------------------------------------------------|
Bb|--------------------------------------------------12------12------12----|
Gb|--------------------------------------12----------12------12----------12|
Db|--------------------------------------12--------------------------------|
Ab|------------------------------------------------------------------------|
Eb|------------------------------------------------------------------------|
--|                                                                        |
eb|--------------------------------------0--0--0--0--0--0--000-0---000-0--0|
Bb|--------------------------------------0--0--0--0--0--0--000-0---000-0--0|
Gb|------------------------------------------------------------------------|
Db|------------------------------------------------------------------------|
Ab|-2-222-222-222-222-222-222-222-222-222----------------------------------|
Eb|-0-000-000-000-000-000-000-000-000-000----------------------------------|


main riff:
(guitar 1:)
eb|---------------------------------|
Bb|-3---3---0-0-------5-----5---5---|
Gb|-3---3\2-0-0-------4-----4---4---|
Db|-3---3\2-0-0---2-----------------|
Ab|---------------2-----------------|
Eb|---------------0-----0000--0---0-|
--| (guitar 2:)         xxxx  x   x |
eb|---------------------------------|
Bb|---------------------------------|
Gb|-3---3\2-0-0---------------------|
Db|-3---3\2-0-0---2-----------------|
Ab|-1-------------2-----------------|
Eb|---------------------------------|
             


chorus 1:
(guitar 1:)
eb|-5-5-3-5-6\5\3-0-0----------(0)--|
Bb|-5-5-3-5-6\5\3-0-0----------(0)--|
Gb|---------------------------------|
Db|---------------------------------|
Ab|---------------------------------|
Eb|---------------------------------|
--| (guitar 2:)                     |
eb|---------------------------------|
Bb|-------------------5-----5---5---|
Gb|-------------------3-----3---3---|
Db|-7-7-5-7-8-8-9-2-----------------|
Ab|-7-7-5-7-8-8-9-2-----------------|
Eb|-5-5-3-5-6-6-7-0-----0000--------|
    x x x x x x         xxxx



pre-chorus:
(guitar 1:)
eb|-----------------------------------------------------------------|
Bb|-----------------------------------------------------------------|
Gb|-------------------------------------0-----0---0-----0-----0---0-|
Db|-----0-----0---0-----0-----0---0---4-----4---------4-----4-------|
Ab|---0-----0---------2-----2-------2-----2-----2---0-----0-----0---|
Eb|-2-----2-----2---3-----3-----3-----------------------------------|
--| (guitar 2:)                                                     |
eb|-----------------------------------------------------------------|
Bb|-----------------------------------------------------------------|
Gb|-----------------------------------------------------------------|
Db|-----------------------------------------------------------------|
Ab|---------------------------------2---------------0---------------|
Eb|-2---------------3-----------------------------------------------|


bridge:
(guitar 1:)
eb|--------------------|
Bb|--------------------|
Gb|--------------------|
Db|--------------------|
Ab|--------------------|
Eb|-000000--000000-0000|
--| (guitar 2:)        |
eb|--------------------|
Bb|--------------------|
Gb|--------------------|
Db|--------------------|
Ab|-----7p5----7p5--7p5|
Eb|-0000---0000---00---|


post-chorus:
(guitar 1:)
eb|---------------------------------|
Bb|---------------------------------|
Gb|-7---7\6---12-11-9---------------|
Db|-7---7\6---12-11-9---------------|
Ab|-5---5\4-0-10-9--7---------------|
Eb|---------------------------------|
--| (guitar 2:)                     |
eb|---------------------------------|
Bb|-------------------5-----5-5-5---|
Gb|-7---7-------------4-----4-4-4---|
Db|-7---7---5-5--4--2---------------|
Ab|-5---5---5-5--4--2---------------|
Eb|---------------------0000--------|
                        xxxx

guitar solo 1:
(guitar 1:)
eb|----------------------------------------12-12--------------------------|
Bb|-17^(19)------17~---------------15^(17)-------15-12-----------------12-|
Gb|------------------------16h19p16--------------------14br(16)--12-14----|
Db|-------------------14~-------------------------------------------------|
Ab|-------------------14~-------------------------------------------------|
Eb|-----------------------------------------------------------------------|

eb|------------------------------------------------------------------------|
Bb|--------------------------------------------------------15~----15-15\14-|
Gb|-12^--------------12-14-16-15-16-15-16-15-14-16-12^---------------------|
Db|-------14-14---14------------------------------------14-----------------|
Ab|------------------------------------------------------------------------|
Eb|------------------------------------------------------------------------|

eb|------------------------------------|
Bb|-15\14-15\14------------15^(17)\\\--|
Gb|-------------12^--------------------|
Db|-----------------14-----------------|
Ab|------------------------------------|
Eb|------------------------------------|


guitar solo 1 rhythm:
(guitar 2:)
eb|---------------------------------|
Bb|---------------------------------|
Gb|-3---3\2-0-0---------------------|
Db|-3---3\2-0-0---2-----------------|
Ab|-1-------------2-----4---5---2---|
Eb|-------------------0-2-0-3-0-0-0-|
                      x x x x x x x

main riff 2:
(guitar 1:)
eb|---------------------------------|
Bb|---------------------------------|
Gb|---------------------------------|
Db|---------------------------------|
Ab|-1---1-0-----------------2-----0-|
Eb|---------3-3---0---0-3-4---0-3---|
--| (guitar 2:)                     |
eb|---------------------------------|
Bb|-------------------5-----5---5---|
Gb|-3---3\2-0-0-------4-----4---4---|
Db|-3---3\2-0-0---2-----------------|
Ab|-1-------------2-----------------|
Eb|---------------------0000--0---0-|
                        xxxx  x   x


pre-chorus 2:
(guitar 1:)
eb|-----------------------------------------------------------------|
Bb|-----------------------------------------------------------------|
Gb|---------------------------------4---4---4---4---2---2---2---2---|
Db|-4---4---4---4---5---5---5---5---4---4---4---4---2---2---2---2---|
Ab|-4---4---4---4---5---5---5---5---2---2---2---2---0---0---0---0---|
Eb|-2---2---2---2---3---3---3---3-----------------------------------|
--| (guitar 2:)                                                     |
eb|-----------------------------------------------------------------|
Bb|-----------------------------------------------------------------|
Gb|-------------------------------------0---------------0-----------|
Db|-----0---------------0-------------4---------------4-------------|
Ab|---0---------------2-------------2---------------0---------------|
Eb|-2---------------3-----------------------------------------------|


guitar solo 2:
(guitar 1:)
eb|-/15--12------------------------------------------------------------|
Bb|-------------x-14gb(16)-------------5-3-----------------------------|
Gb|---------------14gb(16)-----2^(4)-------4-2br(4)p0------------------|
Db|---------------------------------------------------2-2---5gb(7)---2-|
Ab|--------------------------------------------------------------------|
Eb|--------------------------------------------------------------------|

eb|--------------------------------------------------------------------|
Bb|--------------------------------------------------------------------|
Gb|--------------------------------------------------------------------|
Db|--------------------------------------------5-----------------------|
Ab|-------------7+---------7------------5^-7-5-----7-7---7-7p5---5---7-|
Eb|-5gb(7)-----------5^(7)---5-3^p0----------------------------7-------|

eb|------------------------------------------------------------------10-|
Bb|-----------------------------------------------------------10^(12)---|
Gb|-2h3p2p0-2p0--------7---7~---9-9--7---7---9--99-12^---9-99-----------|
Db|-------------2p0-/9---9-------------9--------------------------------|
Ab|---------------------------------------------------------------------|
Eb|---------------------------------------------------------------------|

eb|-------------------------9-9-10-10----10-12-|-------------------------|
Bb|-10^(12)10-8---10^(12)-------------12-------|-17-15-14h15p14-12-14-12-|
Gb|------------9-7-----------------------------|-------------------------|
Db|--------------------------------------------|-------------------------|
Ab|--------------------------------------------|-------------------------|
Eb|--------------------------------------------|-------------------------|

eb|----------------------------------------------------------------|
Bb|------------14-14-15---12h14p12--------------------15p14p12p----|
Gb|14-12h14^-----------------------14---12h14p12---------------h14-|
Db|----------------------------------------------14----------------|
Ab|----------------------------------------------------------------|
Eb|----------------------------------------------------------------|

eb|------------------------------------------------|
Bb|------------------------------------------------|
Gb|-16p14p12p--------------------------------------|
Db|----------h14-----------------------------------|
Ab|--------------14p13p12p----12-10----------------|
Eb|-----------------------h15-----------------7//\-|


guitar solo 2 rhythm:
(guitar 2:)
eb|---------------------------------|
Bb|-------------------5-----5---5---|
Gb|-3---3\2-0-0-------4-----4---4---|
Db|-3---3\2-0-0---2-----------------|
Ab|-1-------------2-----------------|
Eb|---------------0-----0000--0---0-|
                        xxxx  x   x 


outro:
(guitar 1:)
eb|-----------------------------------|------------------------------12-15\|
Bb|-----------------------12----------|---------------15br(17)-12-15-------|
Gb|--------------------------14^(16)\-|------------------------------------|
Db|-8-7-5-----------------------------|-8-7-5------------------------------|
Ab|-------7---------------------------|-------7----------------------------|
Eb|---------6-5-3-0-------------------|---------6-5-3----------------------|
--| (guitar 2:)                       |                                    |
eb|-----------------------------------|------------------------------------|
Bb|-----------------------------------|------------------------------------|
Gb|-----------------------------------|-------------------------2----------|
Db|-8-7-5-------------------7^(9)\\\--|-8-7-5-------------------0----------|
Ab|-------7-----------7-7-7-----------|-------7-----------2-2-2-----2------|
Eb|---------6-5-3-0-------------------|---------6-5-3-0---0-0-0-----0------|
                                                              x
 
eb|---------------------------------------------------|
Bb|-------------x-20^---12-10h12p10-------------------|
Gb|-------------x-19^---------------14-12----14-12----|
Db|-8-7-5---------------------------------14-------14-|
Ab|-------7-------------------------------------------|
Eb|---------6-5---------------------------------------|
--|                                 |                                 
eb|---------------------------------|
Bb|---------------------------------|
Gb|-------------------------2-------|
Db|-8-7-5-------------------0-------|
Ab|-------7-----------2-2-2-----2---|
Eb|---------6-5-3-0---0-0-0-----0---|
                          x


eb|-----------------------|
Bb|-----------------------|
Gb|-------------12^+------|
Db|-----------------------|
Ab|-14-13-12-14-----------|
Eb|--------------------12-|
--|                 |
eb|-----------------|
Bb|-----------------|
Gb|-----------------|
Db|-8-7-5-----------|
Ab|-------7---------|
Eb|---------6-5-3-0-|
             


Order:
intro
main riff x4
chorus 1 x4
main riff x4
chorus 1 x4
pre-chorus x2
bridge x4
post-chorus x4
guitar solo 1/guitar solo 1 rhythm x4
main riff 2 x4
chorus 1 x4
pre-chorus x2
pre-chorus 2 x2
guitar solo 2/guitar solo 2 rhythm x8
outro
 



************************************

| /   slide up
| \   slide down
| h   hammer-on
| p   pull-off
| ~   vibrato
| +   harmonic
| x   Mute note
| ^   Bend
| pb  Pre-bend
| br  Bend release
| pbr Pre-bend release
| brb Bend release bend
| gb  Gradually Bend

************************************
comments
print report bad tab
I want to post or [tab]
guest
You may want to rate the tab now too:
select rating
Please do not post tabs as comments. Select "correction" instead!