Oops, an error
Loading. Please wait.

Live And Let Die Tab

ver4
ver4
More versions @911Tabs.com
82,665 views 124 this week
6 commentsread comments
1 2 3 4 5
excellent!
x 40
Autoscroll
+/-
esc
set tempo
stop
Contributor
Hey! There's an official Ultimate Guitar app which is ideal
for learning songs when you're away from computer. Get the app
WARNING: You are trying to view
                                    content from Ultimate-Guitar.com
                                    in an unauthorized application,
                                    which is prohibited.

                                    Please use an official Ultimate
                                    Guitar Tabs application for iPhone,
                                    iPad or Android to access legitimate
                                    chords, guitar, bass, and drum tabs
                                    from Ultimate-Guitar.com database.

                                    Type "ultimate guitar tabs" in Apple
                                    App Store's or Android Market's
                                    search to find the application.
---------------------------------------------------------------------
                   Live and Let Die - Guns N Roses
---------------------------------------------------------------------
Tabbed by: Zac VanSchoyck
email: zacvan@yahoo.com

This was a long and hard tab job so please leave comments and ratings!!!
By bending technique is pretty easy to follow, just look at it for a while and you will
understand it. I hope you have a great time playing this song!!!

All guitars are six string electrics
Guitar 1 (elec. w/ clean tone and chorus)
Guitar 2 (clean elec.)
Guitar 3 (elec. w/ Distortion)
Guitar 4 (elec. w/ Distortion)
Guitar 5 (elec. w/ sub-octave effect and Distortion)


1st Verse
   Guitar 1 (elec w/ clean tone and chorus) let ring throughout
E|-------------------------------------------------------------------|
B|-3---3----------3-------------------1----------3--4----------------|
G|-0-----------2-----2-----------0---------0-----------2-------------|
D|-0---------4----------4------2---2-----2---0-----------------------|
A|-x------2------------------3---------------------------------------|
E|-3-----------------------------------------------------------------|
 |
 |
 | Guitar 2 (clean elec) Rhy Fig 1 (Piano arranged for guitar)
E|-------------------------------------------------------------------|
B|-3---3--3-------3----------5--------5------------------------------|
G|-4---4--4-------4----------5--------5------7------8----------------|
D|-5---5--4-------4----------5--------5------7------7----------------|
A|-x------2------------------3---------------5-----------------------|
E|-3-----------------------------------------------------------------|
 

   Guitar 1 (continued)
E|----3----------------2----------------0-------------0--------------|
B|-3----0---0--------3---3----------------1--------------------------|
G|-0------0--------2-------2---------0------0---2--------------------|
D|-0------------4-----------------------------2----------------------|
A|-x------------2-----------------3----------------------------------|
E|-3-----------------------------------------------------------------|
 |
 |
 | Guitar 2 (continued)
E|-------------------------------------------------------------------|
B|-3---3--------3------3----------5-----5-------5-----5--------------|
G|-4---4--------4------4----------5-----5-------6-----6--------------|
D|-5---5--------4------4----------5-----5-------7-----7--------------|
A|-x------------2-----------------3-------------x--------------------|
E|-3--------------------------------------------5--------------------|

   Guitar 1 (continued)
E|---------------------0--1-----------0-------------------------------|
B|--------3---------3-----------------3-------------------------------|
G|------2-----------2-----------------2-------------------------------|
D|--0---------------3-----------------3-------------------------------|
A|--------------------------------------------------------------------|
E|-------------------------------------------20\--3-p-0---------------|
 |
 |
 | Guitar 2 (continued)   (This will end Rhy fig 1)               
E|-------------------------------------------------------------------|
B|-------------------------------------------------------------------|
G|--7---------------7--9--10-----------------------------------------|
D|--7----------------------------------------------------------------|
A|--5----------------------------------------------------------------|
E|-------------------------------------------------------------------|

Chorus
   Guitar 3 (elec. With dist.)
E|-------------------------------------------------------------------|
B|-------------------------------------------------------------------|
G|--0------5-----------6--------------7-----7\-----0---5--------6----|
D|--0------5-----------5--------------5-----5\-----0---5--------5----|
A|--x------3-----------x--------------x------------x---3--------x----|
E|--3------3-----------3--------------3------------3---3--------3----|
 |
 |
 | Guitar 4 (elec. With Dist.)
E|-------------------------------------------------------------------|
B|-------------------------------------------------------------------|
G|---------5-------------------------------------------5-------------|
D|--5--x---5---x--x----5------x--x----5------------5---5--------5----|
A|--5--x---3---x--x----5------x--x----5-----x--x---5---3--x--x--5----|
E|--3------3-----------3--------------3-----x--x---3---3--x--x--3----|


1st Interlude
   Guitar 3 (elec. w/ Dist.)            1/4
E|--------------------------------------/----------------------------|
B|--------------------10---------------/-----------------------------|
G|--12-14--15---7--9--10----------5—-3/-------12--14--15---7---9--10-|
D|--12-14--15---7--9--10----------5--3---5----12--14--15---7---9—-10-|
A|---------------------------------------5---------------------------|
E|-------------------------------------------------------------------|
 |
 |
 | Guitar 4 (elec. w/ Dist.) (Rhy fig 2)
E|-------------------------------------------------------------------|
B|-------------------------------------------------------------------|
G|-------------------------------------------------------------------|
D|--5--7----8---------------------------------5---7----8-------------|
A|---------------5--7--8-----------------------------------5---7---8-|
E|--------------------------------8--6-------------------------------|


   Guitar 1 (continued)
E|-------------------------------------------------------------------|
B|-------------------------------------------------------------------|
G|--5---3------------------------------------------------------------|
D|--5---3------------------------------------------------------------|
A|-------------------------------------------------------------------|
E|-------------------------------------------------------------------|
 |
 |
 | Guitar 2 (continued)
E|-------------------------------------------------------------------|
B|-------------------------------------------------------------------|
G|-------------------------------------------------------------------|
D|-------------------------------------------------------------------|
A|-------------------------------------------------------------------|
E|--8---6------------------------------------------------------------|            
(Now guitars 1 & 2 repeat the last two tablature lines respectively)
                    

 | Guitar 2 (Rhy fig 3)
E|-------------------------------------------------------------------|
B|-------------------------------------------------------------------|
G|-------------------------------------------------------------------|
D|-------------------------------------------------------------------|
A|--5-5-5-5-5-5-5-5-5-5-5-5-5-5-5-5-5-5-5-5-5-5-5-5-5-5-5-5-5-5-5-5-5|
E|--3-3-3-3-3-3-3-3-3-3-3-3-3-3-3-3-3-3-3-3-3-3-3-3-3-3-3-3-3-3-3-3-3|


   Guitars 3 & 4 
E|-------------------------------------------------------------------|
B|-------------------------------------------------------------------|
G|-15-----11-----13-----9-----11-------------------------------------|
D|--x-----x-------x-----x-----x--------------------------------------|
A|-13-----9------11-----7-----9--------------------------------------|
E|-------------------------------------------------------------------|
 |
 |
 | Guitar 2 
E|-------------------------------------------------------------------|
B|-------------------------------------------------------------------|
G|-------------------------------------------------------------------|
D|5------------------------------------------------------------------|
A|5-5-5-5-5-5-5-5-5-5-5-5-5-5-5-5-5-5-5-5-5-5-5-5-5-5-5-5-5-5-5-5-5-5|
E|3-3-3-3-3-3-3-3-3-3-3-3-3-3-3-3-3-3-3-3-3-3-3-3-3-3-3-3-3-3-3-3-3-3|


   Guitars 3 & 4 (continued) 
E|-------------------------------------------------------------------|
B|-------------------------------------------------------------------|
G|-15-----11-----13-----9-----11-------------------------------------|
D|--x-----x-------x-----x-----x--------------------------------------|
A|-13-----9------11-----7-----9--------------------------------------|
E|-------------------------------------------------------------------|
 |
 |
 | Guitar 2 (continued)
E|-------------------------------------------------------------------|
B|-------------------------------------------------------------------|
G|-------------------------------------------------------------------|
D|5------------------------------------------------------------------|
A|5-5-5-5-5-5-5-5-5-5-5-5-5-5-5-5-5-5-5-5-5-5-5-5-5-5-5-5-5-5-5-5-5-5|
E|3-3-3-3-3-3-3-3-3-3-3-3-3-3-3-3-3-3-3-3-3-3-3-3-3-3-3-3-3-3-3-3-3-3|

 
  Guitar 1
E|-------------------------------------------------------------------|
B|-------------------------------------------------------------------|
G|-------------------------------------------------------------------|
D|-------------------------------------------------------------------|
A|-3-5-5-5-5-5-5-5-5-5-5-5---5---5---2---3----5-------5--5-----------|
E|-3-3-3-3-3-3-3-3-3-3-3-3---3---3---0---1----3-------3--3-----------|
 |
 |
 | Guitar 2 (continued)
E|-------------------------------------------------------------------|
B|-------------------------------------------------------------------|
G|------15--11--13---9--10—-10/-12---9--10---12—-12/-14-14-----------|
D|-------x---x---x---x---x---x---x---x---x----x---x---x--x-----------|
A|------13---9--11---7---8---8/-10---7---8---10—-10/-12-12-----------|
E|-------------------------------------------------------------------|

Bridge
   Guitar 3 
E|---------------------------------------------3--3-----------3------|
B|-------------------------17------x-----------3--3------------------|
G|--5-------------x-----x----------x--x----0----------x--3h4---------|
D|--5-------------x-----x-------------x----0-------------------------|
A|--3-------------x-----x--------------------------------------------|
E|----------------x-----x--------------------------------------------|
 |
 |
 | Guitar 4 
E|---------------------------------------------x--x---x----x--x--x---|
B|----------------5--5-------------5-----------x--x---x----x--x--x---|
G|--4----x--x--x--5--5--x---x---x--5---------------------------------|
D|-----x-x--x--x--5--5--x---x---x------------------------------------|
A|-------------------------------------------------------------------|
E|-------------------------------------------------------------------|


   Guitar 3 (continued)
E|--------7------------------10--------------10-12/-14-14------------|
B|-----------------------10----------10----------x------x------------|
G|--5/7------x--x-----11----------------10h11---12/-14-14---14\------|
D|-----------------12------------------------------------------------|
A|-------------------------------------------------------------------|
E|-------------------------------------------------------------------|
 |
 |
 | Guitar 4 (continued)
E|--3-3--------------------------------------------------------------|
B|--3-3------x--x-----------------------10---------------------------|

D|------------------x-----x---x---x---x-------x--x-------x---x-------|
A|-------------------------------------------------------------------|
E|-------------------------------------------------------------------|


   Guitar 3 (continued)
E|-------------------------------------------------------------------|
B|--9----------------------------------------------------------------|
G|--9----------------------------------------------------------------|
D|--9---------10-----------------------------------------------------|
A|--7----------8-----------------------------------------------------|
E|-------------8—----------------------------------------------------|
 |             
 |                   
 | Guitar 4 (continued)
E|-------------------------------------------------------------------|
B|-------------------------------------------------------------------|
G|-------------------------------------------------------------------|
D|--9---------10-----------------------------------------------------|
A|--7----x--x--8-----------------------------------------------------|
E|-------------------------------------------------------------------|
               (Let these notes ring until they become feedback)

2nd Interlude

Guitar 2 plays Rhy fig 3
Guitar 4 plays Rhy fig 2 twice

   Guitar 3 (elec. w/ Dist.)            1/4
E|--------------------------------------/----------------------------|
B|--------------------10---------------/-----------------------------|
G|--12-14--15---7--9--10------5—-3/-------12--14--15---7---9--10-5--3|
D|--12-14--15---7--9--10------5--3---5----12--14--15---7---9—-10-5--3|
A|-----------------------------------5-------------------------------|
E|-------------------------------------------------------------------|
 
   Guitar 3
E|--------------------------------------/----------------------------|
B|--------------------10---------------/-----------------------------|
G|-12-14--15----7--9--10------5—-3/-------12--14--15---7---9--10-5--3|
D|-12-14--15----7--9--10------5--3---5----12--14--15---7---9—-10-5--3|
A|-----------------------------------5-------------------------------|
E|-------------------------------------------------------------------|
 |
 |
 | Guitar 2 
E|-------------------------------------------------------------------|
B|-------------------------------------------------------------------|
G|-------------------------------------------------------------------|
D|-------------------------------------------5-----------5--5--5-5--5|
A|--5--5--5-5-5-5--5---5-5-5--5--5-5--5-5----5---------5-5--5--5-5--5|
E|--3--3--3-3-3-3--3---3-3-3--3--3-3--3-3----3---------3-3--3--3-3--3|

   2nd Verse
Guitar 2 plays rhy fig 1 

Guitar 5 (w/ sub-octave effect)   
Gradually bend (1/2)                              ½    full
E|-----/----------------------------------------------/----/---\-----|
B|----/---15------17-------------------------15p13-12/----/-----\----|
G|-15/--------------------------------------x-----------14-------\---|
D|-----------------------------------------x-------------------------|
A|-------------------------------------------------------------------|
E|-------------------------------------------------------------------|
 |                                                      (grad release)
 |
 | Guitar 3
 |  Gradually bend (1/2)   
E|--/-/--------------------------------------------------------------|
B|-3-/--3------------------------------------------------------------|
G|-3----3------------------------------------------------------------|
D|-------------------------------------------------------------------|
A|-------------------------------------------------------------------|
E|-------------------------------------------------------------------|
 |
 |
 | Guitar 1
E|---------------------------------------0---------------------------|
B|-3---3-----------3------------------1-----------------3---4-----3--|
G|-0-----------2------2------------0-----------0----------2----------|
D|-0---------------------4------2-----------------2--0---------0-----|
A|-x-------2-----------------3---------------------------------------|
E|-3-----------------------------------------------------------------|

   Guitar 4
E|-------------------------------------------------------------------|
B|-------------------------------------------------------------------|
G|-------------------------------------------------------------------|
D|-12----------------------------------------------------------------|
A|-------------------------------------------------------------------|
E|-------------------------------------------------------------------|
 |
 |
 | Guitar 1
E|------3------------------------------------------------------------|
B|---------0-----0-----------3---------------------------------------|
G|-0----------0----------2-------2-----------------------------------|
D|-0-----------------------------------------------------------------|
A|-x-----------------2-----------------------------------------------|
E|-3-----------------------------------------------------------------|

   Guitar 1
E|---------0---------------------------------------------3-----------|
B|------------------0------------3------4----------3--------0-----0--|
G|-----0--------0------------2-------2------2--------0---------0-----|
D|-----------------------0----------------------0----0---------------|
A|--3------------------------------------------------x---------------|
E|---------------------------------------------------3---------------|
   
   Guitar 1
E|-----------------------------0--------------------0----------------|
B|-----------3-------------------------0------------------------3----|
G|------2--------2------0-----------0---------2--------2-------------|
D|------------------4----------------------------2--------2--0-------|
A|-2-----------------------3--------------0--------------------------|
E|-------------------------------------------------------------------|
   
   Guitar 1
E|--------0---1------------------------------------------------------|
B|-----3-------------------------------------------------------------|
G|-2---2-------------------------------------------------------------|
D|-----3-------------------------------------------------------------|
A|-------------------------0-----------------------------------------|
E|---------------------19\-0-----------------------------------------|


Chorus
   Guitar 3 (elec. With dist.)
E|-------------------------------------------------------------------|
B|-------------------------------------------------------------------|
G|--0------5-----------6--------------7-----7\-----0---5--------6----|
D|--0------5-----------5--------------5-----5\-----0---5--------5----|
A|--x------3-----------x--------------x------------x---3--------x----|
E|--3------3-----------3--------------3------------3---3--------3----|
 |
 |
 | Guitar 4 (elec. With Dist.)
E|-------------------------------------------------------------------|
B|-------------------------------------------------------------------|
G|---------5-------------------------------------------5-------------|
D|--5--x---5---x--x----5------x--x----5------------5---5--------5----|
A|--5--x---3---x--x----5------x--x----5-----x--x---5---3--x--x--5----|
E|--3------3-----------3--------------3-----x--x---3---3--x--x--3----|


1st Interlude
   Guitar 3 (elec. w/ Dist.)            1/4
E|--------------------------------------/----------------------------|
B|--------------------10---------------/-----------------------------|
G|--12-14--15---7--9--10----------5—-3/-------12--14--15---7---9--10-|
D|--12-14--15---7--9--10----------5--3---5----12--14--15---7---9—-10-|
A|---------------------------------------5---------------------------|
E|-------------------------------------------------------------------|
 |
 |
 | Guitar 4 (elec. w/ Dist.) (Rhy fig 2)
E|-------------------------------------------------------------------|
B|-------------------------------------------------------------------|
G|-------------------------------------------------------------------|
D|--5--7----8---------------------------------5---7----8-------------|
A|---------------5--7--8-----------------------------------5---7---8-|
E|--------------------------------8--6-------------------------------|


   Guitar 3 (continued)
E|-------------------------------------------------------------------|
B|-------------------------------------------------------------------|
G|--5---3------------------------------------------------------------|
D|--5---3------------------------------------------------------------|
A|-------------------------------------------------------------------|
E|-------------------------------------------------------------------|
 |
 |
 | Guitar 4 (continued)
E|-------------------------------------------------------------------|
B|-------------------------------------------------------------------|
G|-------------------------------------------------------------------|
D|-------------------------------------------------------------------|
A|-------------------------------------------------------------------|
E|--8---6------------------------------------------------------------|            



Outro
Guitar 2 plays Rhy fig 3 one and a half times
Guitar 4 plays Rhy fig 2 one and a half times 

E|--------------------------------------/----------------------------|
B|--------------------10---------------/-----------------------------|
G|-12-14--15----7--9--10------5—-3/-------12--14--15---7---9--10-5--3|
D|-12-14--15----7--9--10------5--3---5----12--14--15---7---9—-10-5--3|
A|-----------------------------------5-------------------------------|
E|-------------------------------------------------------------------|

E|--------------------------------------|
B|--------------------10----------------|
G|-12-14--15----7--9--10------5—-3/-----|
D|-12-14--15----7--9--10------5--3---5--|
A|-----------------------------------5--|
E|--------------------------------------|
 
 
   Guitar 3
E|-------------------------------------------------------------------|
B|-------------------------------------------------------------------|
G|-12--14--15--------------7----9---10-------------------------------|
D|-12--14--15--------------7----9---10--------10----8----------------|
A|--------------------------------------------10----6----------------|
E|--------------------------------------------------6----------------|
 |
 |
 | Guitar 4
E|-------------------------------------------------------------------|
B|-------------------------------------------------------------------|
G|-------------------------------------------------------------------|
D|--5---7---8----------------------------------5----8----------------|
A|-------------------------5----7----8---------3----6----------------|
E|-------------------------------------------------------------------|
 |
 |
 | Guitar 2
E|-------------------------------------------------------------------|
B|-------------------------------------------------------------------|
G|-------------------------------------------------------------------|
D|--5------------------------------------------5----8----------------|
A|--5-------5----5----5----5----5----5----5----3----6----------------|
E|--3-------3----3----3----3----3----3----3--------------------------|

   Enjoy it!!!
comments
print report bad tab
6 comments total. Showing first comments.
0 reply
cheepskayte wrote on December 18 2005, 01:28 am

dude this tab is brilliant you deserve a medal trust me your the next slash

0 reply
Bassman1993 wrote on February 21 2007, 02:24 pm

its good but slash standards? ah wtf its great best ive seen!

0 reply
slash121 wrote on December 22 2008, 05:59 am

pretty dam gooood !!!

I want to post or [tab]
guest
You may want to rate the tab now too:
select rating
Please do not post tabs as comments. Select "correction" instead!