Oops, an error
Loading. Please wait.

Locomotive Tab

ver1
ver1

Whole song

More versions @911Tabs.com
12,082 views 66 this week
5 commentsread comments
1 2 3 4 5
excellent!
x 6
Autoscroll
+/-
esc
set tempo
stop
Contributor
Hey! There's an official Ultimate Guitar app which is ideal
for learning songs when you're away from computer. Get the app
WARNING: You are trying to view
                                    content from Ultimate-Guitar.com
                                    in an unauthorized application,
                                    which is prohibited.

                                    Please use an official Ultimate
                                    Guitar Tabs application for iPhone,
                                    iPad or Android to access legitimate
                                    chords, guitar, bass, and drum tabs
                                    from Ultimate-Guitar.com database.

                                    Type "ultimate guitar tabs" in Apple
                                    App Store's or Android Market's
                                    search to find the application.
Locomotive by guns n roses
tab by rui barbosa

sorry if it`s too long but got both rhythm parts , fills and the solo.

guitar 1 (slash):
                                                                       
D#||----------------------|--------------------|----------------------|
A#||------12----------10--|--10/---------------|------x---------------|
F#||------12----------9---|--9/----------------|------x------------2--|
C#||------------------7---|--7/----------------|-----------11/-----2--|
G#||----------------------|--------------------|-------------------0--|
D#||----------------------|--------------------|----------------------|


                                                           
---------------------------|------------------------------|
---------------------------|------------------------------|
---------------------------|------------------------------|
---------------------------|------------------------------|
--------0-0---0-0---0-0----|----0----0-0---0-0-0---0------|
------------3-----3-----2~-|-------2-----2-------2---3-5~-|


                                                              
------------------------------|------------------------------|
------------------------------|------------------------------|
------------------------------|---------------------------5--|
------------------------------|---------------------------5--|
----0----0-0---0-0-0---0-0----|----0----0-0---0-0-0---0------|
-------3-----3-------0-----2~-|-------2-----2-------2---3----|


                                                            
------------------------------|----------------------------|
------------------------------|----------------------------|
----2-------------------------|----------------------------|
----2-------------------------|----------------------------|
-------0-0-0---0-0-0---0------|----0----0-0---0-0----------|
-------------3-------3---0-2~-|-------2-----2-----3--2--0--|


                                                                              
-------------------------|-------------------------|-------------------------|
-------------------------|-------------------------|-------------------------|
------7h9--7h9--7--7--9--|------7h9--7h9--7--7--9--|------7h9--7h9--7--7--9--|
------7h9--7h9--7--7--9--|------7h9--7h9--7--7--9--|------7h9--7h9--7--7--9--|
------7----7----7--7--7--|------7----7----7--7--7--|------7----7----7--7--7--|
-------------------------|-------------------------|-------------------------|


                                                           
-----------------------|----------------------------------|
-----------------------|----------------------------------|
----9--7h9/------------|----------------------------------|
----9--7h9/--5----5----|----------------------------------|
----7--7-----5----5----|------0-----0-----0-----0---------|
-------------3----3----|--3-5---3-5---3-5---3-5---0-0-3-0-|


                                                                      
----------------------------------|----------------------------------|
----------------------------------|----------------------------------|
----------------------------------|----------------------------------|
----------------------------------|----------------------------------|
------0-----0-----0-----0---------|------0-----0-----0-----0---------|
--3-5---3-5---3-5---3-5---0-0-3-0-|--3-5---3-5---3-5---3-5---0-0-3-0-|


                                                                    
----------------------------------|--------------------------------|
----------------------------------|--------------------------------|
----------------------------------|--------------------------------|
----------------------------------|--------------------------------|
------0-----0-----0-----0---------|-----0------0-----0-----0-------|
--3-5---3-5---3-5---3-5---0-0-3-0-|--3b----3-5---3-5---3-5---0-3-0-|


                                                                      
----------------------------------|----------------------------------|
----------------------------------|----------------------------------|
----------------------------------|----------------------------------|
----------------------------------|----------------------------------|
------0-----0-----0-----0---------|------0-----0-----0-----0---------|
--3-5---3-5---3-5---3-5---0-0-3-0-|--3-5---3-5---3-5---3-5---0-0-3-0-|


                                                                      
----------------------------------|----------------------------------|
----------------------------------|----------------------------------|
----------------------------------|----------------------------------|
----------------------------------|----------------------------------|
------0-----0-----0-----0---------|------0-----0-----0-----0---------|
--3-5---3-5---3-5---3-5---0-0-3-0-|--3-5---3-5---3-5---3-5---0-0-3-0-|


                                                                      
----------------------------------|----------------------------------|
----------------------------------|----------------------------------|
----------------------------------|----------------------------------|
----------------------------------|----------------------------------|
------0-----0-----0-----0---------|------0-----0-----0-----0---------|
--3-5---3-5---3-5---3-5---0-0-3-0-|--3-5---3-5---3-5---3-5---0-0-3-0-|


                                                                      
----------------------------------|----------------------------------|
----------------------------------|----------------------------------|
----------------------------------|----------------------------------|
----------------------------------|----------------------------------|
------0-----0-----0-----0---------|------0-----0-----0-----0---------|
--3-5---3-5---3-5---3-5---0-0-3-0-|--3-5---3-5---3-5---3-5---0-0-3-0-|


                                                                      
----------------------------------|----------------------------------|
----------------------------------|----------------------------------|
----------------------------------|----------------------------------|
----------------------------------|----------------------------------|
------0-----0-----0-----0---------|------0-----0-----0-----0---------|
--3-5---3-5---3-5---3-5---0-0-3-0-|--3-5---3-5---3-5---3-5---0-0-3-0-|


                                                                      
----------------------------------|----------------------------------|
----------------------------------|----------------------------------|
----------------------------------|----------------------------------|
----------------------------------|----------------------------------|
------0-----0-----0-----0---------|------0-----0-----0-----0---------|
--3-5---3-5---3-5---3-5---0-0-3-0-|--3-5---3-5---3-5---3-5---0-0-3-0-|


                                                                      
----------------------------------|----------------------------------|
----------------------------------|----------------------------------|
----------------------------------|----------------------------------|
----------------------------------|----------------------------------|
------0-----0-----0-----0---------|------0-----0-----0-----0---------|
--3-5---3-5---3-5---3-5---0-0-3-0-|--3-5---3-5---3-5---3-5---0-0-3-0-|


                                                                      
----------------------------------|----------------------------------|
----------------------------------|----------------------------------|
----------------------------------|----------------------------------|
----------------------------------|----------------------------------|
------0-----0-----0-----0---------|------0-----0-----0-----0---------|
--3-5---3-5---3-5---3-5---0-0-3-0-|--3-5---3-5---3-5---3-5---0-0-3-0-|


                                                                      
----------------------------------|----------------------------------|
----------------------------------|----------------------------------|
----------------------------------|----------------------------------|
----------------------------------|----------------------------------|
------0-----0-----0-----0---------|------0-----0-----0-----0---------|
--3-5---3-5---3-5---3-5---0-0-3-0-|--3-5---3-5---3-5---3-5---0-0-3-0-|


                                                                            
----------------------------|-----------------------|----------------------|
----------------------------|-----------------------|----------------------|
----------------------------|-----------------------|----------------------|
-------------------------4--|----4--4----4--4-------|-------------------4--|
-----0----0-----0----0---4--|----4--4----4--4----7--|------7----7--7----4--|
--3~----3---3-0----3-----2--|----2--2----2--2----5--|------5----5--5----2--|


                                                                      
----------------------|----------------------|-----------------------|
----------------------|----------------------|-----------------------|
----------------------|----------------------|-----------------------|
------4----4--4-------|-------------------4--|------4----4--5--4--2--|
------4----4--4----7--|------7----7--7----4--|------4----4--5--4--2--|
------2----2--2----5--|------5----5--5----2--|------2----2--3--2--0--|


                                                                              
-------------------------|-------------------------|-------------------------|
-------------------------|-------------------------|-------------------------|
------7h9--7h9--7--7--9--|------7h9--7h9--7--7--9--|------7h9--7h9--7--7--9--|
------7h9--7h9--7--7--9--|------7h9--7h9--7--7--9--|------7h9--7h9--7--7--9--|
------7----7----7--7--7--|------7----7----7--7--7--|------7----7----7--7--7--|
-------------------------|-------------------------|-------------------------|


                                                           
-----------------------|----------------------------------|
-----------------------|----------------------------------|
----9--7h9/------------|----------------------------------|
----9--7h9/--5----5----|----------------------------------|
----7--7-----5----5----|------0-----0-----0-----0---------|
-------------3----3----|--3-5---3-5---3-5---3-5---0-0-3-0-|


                                                                      
----------------------------------|----------------------------------|
----------------------------------|----------------------------------|
----------------------------------|----------------------------------|
----------------------------------|----------------------------------|
------0-----0-----0-----0---------|------0-----0-----0-----0---------|
--3-5---3-5---3-5---3-5---0-0-3-0-|--3-5---3-5---3-5---3-5---0-0-3-0-|


                                                                      
----------------------------------|----------------------------------|
----------------------------------|----------------------------------|
----------------------------------|----------------------------------|
----------------------------------|----------------------------------|
------0-----0-----0-----0---------|------0-----0-----0-----0---------|
--3-5---3-5---3-5---3-5---0-0-3-0-|--3-5---3-5---3-5---3-5---0-0-3-0-|


                                                                      
----------------------------------|----------------------------------|
----------------------------------|----------------------------------|
----------------------------------|----------------------------------|
----------------------------------|----------------------------------|
------0-----0-----0-----0---------|------0-----0-----0-----0---------|
--3-5---3-5---3-5---3-5---0-0-3-0-|--3-5---3-5---3-5---3-5---0-0-3-0-|


                                                                      
----------------------------------|----------------------------------|
----------------------------------|----------------------------------|
----------------------------------|----------------------------------|
----------------------------------|----------------------------------|
------0-----0-----0-----0---------|------0-----0-----0-----0---------|
--3-5---3-5---3-5---3-5---0-0-3-0-|--3-5---3-5---3-5---3-5---0-0-3-0-|


                                                                      
----------------------------------|----------------------------------|
----------------------------------|----------------------------------|
----------------------------------|----------------------------------|
----------------------------------|----------------------------------|
------0-----0-----0-----0---------|------0-----0-----0-----0---------|
--3-5---3-5---3-5---3-5---0-0-3-0-|--3-5---3-5---3-5---3-5---0-0-3-0-|


                                                                      
----------------------------------|----------------------------------|
----------------------------------|----------------------------------|
----------------------------------|----------------------------------|
----------------------------------|----------------------------------|
------0-----0-----0-----0---------|------0-----0-----0-----0---------|
--3-5---3-5---3-5---3-5---0-0-3-0-|--3-5---3-5---3-5---3-5---0-0-3-0-|


                                                                      
----------------------------------|----------------------------------|
----------------------------------|----------------------------------|
----------------------------------|----------------------------------|
----------------------------------|----------------------------------|
------0-----0-----0-----0---------|------0-----0-----0-----0---------|
--3-5---3-5---3-5---3-5---0-0-3-0-|--3-5---3-5---3-5---3-5---0-0-3-0-|


                                                                      
----------------------------------|----------------------------------|
----------------------------------|----------------------------------|
----------------------------------|----------------------------------|
----------------------------------|----------------------------------|
------0-----0-----0-----0---------|------0-----0-----0-----0---------|
--3-5---3-5---3-5---3-5---0-0-3-0-|--3-5---3-5---3-5---3-5---0-0-3-0-|


                                                                      
----------------------------------|----------------------------------|
----------------------------------|----------------------------------|
----------------------------------|----------------------------------|
----------------------------------|----------------------------------|
------0-----0-----0-----0---------|------0-----0-----0-----0---------|
--3-5---3-5---3-5---3-5---0-0-3-0-|--3-5---3-5---3-5---3-5---0-0-3-0-|


                                                        
-----------------------------|-------------------------|
-----------------------------|-------------------------|
-----------------------------|-------------------------|
-----0----0-----0-0---0------|----0----0-----5----5----|
--3-----3---3h0-----3-----3~-|-------3---3h0-5----5----|
-----------------------------|---------------3----3----|


                                                                                
--------------------------|-------------------------|--------------------------|
--------------------------|-------------------------|--------------------------|
--------------------------|-------------------------|--------------------------|
--------------------------|-----9--8--7--5-----5----|--------------------------|
--7--7--6--6--5--5--4--4--|--3--7--6--5--3--0--3----|--7--7--6--6--5--5--4--4--|
--5--5--4--4--3--3--2--2--|--1----------------------|--5--5--4--4--3--3--2--2--|


                                                                               
-------------------------|--------------------------|-------------------------|
-------------------------|--------------------------|-------------------------|
-------------------------|--------------------------|-------------------------|
-----9--8--7--5-----5----|--------------------------|-----9--8--7--5-----5----|
--3--7--6--5--3--0--3----|--7--7--6--6--5--5--4--4--|--3--7--6--5--3--0--3----|
--1----------------------|--5--5--4--4--3--3--2--2--|--1----------------------|


                                                                            
--------------------------|----------------------|-------------------------|
--------------------------|----------------------|-------------------------|
--------------------------|----------------------|-------------------------|
--------------------------|--------------5----5--|-------------------------|
--7--7--6--6--5--5--4--4--|----3----2----3----3--|--7-7--------------0-0---|
--5--5--4--4--3--3--2--2--|----1----0------------|--5-5----------0-3-----3-|


                                                                             
-------------------------|-------------------------|------------------------|
-------------------------|-------------------------|------------------------|
-------------------------|-------------------------|------------------------|
-------------------------|-------------------------|------------------------|
--7-7--------------0-0---|--7-7--------------0-0---|--7-7--------------0-0--|
--5-5----------0-3-----3-|--5-5----------0-3-----3-|--5-5----------0-3------|


                                                                                
-------------------------|--------------------------|--------------------------|
----3-------3------------|-----3-------3------------|-----3-------3------------|
----2---2---2---2--------|-----2---2---2---2--------|-----2---2---2---2--------|
----0---2---0---2--------|-----0---2---0---2--------|-----0---2---0---2--------|
--------0-------0------0-|--0------0-------0------0-|--0------0-------0------0-|
-------------------0-3---|--------------------0-3---|--------------------0-3---|


                                                              
-------------|---------------------|-------------------------|
-----3-------|---------------------|-------------------------|
-----2---2---|--5------------------|------7h9--7h9--7--7--9--|
-----0---2---|--5------------------|------7h9--7h9--7--7--9--|
--0------0---|--3------------------|------7----7----7--7--7--|
-------------|---------------12/---|-------------------------|


                                                                            
-------------------------|-------------------------|-----------------------|
-------------------------|-------------------------|-----------------------|
------7h9--7h9--7--7--9--|------7h9--7h9--7--7--9--|----9--7h9/------------|
------7h9--7h9--7--7--9--|------7h9--7h9--7--7--9--|----9--7h9/--5----5----|
------7----7----7--7--7--|------7----7----7--7--7--|----7--7-----5----5----|
-------------------------|-------------------------|-------------3----3----|


                                                                      
----------------------------------|----------------------------------|
----------------------------------|----------------------------------|
----------------------------------|----------------------------------|
----------------------------------|----------------------------------|
------0-----0-----0-----0---------|------0-----0-----0-----0---------|
--3-5---3-5---3-5---3-5---0-0-3-0-|--3-5---3-5---3-5---3-5---0-0-3-0-|


                                                                      
----------------------------------|----------------------------------|
----------------------------------|----------------------------------|
----------------------------------|----------------------------------|
----------------------------------|----------------------------------|
------0-----0-----0-----0---------|------0-----0-----0-----0---------|
--3-5---3-5---3-5---3-5---0-0-3-0-|--3-5---3-5---3-5---3-5---0-0-3-0-|


                                                                      
----------------------------------|----------------------------------|
----------------------------------|----------------------------------|
----------------------------------|----------------------------------|
----------------------------------|----------------------------------|
------0-----0-----0-----0---------|------0-----0-----0-----0---------|
--3-5---3-5---3-5---3-5---0-0-3-0-|--3-5---3-5---3-5---3-5---0-0-3-0-|


                                                                      
----------------------------------|----------------------------------|
----------------------------------|----------------------------------|
----------------------------------|----------------------------------|
----------------------------------|----------------------------------|
------0-----0-----0-----0---------|------0-----0-----0-----0---------|
--3-5---3-5---3-5---3-5---0-0-3-0-|--3-5---3-5---3-5---3-5---0-0-3-0-|


                                                                      
----------------------------------|----------------------------------|
----------------------------------|----------------------------------|
----------------------------------|----------------------------------|
----------------------------------|----------------------------------|
------0-----0-----0-----0---------|------0-----0-----0-----0---------|
--3-5---3-5---3-5---3-5---0-0-3-0-|--3-5---3-5---3-5---3-5---0-0-3-0-|


                                                                      
----------------------------------|----------------------------------|
----------------------------------|----------------------------------|
----------------------------------|----------------------------------|
----------------------------------|----------------------------------|
------0-----0-----0-----0---------|------0-----0-----0-----0---------|
--3-5---3-5---3-5---3-5---0-0-3-0-|--3-5---3-5---3-5---3-5---0-0-3-0-|


                                                                      
----------------------------------|----------------------------------|
----------------------------------|----------------------------------|
----------------------------------|----------------------------------|
----------------------------------|----------------------------------|
------0-----0-----0-----0---------|------0-----0-----0-----0---------|
--3-5---3-5---3-5---3-5---0-0-3-0-|--3-5---3-5---3-5---3-5---0-0-3-0-|


                                                                
----------------------------------|----------------------------|
----------------------------------|----------------------------|
----------------------------------|----------------------------|
----------------------------------|-------------------------4--|
------0-----0-----0-----0---------|-----0----0-----0----0---4--|
--3-5---3-5---3-5---3-5---0-0-3-0-|--3~----3---3-0----3-----2--|


                                                                      
-----------------------|----------------------|----------------------|
-----------------------|----------------------|----------------------|
-----------------------|----------------------|----------------------|
----4--4----4--4-------|-------------------4--|------4----4--4-------|
----4--4----4--4----7--|------7----7--7----4--|------4----4--4----7--|
----2--2----2--2----5--|------5----5--5----2--|------2----2--2----5--|


                                                                         
----------------------|-----------------------|-------------------------|
----------------------|-----------------------|-------------------------|
----------------------|-----------------------|------7h9--7h9--7--7--9--|
-------------------4--|------4----4--5--4--2--|------7h9--7h9--7--7--9--|
------7----7--7----4--|------4----4--5--4--2--|------7----7----7--7--7--|
------5----5--5----2--|------2----2--3--2--0--|-------------------------|


                                                                            
-------------------------|-------------------------|-----------------------|
-------------------------|-------------------------|-----------------------|
------7h9--7h9--7--7--9--|------7h9--7h9--7--7--9--|----9--7h9/------------|
------7h9--7h9--7--7--9--|------7h9--7h9--7--7--9--|----9--7h9/--5----5----|
------7----7----7--7--7--|------7----7----7--7--7--|----7--7-----5----5----|
-------------------------|-------------------------|-------------3----3----|


                                                                      
----------------------------------|----------------------------------|
----------------------------------|----------------------------------|
----------------------------------|----------------------------------|
----------------------------------|----------------------------------|
------0-----0-----0-----0---------|------0-----0-----0-----0---------|
--3-5---3-5---3-5---3-5---0-0-3-0-|--3-5---3-5---3-5---3-5---0-0-3-0-|


                                                                      
----------------------------------|----------------------------------|
----------------------------------|----------------------------------|
----------------------------------|----------------------------------|
----------------------------------|----------------------------------|
------0-----0-----0-----0---------|------0-----0-----0-----0---------|
--3-5---3-5---3-5---3-5---0-0-3-0-|--3-5---3-5---3-5---3-5---0-0-3-0-|


                                                                      
----------------------------------|----------------------------------|
----------------------------------|----------------------------------|
----------------------------------|----------------------------------|
----------------------------------|----------------------------------|
------0-----0-----0-----0---------|------0-----0-----0-----0---------|
--3-5---3-5---3-5---3-5---0-0-3-0-|--3-5---3-5---3-5---3-5---0-0-3-0-|


                                                                      
----------------------------------|----------------------------------|
----------------------------------|----------------------------------|
----------------------------------|----------------------------------|
----------------------------------|----------------------------------|
------0-----0-----0-----0---------|------0-----0-----0-----0---------|
--3-5---3-5---3-5---3-5---0-0-3-0-|--3-5---3-5---3-5---3-5---0-0-3-0-|


                                                                      
----------------------------------|----------------------------------|
----------------------------------|----------------------------------|
----------------------------------|----------------------------------|
----------------------------------|----------------------------------|
------0-----0-----0-----0---------|------0-----0-----0-----0---------|
--3-5---3-5---3-5---3-5---0-0-3-0-|--3-5---3-5---3-5---3-5---0-0-3-0-|


                                                                      
----------------------------------|----------------------------------|
----------------------------------|----------------------------------|
----------------------------------|----------------------------------|
----------------------------------|----------------------------------|
------0-----0-----0-----0---------|------0-----0-----0-----0---------|
--3-5---3-5---3-5---3-5---0-0-3-0-|--3-5---3-5---3-5---3-5---0-0-3-0-|


                                                                      
----------------------------------|----------------------------------|
----------------------------------|----------------------------------|
----------------------------------|----------------------------------|
----------------------------------|----------------------------------|
------0-----0-----0-----0---------|------0-----0-----0-----0---------|
--3-5---3-5---3-5---3-5---0-0-3-0-|--3-5---3-5---3-5---3-5---0-0-3-0-|


                                                                      
----------------------------------|----------------------------------|
----------------------------------|----------------------------------|
----------------------------------|----------------------------------|
----------------------------------|----------------------------------|
------0-----0-----0-----0---------|------0-----0-----0-----0---------|
--3-5---3-5---3-5---3-5---0-0-3-0-|--3-5---3-5---3-5---3-5---0-0-3-0-|


                                                                      
----------------------------------|----------------------------------|
----------------------------------|----------------------------------|
----------------------------------|----------------------------------|
----------------------------------|----------------------------------|
------0-----0-----0-----0---------|------0-----0-----0-----0---------|
--3-5---3-5---3-5---3-5---0-0-3-0-|--3-5---3-5---3-5---3-5---0-0-3-0-|


                                                                 
----------------------------------|-----------------------------|
----------------------------------|-----------------------------|
----------------------------------|-----------------------------|
----------------------------------|-----0----0-----0-0---0------|
------0-----0-----0-----0---------|--3-----3---3h0-----3-----3~-|
--3-5---3-5---3-5---3-5---0-0-3-0-|-----------------------------|


                                                                               
-------------------------|--------------------------|-------------------------|
-------------------------|--------------------------|-------------------------|
-------------------------|--------------------------|-------------------------|
----0----0-----5----5----|--------------------------|-----9--8--7--5-----5----|
-------3---3h0-5----5----|--7--7--6--6--5--5--4--4--|--3--7--6--5--3--0--3----|
---------------3----3----|--5--5--4--4--3--3--2--2--|--1----------------------|


                                                                                
--------------------------|-------------------------|--------------------------|
--------------------------|-------------------------|--------------------------|
--------------------------|-------------------------|--------------------------|
--------------------------|-----9--8--7--5-----5----|--------------------------|
--7--7--6--6--5--5--4--4--|--3--7--6--5--3--0--3----|--7--7--6--6--5--5--4--4--|
--5--5--4--4--3--3--2--2--|--1----------------------|--5--5--4--4--3--3--2--2--|


                                                                            
-------------------------|--------------------------|----------------------|
-------------------------|--------------------------|----------------------|
-------------------------|--------------------------|----------------------|
-----9--8--7--5-----5----|--------------------------|--------------5----5--|
--3--7--6--5--3--0--3----|--7--7--6--6--5--5--4--4--|----3----2----3----3--|
--1----------------------|--5--5--4--4--3--3--2--2--|----1----0------------|


                                                                              
-------------------------|-------------------------|-------------------------|
-------------------------|-------------------------|-------------------------|
-------------------------|-------------------------|-------------------------|
-------------------------|-------------------------|-------------------------|
--7-7--------------0-0---|--7-7--------------0-0---|--7-7--------------0-0---|
--5-5----------0-3-----3-|--5-5----------0-3-----3-|--5-5----------0-3-----3-|


                                                                              
------------------------|-------------------------|--------------------------|
------------------------|----3-------3------------|-----3-------3------------|
------------------------|----2---2---2---2--------|-----2---2---2---2--------|
------------------------|----0---2---0---2--------|-----0---2---0---2--------|
--7-7--------------0-0--|--------0-------0------0-|--0------0-------0------0-|
--5-5----------0-3------|-------------------0-3---|--------------------0-3---|


                                                         
--------------------------|----------|------------------|
-----3-------3------------|----------|------------------|
-----2---2---2---2--------|----------|------------------|
-----0---2---0---2--------|----------|------------------|
--0------0-------0------0-|----------|------------------|
--------------------0-3---|----------|------------------|


                                                                      
----------------------------------|----------------------------------|
----------------------------------|----------------------------------|
----------------------------------|----------------------------------|
----------------------------------|----------------------------------|
------0-----0-----0-----0---------|------0-----0-----0-----0---------|
--3-5---3-5---3-5---3-5---0-0-3-0-|--3-5---3-5---3-5---3-5---0-0-3-0-|


                                                                    
----------------------------------|--------------------------------|
----------------------------------|--------------------------------|
----------------------------------|--------------------------------|
----------------------------------|--------------------------------|
------0-----0-----0-----0---------|------0-----0-----0-----0-0--3--|
--3-5---3-5---3-5---3-5---0-0-3-0-|--3-5---3-5---3-5---3-5---------|


                                                               
-------------------------------|------------------------------|
-------------------------------|------------------------------|
-------------------------------|------------------------------|
----0-------0-----0-----0------|----0-------0-----0-----0-----|
------0-3-5---3-5---3-5---0-3--|------0-3-5---3-5---3-5-------|
-------------------------------|---------------------------3--|


                                                                
-------------------------------|-------------------------------|
-------------------------------|-------------------------------|
-------------------------------|-------------------------------|
-------------------------------|-------------------------------|
----0-------0-----0-----0------|----0-------0-----0-----0------|
------0-3-5---3-5---3-5---0-3--|------0-3-5---3-5---3-5---0-5--|


                                                           
----------------------------|-----------------------------|
----------------------------|-----------------------------|
----------------------------|-----------------------------|
----------------------------|-----------------------------|
----------------------------|--------------------------5~-|
----7--5-7-7-5-7--5-7--7-5~-|----7--5-7-7-5-7--7-7-7-7----|


                                                                         
--------------------------|-------------------------|-------------------|
--------------------------|-------------------------|-------------------|
--------------------------|-------------------------|-------------------|
--------------------------|-------------------------|-------------------|
----7--5-7--5-7--5-7---5~-|----7--5h7h5-------------|-------------------|
--------------------------|-------------0-3~---3----|--5~---------------|


                                                                           
----------------------------|------------------|--------------------------|
----------------------------|------------------|--------------------------|
----------------------------|------------------|--------------------------|
--10--9--8--7--7/5-----5----|------------------|--------------------------|
--8---7--6--5--5/3-0-0-3----|------------------|--7--7--6--6--5--5--4--4--|
----------------------------|------------------|--5--5--4--4--3--3--2--2--|


                                                                               
-------------------------|--------------------------|-------------------------|
-------------------------|--------------------------|-------------------------|
-------------------------|--------------------------|-------------------------|
-----9--8--7--5-----5----|--------------------------|-----9--8--7--5-----5----|
--3--7--6--5--3--0--3----|--7--7--6--6--5--5--4--4--|--3--7--6--5--3--0--3----|
--1----------------------|--5--5--4--4--3--3--2--2--|--1----------------------|


                                                                                
--------------------------|-------------------------|--------------------------|
--------------------------|-------------------------|--------------------------|
--------------------------|-------------------------|--------------------------|
--------------------------|-----9--8--7--5-----5----|--------------------------|
--7--7--6--6--5--5--4--4--|--3--7--6--5--3--0--3----|--7--7--6--6--5--5--4--4--|
--5--5--4--4--3--3--2--2--|--1----------------------|--5--5--4--4--3--3--2--2--|


                                                                           
----------------------|-------------------------|-------------------------|
----------------------|-------------------------|-------------------------|
----------------------|-------------------------|-------------------------|
--------------5----5--|-------------------------|-------------------------|
----3----2----3----3--|--7-7--------------0-0---|--7-7--------------0-0---|
----1----0------------|--5-5----------0-3-----3-|--5-5----------0-3-----3-|


                                                                             
-------------------------|------------------------|-------------------------|
-------------------------|------------------------|----3-------3------------|
-------------------------|------------------------|----2---2---2---2--------|
-------------------------|------------------------|----0---2---0---2--------|
--7-7--------------0-0---|--7-7--------------0-0--|--------0-------0------0-|
--5-5----------0-3-----3-|--5-5----------0-3------|-------------------0-3---|


                                                      
--------------------------|--------------------------|
-----3-------3------------|-----3-------3------------|
-----2---2---2---2--------|-----2---2---2---2--------|
-----0---2---0---2--------|-----0---2---0---2--------|
--0------0-------0------0-|--0------0-------0------0-|
--------------------0-3---|--------------------0-3---|


                                                      
--------------------------|--------------------------|
-----3-------3------------|-----3---2---3---2--------|
-----2---2---2---2--------|-----2---2---2---2----0-2-|
-----0---2---0---2--------|--------------------2-----|
--0------0-------0----3-0-|--0-----------------------|
--------------------0-----|--------------------------|


                                                                       
---------------------------|---------------------------|--------------|
------3---2---3---2--------|------3---2---3---2--------|------3---2---|
--0---2---2---2---2----0-2-|--0---2---2---2---2----0-2-|--0---2---2---|
----2----------------2-----|----2----------------2-----|----2---------|
---------------------------|---------------------------|--------------|
---------------------------|---------------------------|--------------|


                                                                             
-------------------|------------------|------------------|------------------|
-------------------|------------------|------------------|------------------|
-------------------|------------------|------------------|------------------|
--5----------------|------------------|------------------|------------------|
--5----------------|------------------|------------------|------------------|
--3----------------|------------------|------------------|------------------|


                                                                            
------------------|------------------|------------------|------------------|
------------------|------------------|------------------|------------------|
------------------|------------------|------------------|------------------|
------------------|------------------|------------------|------------------|
------------------|------------------|------------------|------------------|
------------------|------------------|------------------|------------------|


                                                                            
------------------|------------------|------------------|------------------|
------------------|------------------|------------------|------------------|
------------------|------------------|------------------|------------------|
------------------|------------------|------------------|------------------|
------------------|------------------|------------------|------------------|
------------------|------------------|------------------|------------------|


                                                                            
------------------|------------------|------------------|------------------|
------------------|------------------|------------------|------------------|
------------------|------------------|------------------|------------------|
------------------|------------------|------------------|------------------|
------------------|------------------|------------------|------------------|
------------------|------------------|------------------|------------------|


                                                                            
------------------|------------------|------------------|------------------|
------------------|------------------|------------------|------------------|
------------------|------------------|------------------|------------------|
------------------|------------------|------------------|------------------|
------------------|------------------|------------------|------------------|
------------------|------------------|------------------|------------------|


                                                                            
------------------|------------------|------------------|------------------|
------------------|------------------|------------------|------------------|
------------------|------------------|------------------|------------------|
------------------|------------------|------------------|------------------|
------------------|------------------|------------------|------------------|
------------------|------------------|------------------|------------------|


                                                                            
------------------|------------------|------------------|------------------|
------------------|------------------|------------------|------------------|
------------------|------------------|------------------|------------------|
------------------|------------------|------------------|------------------|
------------------|------------------|------------------|------------------|
------------------|------------------|------------------|------------------|


                                                                            
------------------|------------------|------------------|------------------|
------------------|------------------|------------------|------------------|
------------------|------------------|------------------|------------------|
------------------|------------------|------------------|------------------|
------------------|------------------|------------------|------------------|
------------------|------------------|------------------|------------------|


                                                                            
------------------|------------------|------------------|------------------|
------------------|------------------|------------------|------------------|
------------------|------------------|------------------|------------------|
------------------|------------------|------------------|------------------|
------------------|------------------|------------------|------------------|
------------------|------------------|------------------|------------------|


                                                                            
------------------|------------------|------------------|------------------|
------------------|------------------|------------------|------------------|
------------------|------------------|------------------|------------------|
------------------|------------------|------------------|------------------|
------------------|------------------|------------------|------------------|
------------------|------------------|------------------|------------------|


                                                                            
------------------|------------------|------------------|------------------|
------------------|------------------|------------------|------------------|
------------------|------------------|------------------|------------------|
------------------|------------------|------------------|------------------|
------------------|------------------|------------------|------------------|
------------------|------------------|------------------|------------------|


                                                                            
------------------|------------------|------------------|------------------|
------------------|------------------|------------------|------------------|
------------------|------------------|------------------|------------------|
------------------|------------------|------------------|------------------|
------------------|------------------|------------------|------------------|
------------------|------------------|------------------|------------------|


                                                                            
------------------|------------------|------------------|------------------|
------------------|------------------|------------------|------------------|
------------------|------------------|------------------|------------------|
------------------|------------------|------------------|------------------|
------------------|------------------|------------------|------------------|
------------------|------------------|------------------|------------------|


                                                                            
------------------|------------------|------------------|------------------|
------------------|------------------|------------------|------------------|
------------------|------------------|------------------|------------------|
------------------|------------------|------------------|------------------|
------------------|------------------|------------------|------------------|
------------------|------------------|------------------|------------------|


                                                                            
------------------|------------------|------------------|------------------|
------------------|------------------|------------------|------------------|
------------------|------------------|------------------|------------------|
------------------|------------------|------------------|------------------|
------------------|------------------|------------------|------------------|
------------------|------------------|------------------|------------------|


                    
------------------||
------------------||
------------------||
------------------||
------------------||
------------------||



guitar 2(izzy stradlin):


D#||------------------|------------------|-------------------|
A#||------------------|------------------|-------------------|
F#||------------------|------------------|----------------2--|
C#||------------------|------------------|----------------2--|
G#||------------------|------------------|----------------0--|
D#||------------------|------------------|-------------------|


                                                              
-------------------|---------------------|-------------------|
-------------------|---------------------|-------------------|
-------------------|--------------x-x-2--|-------------------|
----------------4--|--------------x-x-2--|----------------4--|
----------------4--|--------------x-x-0--|----------------4--|
----------------2--|---------------------|----------------2--|


                                                               
--------------------|-------------------|---------------------|
--------------------|-------------------|---------------------|
------------5----2--|-------------------|---------------------|
------------5----2--|----------------4--|------------5--4--2--|
-----------------0--|----------------4--|------------5--4--2--|
--------------------|----------------2--|------------3--2--0--|


                                                       
---------------------------|--------------------------|
---------------------------|--------------------------|
---------------------------|----2--0h1----------------|
-------0h2---------2--2----|----2--2---------5--4--2--|
-------0h2-----------------|-----------------5--4--2--|
----0-------0-0--0------0--|-----------0--0--3--2--0--|


                                                                       
--------------------------|-----------------------|-------------------|
--------------------------|-----------------------|-------------------|
--------------------------|-----------------------|-------------------|
-------0h2---2----2--2-2--|----2--0h2---5----5----|-------------------|
-------0h2---2---------2--|----2--0h2---5----5----|--7/---------------|
----0--------0--0------0--|----0--0-----3----3----|--5----------------|


                                                                               
-------------------|-------------------|------------------|-------------------|
-------------------|-------------------|------------------|-------------------|
--2----------------|-------------------|------------------|-------------------|
--2----------------|-------------------|------------------|-------------------|
--0----------------|--7----------------|------------------|--7/---------------|
-------------------|--5----------------|------------------|--5----------------|


                                                                               
-------------------|-------------------|------------------|-------------------|
-------------------|-------------------|------------------|-------------------|
--2----------------|-------------------|------------------|-------------------|
--2----------------|-------------------|------------------|-------------------|
--0----------------|--7----------------|------------------|--7/---------------|
-------------------|--5----------------|------------------|--5----------------|


                                                                               
-------------------|-------------------|------------------|-------------------|
-------------------|-------------------|------------------|-------------------|
--2----------------|-------------------|------------------|-------------------|
--2----------------|-------------------|------------------|-------------------|
--0----------------|--7----------------|------------------|--7/---------------|
-------------------|--5----------------|------------------|--5----------------|


                                                                               
-------------------|-------------------|------------------|-------------------|
-------------------|-------------------|------------------|-------------------|
--2----------------|-------------------|------------------|-------------------|
--2----------------|-------------------|------------------|-------------------|
--0----------------|--7----------------|------------------|--7/---------------|
-------------------|--5----------------|------------------|--5----------------|


                                                                               
-------------------|-------------------|------------------|-------------------|
-------------------|-------------------|------------------|-------------------|
--2----------------|-------------------|------------------|-------------------|
--2----------------|-------------------|------------------|-------------------|
--0----------------|--7----------------|------------------|--7/---------------|
-------------------|--5----------------|------------------|--5----------------|


                                                                     
-------------------|-------------------|----------------------------|
-------------------|-------------------|----------------------------|
--2----------------|-------------------|----------------------------|
--2----------------|-------------------|-------------------------4--|
--0----------------|--7----------------|-----0----0-----0----0---4--|
-------------------|--5----------------|--3~----3---3-0----3-----2--|


                                                                      
-----------------------|----------------------|----------------------|
-----------------------|----------------------|----------------------|
-----------------------|----------------------|----------------------|
----4--4----4--4-------|-------------------4--|------4----4--4-------|
----4--4----4--4----7--|------7----7--7----4--|------4----4--4----7--|
----2--2----2--2----5--|------5----5--5----2--|------2----2--2----5--|


                                                                           
----------------------|-----------------------|---------------------------|
----------------------|-----------------------|---------------------------|
----------------------|-----------------------|---------------------------|
-------------------4--|------4----4--5--4--2--|-------0h2---------2--2----|
------7----7--7----4--|------4----4--5--4--2--|-------0h2-----------------|
------5----5--5----2--|------2----2--3--2--0--|----0-------0-0--0------0--|


                                                                              
--------------------------|--------------------------|-----------------------|
--------------------------|--------------------------|-----------------------|
----2--0h1----------------|--------------------------|-----------------------|
----2--2---------5--4--2--|-------0h2---2----2--2-2--|----2--0h2---5----5----|
-----------------5--4--2--|-------0h2---2---------2--|----2--0h2---5----5----|
-----------0--0--3--2--0--|----0--------0--0------0--|----0--0-----3----3----|


                                                                               
-------------------|-------------------|-------------------|------------------|
-------------------|-------------------|-------------------|------------------|
-------------------|--2----------------|-------------------|------------------|
-------------------|--2----------------|-------------------|------------------|
--7/---------------|--0----------------|--7----------------|------------------|
--5----------------|-------------------|--5----------------|------------------|


                                                                               
-------------------|-------------------|-------------------|------------------|
-------------------|-------------------|-------------------|------------------|
-------------------|--2----------------|-------------------|------------------|
-------------------|--2----------------|-------------------|------------------|
--7/---------------|--0----------------|--7----------------|------------------|
--5----------------|-------------------|--5----------------|------------------|


                                                                               
-------------------|-------------------|-------------------|------------------|
-------------------|-------------------|-------------------|------------------|
-------------------|--2----------------|-------------------|------------------|
-------------------|--2----------------|-------------------|------------------|
--7/---------------|--0----------------|--7----------------|------------------|
--5----------------|-------------------|--5----------------|------------------|


                                                                               
-------------------|-------------------|-------------------|------------------|
-------------------|-------------------|-------------------|------------------|
-------------------|--2----------------|-------------------|------------------|
-------------------|--2----------------|-------------------|------------------|
--7/---------------|--0----------------|--7----------------|------------------|
--5----------------|-------------------|--5----------------|------------------|


                                                            
-------------------|-------------------|-------------------|
-------------------|-------------------|-------------------|
-------------------|--2----------------|-------------------|
-------------------|--2----------------|-------------------|
--7/---------------|--0----------------|--7----------------|
--5----------------|-------------------|--5----------------|


                                                        
-----------------------------|-------------------------|
-----------------------------|-------------------------|
-----------------------------|-------------------------|
-----0----0-----0-0---0------|----0----0-----5----5----|
--3-----3---3h0-----3-----3~-|-------3---3h0-5----5----|
-----------------------------|---------------3----3----|


                                                                                
--------------------------|-------------------------|--------------------------|
--------------------------|-------------------------|--------------------------|
--------------------------|-------------------------|--------------------------|
--------------------------|-------------------------|--------------------------|
--------------------------|-----7--6--5--3-----3~---|--------------------------|
--5--5--4--4--3--3--2--2--|--1--------------5-------|--5--5--4--4--3--3--2--2--|


                                                                               
-------------------------|--------------------------|-------------------------|
-------------------------|--------------------------|-------------------------|
-------------------------|--------------------------|-------------------------|
-------------------------|--------------------------|-------------------------|
-----7--6--5--3-----3~---|--------------------------|-----7--6--5--3-----3~---|
--1--------------5-------|--5--5--4--4--3--3--2--2--|--1--------------5-------|


                                                                             
--------------------------|----------------------|--------------------------|
--------------------------|----------------------|--------------------------|
--------------------------|----------------------|--------------------------|
--------------------------|--------------5-------|--------------------------|
-----------------------4--|----3----2----3----3~-|--------------------------|
--5--5--4--4--3--3--2--2--|----1----0------------|--5-5~--5/------0-3-5-5-3-|


                                                                                
--------------------------|--------------------------|-------------------------|
--------------------------|--------------------------|-------------------------|
--------------------------|--------------------------|-------------------------|
--------------------------|--------------------------|-------------------------|
--------------------------|--------------------------|-------------------------|
--5-5~--5/------0-3-5-5-3-|--5-5~--5/------0-3-5-5-3-|--5-5~--5/------0-3-5-5--|


                                                                                
-------------------------|--------------------------|--------------------------|
----3-------3------------|-----3-------3------------|-----3-------3------------|
----2---2---2---2--------|-----2---2---2---2--------|-----2---2---2---2--------|
----0---2---0---2--------|-----0---2---0---2--------|-----0---2---0---2--------|
--------0-------0------0-|--0------0-------0------0-|--0------0-------0------0-|
-------------------0-3---|--------------------0-3---|--------------------0-3---|


                                                                
-------------|---------------------|---------------------------|
-----3-------|---------------------|---------------------------|
-----2---2---|--5------------------|---------------------------|
-----0---2---|--5------------------|-------0h2---------2--2----|
--0------0---|--3------------------|-------0h2-----------------|
-------------|---------------12/---|----0-------0-0--0------0--|


                                                                              
--------------------------|--------------------------|-----------------------|
--------------------------|--------------------------|-----------------------|
----2--0h1----------------|--------------------------|-----------------------|
----2--2---------5--4--2--|-------0h2---2----2--2-2--|----2--0h2---5----5----|
-----------------5--4--2--|-------0h2---2---------2--|----2--0h2---5----5----|
-----------0--0--3--2--0--|----0--------0--0------0--|----0--0-----3----3----|


                                                                               
-------------------|-------------------|-------------------|------------------|
-------------------|-------------------|-------------------|------------------|
-------------------|--2----------------|-------------------|------------------|
-------------------|--2----------------|-------------------|------------------|
--7/---------------|--0----------------|--7----------------|------------------|
--5----------------|-------------------|--5----------------|------------------|


                                                                               
-------------------|-------------------|-------------------|------------------|
-------------------|-------------------|-------------------|------------------|
-------------------|--2----------------|-------------------|------------------|
-------------------|--2----------------|-------------------|------------------|
--7/---------------|--0----------------|--7----------------|------------------|
--5----------------|-------------------|--5----------------|------------------|


                                                                               
-------------------|-------------------|-------------------|------------------|
-------------------|-------------------|-------------------|------------------|
-------------------|--2----------------|-------------------|------------------|
-------------------|--2----------------|-------------------|------------------|
--7/---------------|--0----------------|--7----------------|------------------|
--5----------------|-------------------|--5----------------|------------------|


                                                            
-------------------|-------------------|-------------------|
-------------------|-------------------|-------------------|
-------------------|--2----------------|-------------------|
-------------------|--2----------------|-------------------|
--7/---------------|--0----------------|--7----------------|
--5----------------|-------------------|--5----------------|


                                                                            
----------------------------|-----------------------|----------------------|
----------------------------|-----------------------|----------------------|
----------------------------|-----------------------|----------------------|
-------------------------4--|----4--4----4--4-------|-------------------4--|
-----0----0-----0----0---4--|----4--4----4--4----7--|------7----7--7----4--|
--3~----3---3-0----3-----2--|----2--2----2--2----5--|------5----5--5----2--|


                                                                      
----------------------|----------------------|-----------------------|
----------------------|----------------------|-----------------------|
----------------------|----------------------|-----------------------|
------4----4--4-------|-------------------4--|------4----4--5--4--2--|
------4----4--4----7--|------7----7--7----4--|------4----4--5--4--2--|
------2----2--2----5--|------5----5--5----2--|------2----2--3--2--0--|


                                                       
---------------------------|--------------------------|
---------------------------|--------------------------|
---------------------------|----2--0h1----------------|
-------0h2---------2--2----|----2--2---------5--4--2--|
-------0h2-----------------|-----------------5--4--2--|
----0-------0-0--0------0--|-----------0--0--3--2--0--|


                                                                       
--------------------------|-----------------------|-------------------|
--------------------------|-----------------------|-------------------|
--------------------------|-----------------------|-------------------|
-------0h2---2----2--2-2--|----2--0h2---5----5----|-------------------|
-------0h2---2---------2--|----2--0h2---5----5----|--7/---------------|
----0--------0--0------0--|----0--0-----3----3----|--5----------------|


                                                                               
-------------------|-------------------|------------------|-------------------|
-------------------|-------------------|------------------|-------------------|
--2----------------|-------------------|------------------|-------------------|
--2----------------|-------------------|------------------|-------------------|
--0----------------|--7----------------|------------------|--7/---------------|
-------------------|--5----------------|------------------|--5----------------|


                                                                               
-------------------|-------------------|------------------|-------------------|
-------------------|-------------------|------------------|-------------------|
--2----------------|-------------------|------------------|-------------------|
--2----------------|-------------------|------------------|-------------------|
--0----------------|--7----------------|------------------|--7/---------------|
-------------------|--5----------------|------------------|--5----------------|


                                                                               
-------------------|-------------------|------------------|-------------------|
-------------------|-------------------|------------------|-------------------|
--2----------------|-------------------|------------------|-------------------|
--2----------------|-------------------|------------------|-------------------|
--0----------------|--7----------------|------------------|--7/---------------|
-------------------|--5----------------|------------------|--5----------------|


                                                                               
-------------------|-------------------|------------------|-------------------|
-------------------|-------------------|------------------|-------------------|
--2----------------|-------------------|------------------|-------------------|
--2----------------|-------------------|------------------|-------------------|
--0----------------|--7----------------|------------------|--7/---------------|
-------------------|--5----------------|------------------|--5----------------|


                                                                      
-------------------|-------------------|-----------------------------|
-------------------|-------------------|-----------------------------|
--2----------------|-------------------|-----------------------------|
--2----------------|-------------------|-----0----0-----0-0---0------|
--0----------------|--7----------------|--3-----3---3h0-----3-----3~-|
-------------------|--5----------------|-----------------------------|


                                                                               
-------------------------|--------------------------|-------------------------|
-------------------------|--------------------------|-------------------------|
-------------------------|--------------------------|-------------------------|
----0----0-----5----5----|--------------------------|-------------------------|
-------3---3h0-5----5----|--------------------------|-----7--6--5--3-----3~---|
---------------3----3----|--5--5--4--4--3--3--2--2--|--1--------------5-------|


                                                                                
--------------------------|-------------------------|--------------------------|
--------------------------|-------------------------|--------------------------|
--------------------------|-------------------------|--------------------------|
--------------------------|-------------------------|--------------------------|
--------------------------|-----7--6--5--3-----3~---|--------------------------|
--5--5--4--4--3--3--2--2--|--1--------------5-------|--5--5--4--4--3--3--2--2--|


                                                                            
-------------------------|--------------------------|----------------------|
-------------------------|--------------------------|----------------------|
-------------------------|--------------------------|----------------------|
-------------------------|--------------------------|--------------5-------|
-----7--6--5--3-----3~---|-----------------------4--|----3----2----3----3~-|
--1--------------5-------|--5--5--4--4--3--3--2--2--|----1----0------------|


                                                      
--------------------------|--------------------------|
--------------------------|--------------------------|
--------------------------|--------------------------|
--------------------------|--------------------------|
--------------------------|--------------------------|
--5-5~--5/------0-3-5-5-3-|--5-5~--5/------0-3-5-5-3-|


                                                                               
--------------------------|-------------------------|-------------------------|
--------------------------|-------------------------|----3-------3------------|
--------------------------|-------------------------|----2---2---2---2--------|
--------------------------|-------------------------|----0---2---0---2--------|
--------------------------|-------------------------|--------0-------0------0-|
--5-5~--5/------0-3-5-5-3-|--5-5~--5/------0-3-5-5--|-------------------0-3---|


                                                                    
--------------------------|--------------------------|-------------|
-----3-------3------------|-----3-------3------------|-----3-------|
-----2---2---2---2--------|-----2---2---2---2--------|-----2---2---|
-----0---2---0---2--------|-----0---2---0---2--------|-----0---2---|
--0------0-------0------0-|--0------0-------0------0-|--0------0---|
--------------------0-3---|--------------------0-3---|-------------|


                                                     
------------------|---------------------------------|
------------------|---------------------------------|
------------------|---------------------------------|
------------------|---------------------------------|
------------------|------0-----0-------0-----0------|
------------------|--3-5---3-5---0-3-5---3-5---0-3--|


                                                                
-------------------------------|-------------------------------|
-------------------------------|-------------------------------|
-------------------------------|-------------------------------|
-------------------------------|-------------------------------|
----0-------0-----0-----0------|----0-------0-----0-----0------|
------0-3-5---3-5---3-5---0-3--|------0-3-5---3-5---3-5---0-3--|


                                                               
------------------------------|-------------------------------|
------------------------------|-------------------------------|
------------------------------|-------------------------------|
------------------------------|----0-------0-----0-----0------|
----0-----5-0-----0-----0--3--|------0-3-5---3-5---3-5---0-3--|
------0-3-----3-5---3-5-------|-------------------------------|


                                                               
------------------------------|-------------------------------|
------------------------------|-------------------------------|
------------------------------|-------------------------------|
----0-------0-----0-----0-----|-------------------------------|
------0-3-5---3-5---3-5-------|----0-------0-----0-----0------|
---------------------------3--|------0-3-5---3-5---3-5---0-3--|


                                                             
-------------------------------|----------------------------|
-------------------------------|----------------------------|
-------------------------------|----------------------------|
-------------------------------|----------------------------|
----0-------0-----0-----0------|----------------------------|
------0-3-5---3-5---3-5---0-5--|----7--5-7-7-5-7--5-7--7-5~-|


                                                                            
---------------------------|------------------------|----------------------|
---------------------------|------------------------|----------------------|
---------------------------|------------------------|----------------------|
---------------------------|------------------------|----------------------|
------------------5--4--2--|------2-2--2-2----2--2--|----2--2----5----5----|
----7--5-7-7-5-7--3--2--0--|------0-0--0-0----0--0--|----0--0----3----3----|


                                                                    
-------------------|----------------------------|------------------|
-------------------|----------------------------|------------------|
-------------------|----------------------------|------------------|
-------------------|--10--9--8--7--7/5-----5----|------------------|
--7----------------|--8---7--6--5--5/3-0-0-3----|------------------|
--5----------------|----------------------------|------------------|


                                                                                
--------------------------|-------------------------|--------------------------|
--------------------------|-------------------------|--------------------------|
--------------------------|-------------------------|--------------------------|
--------------------------|-------------------------|--------------------------|
--------------------------|-----7--6--5--3-----3~---|--------------------------|
--5--5--4--4--3--3--2--2--|--1--------------5-------|--5--5--4--4--3--3--2--2--|


                                                                               
-------------------------|--------------------------|-------------------------|
-------------------------|--------------------------|-------------------------|
-------------------------|--------------------------|-------------------------|
-------------------------|--------------------------|-------------------------|
-----7--6--5--3-----3~---|--------------------------|-----7--6--5--3-----3~---|
--1--------------5-------|--5--5--4--4--3--3--2--2--|--1--------------5-------|


                                                                             
--------------------------|----------------------|--------------------------|
--------------------------|----------------------|--------------------------|
--------------------------|----------------------|--------------------------|
--------------------------|--------------5-------|--------------------------|
-----------------------4--|----3----2----3----3~-|--------------------------|
--5--5--4--4--3--3--2--2--|----1----0------------|--5-5~--5/------0-3-5-5-3-|


                                                                                
--------------------------|--------------------------|-------------------------|
--------------------------|--------------------------|-------------------------|
--------------------------|--------------------------|-------------------------|
--------------------------|--------------------------|-------------------------|
--------------------------|--------------------------|-------------------------|
--5-5~--5/------0-3-5-5-3-|--5-5~--5/------0-3-5-5-3-|--5-5~--5/------0-3-5-5--|


                                                                                
-------------------------|--------------------------|--------------------------|
----3-------3------------|-----3-------3------------|-----3-------3------------|
----2---2---2---2--------|-----2---2---2---2--------|-----2---2---2---2--------|
----0---2---0---2--------|-----0---2---0---2--------|-----0---2---0---2--------|
--------0-------0------0-|--0------0-------0------0-|--0------0-------0------0-|
-------------------0-3---|--------------------0-3---|--------------------0-3---|


                                                      
--------------------------|--------------------------|
-----3-------3------------|-----3-------3------------|
-----2---2---2---2--------|-----2---2---2---2--------|
-----0---2---0---2--------|-----0---2---0---2--------|
--0------0-------0----3-0-|--0------0-------0----3-0-|
--------------------0-----|--------------------0-----|


                                                                    
--------------------------|--------------------------|-------------|
-----3-------3------------|-----3-------3------------|-----3-------|
-----2---2---2---2--------|-----2---2---2---2--------|-----2---2---|
-----0---2---0---2--------|-----0---2---0---2--------|-----0---2---|
--0------0-------0----3-0-|--0------0-------0----3-0-|--0------0---|
--------------------0-----|--------------------0-----|-------------|


                                                                             
--0----------------|------------------|------------------|------------------|
--1----------------|------------------|------------------|------------------|
--0----------------|------------------|------------------|------------------|
-------------------|------------------|------------------|------------------|
-------------------|------------------|------------------|------------------|
-------------------|------------------|------------------|------------------|


                                                                            
------------------|------------------|------------------|------------------|
------------------|------------------|------------------|------------------|
------------------|------------------|------------------|------------------|
------------------|------------------|------------------|------------------|
------------------|------------------|------------------|------------------|
------------------|------------------|------------------|------------------|


                                                                            
------------------|------------------|------------------|------------------|
------------------|------------------|------------------|------------------|
------------------|------------------|------------------|------------------|
------------------|------------------|------------------|------------------|
------------------|------------------|------------------|------------------|
------------------|------------------|------------------|------------------|


                                                                            
------------------|------------------|------------------|------------------|
------------------|------------------|------------------|------------------|
------------------|------------------|------------------|------------------|
------------------|------------------|------------------|------------------|
------------------|------------------|------------------|------------------|
------------------|------------------|------------------|------------------|


                                                                            
------------------|------------------|------------------|------------------|
------------------|------------------|------------------|------------------|
------------------|------------------|------------------|------------------|
------------------|------------------|------------------|------------------|
------------------|------------------|------------------|------------------|
------------------|------------------|------------------|------------------|


                                                                            
------------------|------------------|------------------|------------------|
------------------|------------------|------------------|------------------|
------------------|------------------|------------------|------------------|
------------------|------------------|------------------|------------------|
------------------|------------------|------------------|------------------|
------------------|------------------|------------------|------------------|


                                                                            
------------------|------------------|------------------|------------------|
------------------|------------------|------------------|------------------|
------------------|------------------|------------------|------------------|
------------------|------------------|------------------|------------------|
------------------|------------------|------------------|------------------|
------------------|------------------|------------------|------------------|


                                                                            
------------------|------------------|------------------|------------------|
------------------|------------------|------------------|------------------|
------------------|------------------|------------------|------------------|
------------------|------------------|------------------|------------------|
------------------|------------------|------------------|------------------|
------------------|------------------|------------------|------------------|


                                                                            
------------------|------------------|------------------|------------------|
------------------|------------------|------------------|------------------|
------------------|------------------|------------------|------------------|
------------------|------------------|------------------|------------------|
------------------|------------------|------------------|------------------|
------------------|------------------|------------------|------------------|


                                                                            
------------------|------------------|------------------|------------------|
------------------|------------------|------------------|------------------|
------------------|------------------|------------------|------------------|
------------------|------------------|------------------|------------------|
------------------|------------------|------------------|------------------|
------------------|------------------|------------------|------------------|


                                                                            
------------------|------------------|------------------|------------------|
------------------|------------------|------------------|------------------|
------------------|------------------|------------------|------------------|
------------------|------------------|------------------|------------------|
------------------|------------------|------------------|------------------|
------------------|------------------|------------------|------------------|


                                                                            
------------------|------------------|------------------|------------------|
------------------|------------------|------------------|------------------|
------------------|------------------|------------------|------------------|
------------------|------------------|------------------|------------------|
------------------|------------------|------------------|------------------|
------------------|------------------|------------------|------------------|


                                                                            
------------------|------------------|------------------|------------------|
------------------|------------------|------------------|------------------|
------------------|------------------|------------------|------------------|
------------------|------------------|------------------|------------------|
------------------|------------------|------------------|------------------|
------------------|------------------|------------------|------------------|


                                                                            
------------------|------------------|------------------|------------------|
------------------|------------------|------------------|------------------|
------------------|------------------|------------------|------------------|
------------------|------------------|------------------|------------------|
------------------|------------------|------------------|------------------|
------------------|------------------|------------------|------------------|


                                                                            
------------------|------------------|------------------|------------------|
------------------|------------------|------------------|------------------|
------------------|------------------|------------------|------------------|
------------------|------------------|------------------|------------------|
------------------|------------------|------------------|------------------|
------------------|------------------|------------------|------------------|


                    
------------------||
------------------||
------------------||
------------------||
------------------||
------------------||

guitar 3(slash):


D#||------------------|------------------|------------------|------------------|
A#||------------------|------------------|------------------|------------------|
F#||------------------|------------------|------------------|------------------|
C#||------------------|------------------|------------------|------------------|
G#||------------------|------------------|------------------|------------------|
D#||------------------|------------------|------------------|------------------|


                                                                            
------------------|------------------|------------------|------------------|
------------------|------------------|------------------|------------------|
------------------|------------------|------------------|------------------|
------------------|------------------|------------------|------------------|
------------------|------------------|------------------|------------------|
------------------|------------------|------------------|------------------|


                                                                            
------------------|------------------|------------------|------------------|
------------------|------------------|------------------|------------------|
------------------|------------------|------------------|------------------|
------------------|------------------|------------------|------------------|
------------------|------------------|------------------|------------------|
------------------|------------------|------------------|------------------|


                                                                            
------------------|------------------|------------------|------------------|
------------------|------------------|------------------|------------------|
------------------|------------------|------------------|------------------|
------------------|------------------|------------------|------------------|
------------------|------------------|------------------|------------------|
------------------|------------------|------------------|------------------|


                                                                            
------------------|------------------|------------------|------------------|
------------------|------------------|------------------|------------------|
------------------|------------------|------------------|------------------|
------------------|------------------|------------------|------------------|
------------------|------------------|------------------|------------------|
------------------|------------------|------------------|------------------|


                                                                            
------------------|------------------|------------------|------------------|
------------------|------------------|------------------|------------------|
------------------|------------------|------------------|------------------|
------------------|------------------|------------------|------------------|
------------------|------------------|------------------|------------------|
------------------|------------------|------------------|------------------|


                                                                            
------------------|------------------|------------------|------------------|
------------------|------------------|------------------|------------------|
------------------|------------------|------------------|------------------|
------------------|------------------|------------------|------------------|
------------------|------------------|------------------|------------------|
------------------|------------------|------------------|------------------|


                                                                      
------------------|-----------------------------|--------------------|
------------------|------5---5--5-------8--8----|--------------------|
------------------|---------------7h6--------7--|--------------------|
------------------|--5h7--------------7---------|--5--7--------------|
------------------|-----------------------------|--------------------|
------------------|-----------------------------|--------------------|


                                                                                
------------------------------|------------------|-----------------------------|
------5---5--5-------8--8-----|------------------|------5---5--5-------8--8----|
---------------7h6--------7-6~|------------------|---------------7h6--------7--|
--5h7--------------7----------|------------------|--5h7--------------7---------|
------------------------------|------------------|-----------------------------|
------------------------------|------------------|-----------------------------|


                                                                        
--------------------|------------------------------|-------------------|
--------------------|------5---5--5-------8--8-----|-------------------|
--------------------|---------------7h6--------7-6~|--------------6/---|
--5--7~-------------|--5h7--------------7----------|-------------------|
--------------------|------------------------------|-------------------|
--------------------|------------------------------|-------------------|


                                                                            
------------------|------------------|------------------|------------------|
------------------|------------------|------------------|------------------|
------------------|------------------|------------------|------------------|
------------------|------------------|------------------|------------------|
------------------|------------------|------------------|------------------|
------------------|------------------|------------------|------------------|


                                                                            
------------------|------------------|------------------|------------------|
------------------|------------------|------------------|------------------|
------------------|------------------|------------------|------------------|
------------------|------------------|------------------|------------------|
------------------|------------------|------------------|------------------|
------------------|------------------|------------------|------------------|


                                                      
------------------|----------------------------------|
------------------|----------------------------------|
------------------|----------------------------------|
------------------|--------------------------5---7---|
------------------|------3-------3h4---3-5/7---7---7-|
------------------|--3h5---5-5-5-----x---------------|


                                                                               
------------------5-----5----5---|--------------------------------------------|
----------------5-5-5-8----8---8-|--7-8-7-8h7/6-6-5h6h5/4-5-5-4-3-4-3---------|
----7-5-6---5h6------------------|------------------------------------5---7---|
--5-------7----------------------|--------------------------------------7---7-|
---------------------------------|--------------------------------------------|
---------------------------------|--------------------------------------------|


                                                                             
------------------------------------|--------------------|------------------|
------------------------------------|--------------------|------------------|
--5-------------5h7h5---------------|--------------------|------------------|
-----7-5-7b-5---------7h5-----------|--------------------|------------------|
--------------7-----------7-5-3-----|--------------------|------------------|
--------------------------------5-3-|--5~---5/-----------|------------------|


                                                                            
------------------|------------------|------------------|------------------|
------------------|------------------|------------------|------------------|
------------------|------------------|------------------|------------------|
------------------|------------------|------------------|------------------|
------------------|------------------|------------------|------------------|
------------------|------------------|------------------|------------------|


                                                                            
------------------|------------------|------------------|------------------|
------------------|------------------|------------------|------------------|
------------------|------------------|------------------|------------------|
------------------|------------------|------------------|------------------|
------------------|------------------|------------------|------------------|
------------------|------------------|------------------|------------------|


                                                                            
------------------|------------------|------------------|------------------|
------------------|------------------|------------------|------------------|
------------------|------------------|------------------|------------------|
------------------|------------------|------------------|------------------|
------------------|------------------|------------------|------------------|
------------------|------------------|------------------|------------------|


                                                                    
-----------------------------|------------------|------------------|
------5---5--5-------8--8----|------------------|------------------|
---------------7h6--------7~-|------------------|------------------|
--5h7--------------7---------|------------------|------------------|
-----------------------------|------------------|------------------|
-----------------------------|------------------|------------------|


                                                                            
------------------|------------------|------------------|------------------|
------------------|------------------|------------------|------------------|
------------------|------------------|------------------|------------------|
------------------|------------------|------------------|------------------|
------------------|------------------|------------------|------------------|
------------------|------------------|------------------|------------------|


                                                                            
------------------|------------------|------------------|------------------|
------------------|------------------|------------------|------------------|
------------------|------------------|------------------|------------------|
------------------|------------------|------------------|------------------|
------------------|------------------|------------------|------------------|
------------------|------------------|------------------|------------------|


                                                                            
------------------|------------------|------------------|------------------|
------------------|------------------|------------------|------------------|
------------------|------------------|------------------|------------------|
------------------|------------------|------------------|------------------|
------------------|------------------|------------------|------------------|
------------------|------------------|------------------|------------------|


                                                                    
------------------|------------------|------------------|----------|
------------------|------------------|------------------|----------|
------------------|------------------|------------------|----------|
------------------|------------------|------------------|----------|
------------------|------------------|------------------|----------|
------------------|------------------|------------------|----------|


                                                         
------------------|-------------------------------------|
------------------|--------------------7--------8-7---7-|
------------------|--8-7------9-8-7------9-7--------9---|
------------------|------10-7-------10-------10---------|
------------------|-------------------------------------|
------------------|-------------------------------------|


                                       
-----------7--------8-7------7---8----|
--10-8-7-----10-7-------10-7---7---10-|
---------9--------9-------------------|
--------------------------------------|
--------------------------------------|
--------------------------------------|


                                                  
-----------15-----17-----17-20-17----20----17-20-|
--17-15-------17------20----------20----20-------|
--------17---------------------------------------|
-------------------------------------------------|
-------------------------------------------------|
-------------------------------------------------|


                                                                                
--17----17-----17-----------------------------------------|--------------------|
-----20----20b----20-17----17-20-17-----------------------|--------------------|
------------------------19----------17r-15----17-15-------|--------------------|
-------------------------------------------17-------17-15-|--17/---------------|
----------------------------------------------------------|--------------------|
----------------------------------------------------------|--------------------|


                                                                            
------------------|------------------|------------------|------------------|
------------------|------------------|------------------|------------------|
------------------|------------------|------------------|------------------|
------------------|------------------|------------------|------------------|
------------------|------------------|------------------|------------------|
------------------|------------------|------------------|------------------|


                                                         
------------------|------------------|------------------|
------------------|------------------|------------------|
------------------|------------------|------------------|
------------------|------------------|------------------|
------------------|------------------|------------------|
------------------|------------------|------------------|


                                                   
-----------------------------|--------------------|
------5---5--5-------8--8----|--------------------|
---------------7h6--------7--|--------------------|
--5h7--------------7---------|--5--7--------------|
-----------------------------|--------------------|
-----------------------------|--------------------|


                                                                                
------------------------------|------------------|-----------------------------|
------5---5--5-------8--8-----|------------------|------5---5--5-------8--8----|
---------------7h6--------7-6~|------------------|---------------7h6--------7--|
--5h7--------------7----------|------------------|--5h7--------------7---------|
------------------------------|------------------|-----------------------------|
------------------------------|------------------|-----------------------------|


                                                                        
--------------------|------------------------------|-------------------|
--------------------|------5---5--5-------8--8-----|-------------------|
--------------------|---------------7h6--------7-6~|--------------6/---|
--5--7~-------------|--5h7--------------7----------|-------------------|
--------------------|------------------------------|-------------------|
--------------------|------------------------------|-------------------|


                                                                     
----------------------|----------------------|----------------------|
----------------------|----------------------|----------------------|
----------3--4--5--6~-|----------6--5--4--3~-|----------3--4--5--6~-|
----------4--5--6--7~-|----------7--6--5--4~-|----------4--5--6--7~-|
----------------------|----------------------|----------------------|
----------------------|----------------------|----------------------|


                                                                 
----------------------|----------------------|------------------|
----------------------|-------------------5~-|------------------|
----------6--5--4--3~-|----------6--7--6-----|------------------|
----------7--6--5--4~-|----------4--5--4--2~-|------------------|
----------------------|----------------------|------------------|
----------------------|----------------------|------------------|


                                                         
------------------|------------------|------------------|
------------------|------------------|------------------|
------------------|------------------|------------------|
------------------|------------------|------------------|
------------------|------------------|------------------|
------------------|------------------|------------------|


                                                                           
--------------------------------------------------------------------------|
--------------------------------------------------------------------------|
--17h16h14----------17h16h14----------17h16h14----------17h16h14----------|
-----------17h16h14----------17h16h14----------17h16h14----------17h16h14-|
--------------------------------------------------------------------------|
--------------------------------------------------------------------------|


                                                    
---------------------------------------------------|
-----14--------------------------------------------|
--17----14-17-14----14-----14----14----------------|
-----------------17----17b----17----17-14-17-14-17-|
---------------------------------------------------|
---------------------------------------------------|


                                                       
------------------------------------------------------|
---------------15-------14----15-------14-------16h17-|
------17-14-17----14-17----17----14-17----14----------|
--17b----------------------------------------17-------|
------------------------------------------------------|
------------------------------------------------------|


                                                          
---------------------------------------------------------|
-----17----17-------17-----------------------------------|
--17----17----17-17----17-16-17-16-17h16-14----16/-14-12-|
--------------------------------------------16-----------|
---------------------------------------------------------|
---------------------------------------------------------|


                                                                
-------------------------|------------------|------------------|
-------------------------|------------------|------------------|
--14----14~-----14/---2--|------------------|------------------|
-------------------------|------------------|------------------|
-------------------------|------------------|------------------|
-------------------------|------------------|------------------|


                                                                            
------------------|------------------|------------------|------------------|
------------------|------------------|------------------|------------------|
------------------|------------------|------------------|------------------|
------------------|------------------|------------------|------------------|
------------------|------------------|------------------|------------------|
------------------|------------------|------------------|------------------|


                                                                     
------------------|------5---5--5-------7--7----|-------------------|
------------------|---------------8h7--------7--|-------------------|
------------------|-------------------7---------|--6~---------------|
------------------|--5h7------------------------|-------------------|
------------------|-----------------------------|-------------------|
------------------|-----------------------------|-------------------|


                                                                                
------5---5--5-------7--7-----|------------------|------5---5--5-------7--7----|
---------------8h7--------7-5~|------------------|---------------8h7--------7--|
-------------------7----------|------------------|-------------------7---------|
--5h7-------------------------|------------------|--5h7------------------------|
------------------------------|------------------|-----------------------------|
------------------------------|------------------|-----------------------------|


                                                                     
-------------------|------5---5--5-7h5---7--7----|------------------|
-------------------|-------------------8------7~-|------------------|
--6~---------------|-----------------------------|------------------|
-------------------|--5h7------------------------|------------------|
-------------------|-----------------------------|------------------|
-------------------|-----------------------------|------------------|


                                                                            
------------------|------------------|------------------|------------------|
------------------|------------------|------------------|------------------|
------------------|------------------|------------------|------------------|
------------------|------------------|------------------|------------------|
------------------|------------------|------------------|------------------|
------------------|------------------|------------------|------------------|


                                                                            
------------------|------------------|------------------|------------------|
------------------|------------------|------------------|------------------|
------------------|------------------|------------------|------------------|
------------------|------------------|------------------|------------------|
------------------|------------------|------------------|------------------|
------------------|------------------|------------------|------------------|


                                                                            
------------------|------------------|------------------|------------------|
------------------|------------------|------------------|------------------|
------------------|------------------|------------------|------------------|
------------------|------------------|------------------|------------------|
------------------|------------------|------------------|------------------|
------------------|------------------|------------------|------------------|


                                                                            
------------------|------------------|------------------|------------------|
------------------|------------------|------------------|------------------|
------------------|------------------|------------------|------------------|
------------------|------------------|------------------|------------------|
------------------|------------------|------------------|------------------|
------------------|------------------|------------------|------------------|


                                                                 
----------|-------------------|---------------------------------|
----------|--5~---------------|----5---5----------5---5---------|
----------|--5~---------------|--7b--7---5-----7b---7---5-----7b|
----------|-------------------|------------7-5------------7-5---|
----------|-------------------|---------------------------------|
----------|-------------------|---------------------------------|


                                                                     
---------------------------------|----------------------------------|
---8---5---5---5---5---5---------|---5---5-------7r-7h5---5-------8b|
-----7---7b--7b--7b--7b--5-----7b|-----7---5------------7---5-------|
---------------------------7-5---|-----------7-5--------------7-5---|
---------------------------------|----------------------------------|
---------------------------------|----------------------------------|


                                                                 
---5---5---5----------------------|-----------------------------|
-----8---8---8-5-8---5-----5---5~-|----7--5-7--5-7-7-5-7-----5--|
-------------------8---7-8---7-5~-|----7--5-7--5-7-7-5-7-5---5--|
-------------------------------5~-|----7--5-7--5-7-7-5-7---7-5--|
----------------------------------|-----------------------------|
----------------------------------|-----------------------------|


                                                            
-----------------------------|-----------------------------|
----7--5h7h5---7---5h7h5-----|-----------------------------|
----7--5h7h5---7---5h7h5-----|-----------------------------|
----7--5h7h5-7---7--------5--|----7--5h7-5---7---5-7----5--|
--------------------------5--|----7--5h7---7-7-7-5-7--7-5--|
-----------------------------|-----------------------------|


                                                                               
-----------------------------|---------------------|----------10----7------7~-|
-----------------------------|---------------------|----------10-------10b----|
-----------------------------|----------------7~---|--9b---9------------------|
----7--5-7-5---7---5-7-------|-----------6~--------|--------------------------|
----7--5-7---7-7-7-5-7--7----|---------------------|--------------------------|
--------------------------5~-|------8~-------------|--------------------------|


                                                        
----7------------------|-------------------------------|
-------9--8--7r--------|-------------------------------|
------------------9~---|--9-7--------------------------|
-----------------------|------9-8-7------7-------------|
-----------------------|------------10-7----10/11~-----|
-----------------------|-------------------------------|


                                                                
----------------------------------|----------------------------|
--14--14--x-x-13--12--12--x-x-11--|--10--9--8--7--7h5-----5~---|
--14--14--x-x-13--12--12--x-x-11--|--10--9--8--7--7h5-----5~---|
----------------------------------|-------------------7-7------|
----------------------------------|----------------------------|
----------------------------------|----------------------------|


                                                                               
---------------------|------------------|------------------|------------------|
----------------x----|------------------|------------------|------------------|
----------------x----|------------------|------------------|------------------|
----------14/--------|------------------|------------------|------------------|
---------------------|------------------|------------------|------------------|
---------------------|------------------|------------------|------------------|


                                                                            
------------------|------------------|------------------|------------------|
------------------|------------------|------------------|------------------|
------------------|------------------|------------------|------------------|
------------------|------------------|------------------|------------------|
------------------|------------------|------------------|------------------|
------------------|------------------|------------------|------------------|


                                                                            
------------------|------------------|------------------|------------------|
------------------|------------------|------------------|------------------|
------------------|------------------|------------------|------------------|
------------------|------------------|------------------|------------------|
------------------|------------------|------------------|------------------|
------------------|------------------|------------------|------------------|


                                                                            
------------------|------------------|------------------|------------------|
------------------|------------------|------------------|------------------|
------------------|------------------|------------------|------------------|
------------------|------------------|------------------|------------------|
------------------|------------------|------------------|------------------|
------------------|------------------|------------------|------------------|


                                                                            
------------------|------------------|------------------|------------------|
------------------|------------------|------------------|------------------|
------------------|------------------|------------------|------------------|
------------------|------------------|------------------|------------------|
------------------|------------------|------------------|------------------|
------------------|------------------|------------------|------------------|


                                                                    
----------|------------------|------------------|------------------|
----------|------------------|------------------|------------------|
----------|------------------|------------------|------------------|
----------|------------------|------------------|------------------|
----------|------------------|------------------|------------------|
----------|------------------|------------------|------------------|


                                                                              
------------------|------------------|--------------------|------------------|
------------------|------------------|--------------------|------------------|
------------------|------------------|--3--------3~-------|------------------|
------------------|------------------|--------------------|------------------|
------------------|------------------|--------------------|------------------|
------------------|------------------|--------------------|------------------|


                                                              
---------------8--5--|--5--------5~-------|------------------|
----------5----------|--------------------|------------------|
---------------------|--------------------|------------------|
---------------------|--------------------|------------------|
---------------------|--------------------|------------------|
---------------------|--------------------|------------------|


                                                                
--------------8---5--|--5------5~---------|--------------------|
----------5----------|--------------------|--------------------|
---------------------|--------------------|--------------7--5--|
---------------------|--------------------|--------------------|
---------------------|--------------------|--------------------|
---------------------|--------------------|--------------------|


                                                               
---------------------|-------------------|--------------------|
---------------------|-------------------|--------------------|
--7--7r-5~-----------|--------------5b---|------5-------------|
---------------------|-------------------|---------3~---------|
---------------------|-------------------|--------------------|
---------------------|-------------------|--------------------|


                                                                               
-------------------|------------------|------------------|-----5~-------------|
-------------------|------------------|------------------|--------------------|
-------------------|------------------|------------------|--5-----------------|
----------3--------|------------------|------------------|--------------------|
-------------------|------------------|------------------|--------------------|
-------------------|------------------|------------------|--------------------|


                                                                 
-----------------------------|----------------------------------|
-----------------------------|----------------------------------|
-----------------------------|----------------------------------|
-----------------------------|----------------------------------|
------x--x-x-x-x-x-x-x-x-x-x-|--x-x-x-x-x-x-x-x-x-x-x-x-x-x-x-x-|
-----------------------------|----------------------------------|


                                                                      
----------------------------------|----------------------------------|
----------------------------------|----------------------------------|
----------------------------------|----------------------------------|
----------------------------------|----------------------------------|
--x-x-x-x-x-x-x-x-x-x-x-x-x-x-x-x-|--x-x-x-x-x-x-x-x-x-x-x-x-x-x-x-x-|
----------------------------------|----------------------------------|


                                                                      
----------------------------------|----------------------------------|
----------------------------------|----------------------------------|
----------------------------------|------------------------------12/-|
----------------------------------|----------------------------------|
--x-x-x-x-x-x-x-x-x-x-x-x-x-x-10/-|--x-x-x-x-x-x-x-x-x-x-x-x-x-x-----|
----------------------------------|----------------------------------|


                                                                    
--------------------------------|----------------------------------|
--------------------------15/---|----------------------------------|
--------------------------------|----------------------------------|
--------------------------------|----------------------------------|
--x-x-x-x-x-x-x-x-x-x-x-x-------|--x-x-x-x-x-x-x-x-x-x-x-x-x-x-x-x-|
--------------------------------|----------------------------------|


                                                           
------------------------------|---------------------------|
------------------------------|---------------------------|
------------------------------|---------------------------|
------------------------------|--7~-------7h5-----7h5-----|
--x-x-x-x-3--x-x-5--5-x-5r--x-|---------------x-x-----7h5-|
------------------------------|---------------------------|


                                                              
--------------------------------|----------------------------|
--------------------------------|----------------------------|
--------------------------------|----------------------------|
--5-------------------5----5h7--|------------------7----7~---|
----7h5/3-5h3-----5/7----7------|--x-x-x-x-x-x-x-x-----------|
--------------5-x---------------|----------------------------|


                                                                               
------------------------------|---------------------|-------------------------|
------------------------------|-------10~-----------|-----------8r-----8r-8h6-|
------7h5-----8h7-----7h5-----|--9------------------|-------------------------|
----------7-7-----7-7-----7-7-|---------------------|-------------------------|
------------------------------|---------------------|--x--x--x----------------|
------------------------------|---------------------|-------------------------|


                                                                             
----------------------|--------------------------------|--------------------|
--8h-6--6~---6/-------|---------------------5-8--------|--------------------|
----------------------|--7h5-5-5-7h5-----7b-----7r-5---|--7b-----5~---------|
----------------------|--------------7h5-------------7-|--------------------|
----------------------|--------------------------------|--------------------|
----------------------|--------------------------------|--------------------|


                                                                 
-----------------------------|----------------------------------|
-------------------5-8-------|----------8b-5-8-5-8h5------------|
--7r-5--7h5-----7b-----7r-5--|--7h5------------------7-8-7--9-8-|
------------7h5--------------|------7h5-------------------------|
-----------------------------|----------------------------------|
-----------------------------|----------------------------------|


                                            
-------------------------------------------|
-------------------------------------------|
--9-8-7----------12-----12-----12h14-14-14-|
--------10-7/14------14-----14-------------|
-------------------------------------------|
-------------------------------------------|


                                             
--------------------------------------------|
--13--15----13-15-13----15--13-15-13----15--|
---------14----------14--------------14-----|
--------------------------------------------|
--------------------------------------------|
--------------------------------------------|


                                                                                
--------------------------------------------|----------------------------------|
--13-15-13----15--13-15-16-15--15-15h13-----|--13----13------------------13~---|
-----------14---------------------------14--|------------14-12-14--14-12-------|
--------------------------------------------|----------------------------------|
--------------------------------------------|----------------------------------|
--------------------------------------------|----------------------------------|


                                                    
--------------12-----12-13-15-13h15h14-12----15----|
-----12-13-15-----15----------------------15----15-|
--14-----------------------------------------------|
---------------------------------------------------|
---------------------------------------------------|
---------------------------------------------------|


                                              
--12h15h12----12-----15-15-------------------|
-----------15----15b-------15r-13--15h13-----|
-----------------------------------------14--|
---------------------------------------------|
---------------------------------------------|
---------------------------------------------|


                                                                        
------12-15-----------------------------|------------------------------|
--15b-------15r-13--15h13-------15r-13--|--15b---13--15~---13--15b-----|
--------------------------14h12---------|--------------------------14--|
----------------------------------------|------------------------------|
----------------------------------------|------------------------------|
----------------------------------------|------------------------------|


                                                      
----------------------------------|------------------|
--13--15b-----13--15b-----12b-12~-|------------------|
----------14----------14----------|------------------|
----------------------------------|------------------|
----------------------------------|------------------|
----------------------------------|------------------|


                           
--------------------------|
--------------------------|
------14-12---------------|
------------14--14--------|
--------------------------|
--------------------------|


                                                      
-----------------------------------------------------|
-----------------------17----20----7h20h17----17-----|
--16h17h16----16-17-19----19----19---------19----19b-|
-----------19----------------------------------------|
-----------------------------------------------------|
-----------------------------------------------------|


                                                
-----------------------------------------------|
--20-18-17-20-18-17-20b--20-17h20h17----17-----|
-------------------------------------19b---19b-|
-----------------------------------------------|
-----------------------------------------------|
-----------------------------------------------|


                                            
-------------------------------------------|
--17h20h17-----20-----20-----20-----20-----|
-----------19b----19b----19b----19b----19b-|
-------------------------------------------|
-------------------------------------------|
-------------------------------------------|


                                                  
-------------------------------------------------|
--20-----20-----20----17----------17-20h17----17-|
-----19b----19b----19----20-19-20----------20----|
-------------------------------------------------|
-------------------------------------------------|
-------------------------------------------------|


                                                   
--------------------------------------------------|
-----17-------17-17-------17----------------------|
--19b---19b19-------20-19----20-19-20-19-17-19----|
-----------------------------------------------19-|
--------------------------------------------------|
--------------------------------------------------|


                                                                               
------------------------------------------------|--20b-------20~--------------|
------------------------------------------------|--------------------17-20-17-|
--17-19-------17----------16-17-----------------|-----------------------------|
--------19-19----19-19-19-------15-15-15--------|-----------------------------|
------------------------------------------19-17-|-----------------------------|
------------------------------------------------|-----------------------------|


                                                                         
--20~-----17----20b-------|--20--17----17-20----17-----17---------------|
-------------20-----------|--20-----20-------20-----20----20b--20-17----|
--------------------------|------------------------------------------19-|
--------------------------|---------------------------------------------|
--------------------------|---------------------------------------------|
--------------------------|---------------------------------------------|


                                             
-------------------------------------------||
------17h20h17-----17----16----------------||
--19b----------19b----19----20-19--17------||
---------------------------------------19--||
-------------------------------------------||
-------------------------------------------||
comments
print report bad tab
5 comments total. Showing first comments.
-2 reply
teej wrote on March 19 2005, 12:00 am

too ***in long ***ead.

-2 reply
C_Turton wrote on November 16 2006, 08:21 am

full of shit! you copied this from the book. plagiarism gets these tab sites shut down! well done.

+1 reply
Rhazzy-ROCK wrote on August 24 2008, 04:14 am

WHO CARES IF IT'S COPIED FROM A BOOK? At least it means it's correct.. And teej, it's a long song, in case you haven't heard, f*ckhead.

I want to post or [tab]
guest
You may want to rate the tab now too:
select rating
Please do not post tabs as comments. Select "correction" instead!