Oops, an error
Loading. Please wait.

Move To The City Live Tab

1,709 views 1 this week
no commentswrite comment
1 2 3 4 5
excellent!
x 2
add to favorites launch autoscroll
font size
0
reset
Autoscroll
+/-
esc
set tempo
stop
Contributor
Difficulty
Tuning
advanced
D# G# C# F# A# D#
WARNING: You are trying to view
                                    content from Ultimate-Guitar.com
                                    in an unauthorized application,
                                    which is prohibited.

                                    Please use an official Ultimate
                                    Guitar Tabs application for iPhone,
                                    iPad or Android to access legitimate
                                    chords, guitar, bass, and drum tabs
                                    from Ultimate-Guitar.com database.

                                    Type "ultimate guitar tabs" in Apple
                                    App Store's or Android Market's
                                    search to find the application.
        Song : Move to the city
Artist : Guns and Roses
Album : Live in Tokyo Use your Illusion II


h   - hammer on
p   - pull off
b   - bend string up
bb  - 1 1/2 tone bend
H   - hold bend
r   - release bend
/   - slides
~   - vibrato
x   - play 'note' with heavy damping
(*) - harmonics

Intro


E-----12-12-------------------12-12----------------12-12---|
B-----12-12---14-12-14-12-14--12-12-14-12-14-12-14-12-12---|
G-------------14-12-14-12-14--------14-12-14-12-14---------|
D----------------------------------------------------------|
A----------------------------------------------------------|
E----------------------------------------------------------|


E----------------------------------------------------------|
B---14-12-14-12-14-12~-------------------------------------|
G---14-12-14-12-14-12~-------------------------------------|
D----------------------------------------------------------|
A----------------------------------------------------------|
E----------------------------------------------------------|


E-----12-12-------------------12-12----------------12-12---|
B-----12-12---14-12-14-12-14--12-12-14-12-14-12-14-12-12---|
G-------------14-12-14-12-14--------14-12-14-12-14---------|
D----------------------------------------------------------|
A----------------------------------------------------------|
E----------------------------------------------------------|


E----------------------------------------------------------|
B---14-12-14-12-14------14b-14b-14b------------------------|
G---14-12-14-12-14------14b-14b-14bp12---------------------|
D--------------------------------------14------------------|
A----------------------------------------------------------|
E----------------------------------------------------------|

E-----12-12-------------------12-12----------------12-12---|
B-----12-12---14-12-14-12-14--12-12-14-12-14-12-14-12-12---|
G-------------14-12-14-12-14--------14-12-14-12-14---------|
D----------------------------------------------------------|
A----------------------------------------------------------|
E----------------------------------------------------------|


E----------------------------------------------------------|
B---14-12-14-12-14----14brp12-14-12-14brp12----------------|
G---14-12-14-12-14----14brp12-14-12-14brp12----------------|
D-------------------------------------------14-------------|
A----------------------------------------------------------|
E----------------------------------------------------------|


E-----12-12-------------------12-12----------------12-12---|
B-----12-12---14-12-14-12-14--12-12-14-12-14-12-14-12-12---|
G-------------14-12-14-12-14--------14-12-14-12-14---------|
D----------------------------------------------------------|
A----------------------------------------------------------|
E----------------------------------------------------------|


E----------------------------------------------------------|
B---14-12-14-12-14-----------------------------------------|
G---14-12-14-12-14-----------------------------------------|
D----------------------------------------------------------|
A----------------------------------------------------------|
E----------------------------------------------------------|


Then


E----------------------------------------------------------|
B----------------------------------------------------------|
G----------------------------------------------------------|
D-----7-7-7-7-7-7-7-8-9-------9--------9--------9----------|
A-----5-5-5-5-5-5-5-6-7-------7--------7--------7----------|
E----------------------------------------------------------|

E----------------------------------------------------------|
B----------------------------------------------------------|
G----------------------------------------------------------|
D----9-------9----------9----7---6----4----7---8----9------|
A----7-------7----------7----5---4----2----5---6----7------|
E----------------------------------------------------------|

E----------------------------------------------------------|
B----------------------------------------------------------|
G----------------------------------------------------------|
D----------------------------------------------------------|
A------9---9--7-----7---9----9~----9--7------7---9~--------|
E----------------9-----------------------9-----------------|

E----------------------------------------------------------|
B----------------------------------------------------------|
G----------------------------------------------------------|
D-----7----6----4-----7----8------9------------------------|
A-----5----4----2-----5----6------7------------------------|
E----------------------------------------------------------|


Verse (all E)


E----------------------------------------------------------|
B----------------------------------------------------------|
G----------------------------------------------------------|
D-----9----------------------------------------------------|
A-----7----------------------------------------------------|
E----------------------------------------------------------|

You pack your bags
And you move to the city
There's somethin' missin' here at home
You fix your hair
And you're lookin' real pretty
It's time to get it out on your own


Chorus

You're always fightin'                  your family life...
With your mama and you papa


E----------------------------------------------------------|
B----------------------------------------------------------|
G----------------------------------------------------------|
D------9---7---7---7---7---7-------9---7-----7-------------|
A------7---5---5---5---5---5-------7---5-----5-------------|
E----------------------------------------------------------|


     Is one big pain! When you, you gonna move to the city?

E----------------------------------------------------------|
B----------------------------------------------------------|
G----------------------------------------------------------|
D----4---6---7---7--9-----9------9---------9-------9-------|
A----2---4---5---5--7-----7------7---------7-------7-------|
E----------------------------------------------------------|

     To the city where it all began      You gotta move


E----------------------------------------------------------|
B----------------------------------------------------------|
G----------------------------------------------------------|
D----9-------9--------9--------9--------9------------------|
A----7-------7--------7--------7--------7------------------|
E----------------------------------------------------------|


                                 Ma,ma,ma,ma,ma,ma,ma,ma,ma
                                 Time you gotta move

E----------------------------------------------------------|
B----------------------------------------------------------|
G----------------------------------------------------------|
D-----7---6----4-----2----9------9------9------------------|
A-----5---4----2-----0----7------7------7------------------|
E----------------------------------------------------------|

E----------------------------------------------------------|
B----------------------------------------------------------|
G----------------------------------------------------------|
D-----7---6----4-----2----9------9------9------------------|
A-----5---4----2-----0----7------7------7------------------|
E----------------------------------------------------------|

Then repeat all that


E----------------------------------------------------------|
B----------------------------------------------------------|
G----------------------------------------------------------|
D----9-------9----------9----7---6----4----7---8----9------|
A----7-------7----------7----5---4----2----5---6----7------|
E----------------------------------------------------------|

E----------------------------------------------------------|
B----------------------------------------------------------|
G----------------------------------------------------------|
D----------------------------------------------------------|
A------9---9--7-----7---9----9-----9--7------7---9---------|
E----------------9-----------------------9-----------------|

E----------------------------------------------------------|
B----------------------------------------------------------|
G----------------------------------------------------------|
D-----7----6----4-----7----8------9------------------------|
A-----5----4----2-----5----6------7------------------------|
E----------------------------------------------------------|


Verse (all E)


E----------------------------------------------------------|
B----------------------------------------------------------|
G----------------------------------------------------------|
D-----9----------------------------------------------------|
A-----7----------------------------------------------------|
E----------------------------------------------------------|

You stole your mama's car
And your daddy's plastic credit card
You're sixteen and you can't get a job
You're not goin' very far


Chorus

You're always ridin'                  This life is...
With the teachers and the police


E----------------------------------------------------------|
B----------------------------------------------------------|
G----------------------------------------------------------|
D------9---7---7---7---7---7-------9---7-----7-------------|
A------7---5---5---5---5---5-------7---5-----5-------------|
E----------------------------------------------------------|


Much too insane!     When you, you gonna move to the city?

E----------------------------------------------------------|
B----------------------------------------------------------|
G----------------------------------------------------------|
D----4---6---7----7-9-----9------9---------9-------9-------|
A----2---4---5----5-7-----7------7---------7-------7-------|
E----------------------------------------------------------|

    To the city where it all began      You gotta move


E----------------------------------------------------------|
B----------------------------------------------------------|
G----------------------------------------------------------|
D----9-------9--------9--------9--------9------------------|
A----7-------7--------7--------7--------7------------------|
E----------------------------------------------------------|


                                 Ma,ma,ma,ma,ma,ma,ma,ma,ma
                                 Time you gotta move

E----------------------------------------------------------|
B----------------------------------------------------------|
G----------------------------------------------------------|
D-----7---6----4-----2----9------9------9------------------|
A-----5---4----2-----0----7------7------7------------------|
E----------------------------------------------------------|

E----------------------------------------------------------|
B----------------------------------------------------------|
G----------------------------------------------------------|
D-----7---6----4-----2----9------9------9------------------|
A-----5---4----2-----0----7------7------7------------------|
E----------------------------------------------------------|

Then

Repeat that

E----------------------------------------------------------|
B----------------------------------------------------------|
G----------------------------------------------------------|
D------7-7-7-7-8-9----9------------------------------------|
A------5-5-5-5-6-7----7------------------------------------|
E----------------------------------------------------------|


Slash does


E----------------------------------------------------------|
B------15b--------15~-------15-------------12~-------------|
G---------------------------14b-----14~----13~-------------|
D----------------------------------------------------------|
A----------------------------------------------------------|
E----------------------------------------------------------|


E----------------------------------------------------------|
B----10~------12~------10~---------------------------------|
G----11~------13~------11~---------------------------------|
D----------------------------------------------------------|
A----------------------------------------------------------|
E----------------------------------------------------------|

Solo 1 :

E----------14----------14----------14----------14----------|
B-----17b------14h17b------14h17b------14h17b--------------|
G----------------------------------------------------------|
D----------------------------------------------------------|
A----------------------------------------------------------|
E----------------------------------------------------------|

E----------14----------14----------14----------14---15bb---|
B--14h17b------14h17b------14h17b------14h17b--------------|
G----------------------------------------------------------|
D----------------------------------------------------------|
A----------------------------------------------------------|
E----------------------------------------------------------|

E----------------------------------------------------------|
B----------------14h17p14--------14h17p14------14h17p14----|
G--------------------------16--------------16--------------|
D----------------------------------------------------------|
A----------------------------------------------------------|
E----------------------------------------------------------|


E----------------------------------------------------------|
B----------------14h17p14--------14h17p14------14h17p14----|
G--------------------------16--------------16--------------|
D----------------------------------------------------------|
A----------------------------------------------------------|
E----------------------------------------------------------|

E----------------------------------------------------------|
B----------------14h17p14--------14h17p14-------14h17p14---|
G--------------------------16--------------16--------------|
D----------------------------------------------------------|
A----------------------------------------------------------|
E----------------------------------------------------------|

E----------------------------------------------------------|
B------------14--------------------------------------------|
G-----17p16------17---16h17p16p14------16------14h15-------|
D----------------------------------16------16--------16----|
A----------------------------------------------------------|
E----------------------------------------------------------|


E------------14---17b--17~----14-------------14------------|
B---------------------------------14--17b--------17p14-----|
G----14h15-------------------------------------------------|
D----------------------------------------------------------|
A----------------------------------------------------------|
E----------------------------------------------------------|


E------16br-------14br---12---14~--------14br---12--12~----|
B----------------------------------------------------------|
G----------------------------------------------------------|
D----------------------------------------------------------|
A----------------------------------------------------------|
E----------------------------------------------------------|


E----------------------------------------------------------|
B-----15b-----15br~----------------------------------------|
G----------------------------------------------------------|
D----------------------------------------------------------|
A----------------------------------------------------------|
E----------------------------------------------------------|



Repeat chorus and that riff 4 times


E----------------------------------------------------------|
B----------------------------------------------------------|
G----------------------------------------------------------|
D------7-7-7-7-8-9----9------------------------------------|
A------5-5-5-5-6-7----7------------------------------------|
E----------------------------------------------------------|


End on this


E----------------------------------------------------------|
B----------------------------------------------------------|
G----------------------------------------------------------|
D-----7---------------7-7-7-7-8-9--------------------------|
A-----5---------------5-5-5-5-6-7--------------------------|
E----------------------------------------------------------|




E----------------------------------------------------------|
B----------------------------------------------------------|
G----------------------------------------------------------|
D---------------5b-------5-7b-7b-7b-7b-7b-7b-7b-5-7b-7b-5--|
A-----7-5-7-5-7----7-5-7-----------------------------------|
E----------------------------------------------------------|

E----------------------------------------------------------|
B----------------------------------------------------------|
G----------------------------------------------------------|
D----7-7br-5-----------------------------------------------|
A-------------7-----5--------------------------------------|
E----------------7-----7--5--5brp3-5-3-5b-5b-3b-0----------|




Here is Slash's solo :


E----------------------------------------------------------|
B----15b---15brp12------15~-----------15-12----15-12h15p12-|
G-------------------14----------------------15-------------|
D----------------------------------------------------------|
A----------------------------------------------------------|
E----------------------------------------------------------|


E----------------------------------------------------------|
B--------12-------12-----12-----12-----12-----12-----12----|
G----15-------14b----14b----14b----14b----14b----14b-------|
D----------------------------------------------------------|
A----------------------------------------------------------|
E----------------------------------------------------------|

E----------------------------------------------------------|
B---------12-----12----------------------------------------|
G-----14b----14b-----14brp12-14-12-14b-12~-----------------|
D----------------------------------------------------------|
A----------------------------------------------------------|
E----------------------------------------------------------|


E----------------------------------------------------------|
B----------------------------------------------12-14br-----|
G----14brp12-14--12-14-14b--12~-----14-12-14b--------------|
D----------------------------------------------------------|
A----------------------------------------------------------|
E----------------------------------------------------------|


E----------------------------------------------------------|
B---------12-----------------------------------------------|
G-----14-----12--------------------------------------------|
D----------------14-12-14-14~----12------12----------------|
A------------------------------------14-----14/12-12brp10--|
E----------------------------------------------------------|

E----------------------------------------------------------|
B----------------------------------------------------------|
G-----------------------------------------------12-12------|
D------------------------------12~----14p12----------------|
A---------10~----12-10--12/14---------------14-------------|
E----12(p10)-----------------------------------------------|


E---------------------15--17brp15-17--15-17b-17b-17b-17b---|
B-----------15~-17-17--------------------------------------|
G----14/16-------------------------------------------------|
D----------------------------------------------------------|
A----------------------------------------------------------|
E----------------------------------------------------------|


E-----17b-17b-17bp15-17-15-17brp15-17-17-15~---------------|
B----------------------------------------------------------|
G----------------------------------------------------------|
D----------------------------------------------------------|
A----------------------------------------------------------|
E----------------------------------------------------------|


E-------17--19b-19-18-17-15------------------15------------|
B-----------------------------17------15-17------15h17p15--|
G---------------------------------16-----------------------|
D----------------------------------------------------------|
A----------------------------------------------------------|
E----------------------------------------------------------|

E----------------------------------------------------------|
B---------17------15-17bbrp15-----17~---17bb-----17~-------|
G-----16------16--------------16-------------16------------|
D----------------------------------------------------------|
A----------------------------------------------------------|
E----------------------------------------------------------|

E----------------------------------------------------------|
B-----15-17-17p15/14---15p14/12---14p12/10---12p10/8-------|
G----------------------------------------------------------|
D----------------------------------------------------------|
A----------------------------------------------------------|
E----------------------------------------------------------|


E----------------------------------------------------------|
B-----10-8-------------------------------------------------|
G----------------------------------------------------------|
D---------------9---12-12p9/7---9p7/5------7-5-7b-5~-7-----|
A----------------------------------------------------------|
E----------------------------------------------------------|


E----------------------------------------------------------|
B------------------------------------------------8-8-8~----|
G--------------------------------5-7/9-7-9p7---------------|
D-----7b-7b-7b-5~-7-7b-7b-7b-7b---------------9------------|
A----------------------------------------------------------|
E----------------------------------------------------------|


E----------------------------------------------------------|
B-----8-8-8~---8-------------8-8~---8----------------------|
G-----------------9p7---7-9------------9p7-----------------|
D---------------------9--------------------9---------------|
A----------------------------------------------------------|
E----------------------------------------------------------|


E------------7-----7--------7----7-----7---7----7---7------|
B------9h10-----8-----9h10----8----10b---8--10b---8---10b--|
G----------------------------------------------------------|
D----------------------------------------------------------|
A----------------------------------------------------------|
E----------------------------------------------------------|


E-----7----7-----7-----7-------7---------------------------|
B-------8----10b----8-----10b-----12b--12-11-10-----12-----|
G------------------------------------------------12----12--|
D----------------------------------------------------------|
A----------------------------------------------------------|
E----------------------------------------------------------|

E----------------------------------------------------------|
B-----10h12p10----10--------10-----------------------------|
G--------------12-----12p11-----12--11h12p11p9-----11-9----|
D-----------------------------------------------11---------|
A----------------------------------------------------------|
E----------------------------------------------------------|

E----------------------------------------------------------|
B----------------------------------------------------------|
G----------------------------------------------------------|
D----12-11h12p11p9----9----9h11p9--------9-----------------|
A------------------11---11---------12p11---12-11h12p11p9---|
E----------------------------------------------------------|


E----------------------------------------------------------|
B----------------------------------------------------------|
G--------------------------------------------9h11p9--------|
D-------------------------9h11p9----9h11h12--------12------|
A--------11------9h11h12--------12-------------------------|
E----12------12--------------------------------------------|


E------------------------------------------12h15-----------|
B-------------10h12p10---10h12h13-----15b---------15b------|
G----9h11h12----------12-----------------------------------|
D----------------------------------------------------------|
A----------------------------------------------------------|
E----------------------------------------------------------|

E----12h15-----12h15-----12h15------12h15-----12h15--------|
B----------15b-------15b-------15b--------15b--------15b---|
G----------------------------------------------------------|
D----------------------------------------------------------|
A----------------------------------------------------------|
E----------------------------------------------------------|

E----12h15-----12h15-----12h15------12h15-----12h15--------|
B----------15b-------15b-------15b--------15b--------15b---|
G----------------------------------------------------------|
D----------------------------------------------------------|
A----------------------------------------------------------|
E----------------------------------------------------------|


E------12---------15~----------12---------15~--------------|
B----------15p12-------------------15p12-------------------|
G----------------------------------------------------------|
D----------------------------------------------------------|
A----------------------------------------------------------|
E----------------------------------------------------------|

E------12---------15~----------12---------15~--------------|
B----------15p12-------------------15p12-------------------|
G----------------------------------------------------------|
D----------------------------------------------------------|
A----------------------------------------------------------|
E----------------------------------------------------------|

E------12---------14~----------12---------15~--------------|
B----------15p12-------------------15p12-------------------|
G----------------------------------------------------------|
D----------------------------------------------------------|
A----------------------------------------------------------|
E----------------------------------------------------------|


E-----12---------16-----------12----------15---------------|
B----------15p12-------------------15p12-------------------|
G----------------------------------------------------------|
D----------------------------------------------------------|
A----------------------------------------------------------|
E----------------------------------------------------------|

E------12---------14~----------12---------15~--------------|
B----------15p12-------------------15p12-------------------|
G----------------------------------------------------------|
D----------------------------------------------------------|
A----------------------------------------------------------|
E----------------------------------------------------------|


E------12---------16~----------12---------15~--------------|
B----------15p12-------------------15p12-------------------|
G----------------------------------------------------------|
D----------------------------------------------------------|
A----------------------------------------------------------|
E----------------------------------------------------------|


E------12---------14~--------12--------------12------------|
B----------15p12-----------------15p12--15b------15p12-----|
G----------------------------------------------------------|
D----------------------------------------------------------|
A----------------------------------------------------------|
E----------------------------------------------------------|


E----------------------------------------------------------|
B---------12-----------------------------------------------|
G-----14------14brp12------14------12~---------------------|
D----------------------14------14--------------------------|
A----------------------------------------------------------|
E----------------------------------------------------------|


E----------------------------------------------------------|
B----------------------------------------------------------|
G----------------------------------------------------------|
D------14-12-----------------------------------------------|
A-------------14p12/10--12brp10------12------10b~----------|
E--------------------------------12------12----------------|


E----------4-------3-------2-----------0-------------------|
B----------------------------------------------------------|
G------/4-----4/3-----3/2-----2---0h1----------------------|
D----------------------------------------------------------|
A----------------------------------------------------------|
E----------------------------------------------------------|

That's it.
comments
We did not receive enough feedback on this tab! Please rate:
print report bad tab
1 2 3 4 5
I want to post or [tab]
guest
You may want to rate the tab now too:
select rating
Please do not post tabs as comments. Select "correction" instead!