Oops, an error
Loading. Please wait.

Mr Brownstone Tab

ver3
ver3
More versions @911Tabs.com
14,222 views 30 this week
5 commentsread comments
1 2 3 4 5
accurate
x 5
Autoscroll
+/-
esc
set tempo
stop
Contributor
Hey! There's an official Ultimate Guitar app which is ideal
for learning songs when you're away from computer. Get the app
WARNING: You are trying to view
                                    content from Ultimate-Guitar.com
                                    in an unauthorized application,
                                    which is prohibited.

                                    Please use an official Ultimate
                                    Guitar Tabs application for iPhone,
                                    iPad or Android to access legitimate
                                    chords, guitar, bass, and drum tabs
                                    from Ultimate-Guitar.com database.

                                    Type "ultimate guitar tabs" in Apple
                                    App Store's or Android Market's
                                    search to find the application.
Mr. Brownstone by guns n roses
tab by rui barbosa


Guitar 1(izzy stradlin ):
                                           
D#||-------------------|-------------------||
A#||-------------------|-------------------||
F#||*------------------|------------------*||
C#||*------------------|------------------*||
G#||-------------------|-------------------||
D#||-------------------|-------------------||


                                                                         
---------------------------------------|--------------------------------|
---------------------------------------|--------------------------------|
---------------------------------------|--------------------------------|
---------------------------------------|--------------------------------|
---------------------------------------|--------------------------------|
--12-12/11/10-10/9/8-8/7-7/6-6/5-5/3/1/|--0-0/1-1-1/2-2/3/5/6/7/-12/-0--|


                                                               
-------------------------------|------------------------------|
-------------------------------|--3h2h0-----------------------|
--------------------------2----|--------2h0-------------------|
--------------------------2----|-------------2h0---------2----|
--------2h0-------2-2-----0----|-----------------2h0-----2----|
--0-3h4-----0-3h4-0-0-3h4------|---------------------3h4-0----|


                                                       
-------------------------------|----------------------|
-------------------------------|--3-------------------|
--------------------------2----|--2---2---------------|
--------------------------2----|--0---2---------------|
--------2h0-------2-2-----0----|------0---2-----------|
--0-3h4-----0-3h4-0-0-3h4------|---------------3~-----|


                                                                 
|--------------------------------|------------------------------|
|--------------------------------|--3h2h0-----------------------|
|*--------------------------2----|--------2h0-------------------|
|*--------------------------2----|-------------2h0---------2----|
|---------2h0-------2-2-----0----|-----------------2h0-----2----|
|---0-3h4-----0-3h4-0-0-3h4------|---------------------3h4-0----|


                                                       
-------------------------------|----------------------|
-------------------------------|--3-------------------|
--------------------------2----|--2---2---------------|
--------------------------2----|--0---2---------------|
--------2h0-------2-2-----0----|------0---2-----------|
--0-3h4-----0-3h4-0-0-3h4------|---------------3~-----|


                                                            
------------------------------|----------------------------|
------------------------------|----------------------------|
------------------------------|----------------------------|
--------------------5---5h7---|--5h7--x-5--x-5~---5--------|
--5h7--x-5--x-7~--7---7-------|---------------------4-7~---|
------------------------------|----------------------------|


                                                              
------------------------------|-----------------------------||
------------------------------|-------------------8---5~----||
------------------------------|---------------------6------*||
--------------------5---5h7---|--5h7--x-5--x-5~------------*||
--5h7--x-5--x-7~--7---7-------|-----------------------------||
------------------------------|-----------------------------||


                                                                  
---------------------|---------------------|---------------------|
---------------------|--5---3---5----------|--7---5---7----------|
--4---2---4----------|--5---3---5----------|--7---5---7----------|
--5---3---5----------|--5---3---5----------|--7---5---7----------|
--5---3---5----------|--3---1---3----------|--5---3---5----------|
--3---1---3----------|---------------------|---------------------|


                                                        
--------------------------|----------------------------|
--------------------------|----------------------------|
----------------------7h9-|----------------------------|
------4---5----6--7h9-----|----------------------------|
--5-----------------------|--7--7--x-7---7--x-7----5h7-|
--------------------------|--0--0--x-0-----------7-----|


                                                        
---------------------------|---------------------------|
---------------------------|---------------------------|
---------------------------|---------------------------|
--------------5b-----------|--------------7b--5--------|
--7~-7--x-7-------7----5h7-|--7~-7--x-7------------5h7-|
---------------------7-----|---------------------7-----|


                                                          
--------------------------|------------------------------|
--------------------------|------------------------------|
--------------------------|------------------------------|
--------------------------|--9--x-7--x-9--x-x------------|
--7~---5~---4--2----0-----|--9--x-7--x-9--x-x-5-6-9--x-x-|
------------------3---3-0-|--7--x-5--x-7--x-x-x-x-7--x-x-|


                                                              
------------------------------|------------------------------|
------------------------------|------------------------------|
------------------------------|------------------------------|
--7--x-5--x-7--x-x------------|--9--x-7--x-9--x-x------------|
--7--x-5--x-7--x-x-3-4-7--x-x-|--9--x-7--x-9--x-x-5-6-9--x-x-|
--5--x-3--x-5--x-x-x-x-5--x-x-|--7--x-5--x-7--x-x-x-x-7--x-x-|


                                                              
------------------------------|------------------------------|
------------------------------|------------------------------|
------------------------------|------------------------------|
--7--x-5--x-7--x-x------------|--9--x-7--x-9--x-x------------|
--7--x-5--x-7--x-x-3-4-7--x-x-|--9--x-7--x-9--x-x-5-6-9--x-x-|
--5--x-3--x-5--x-x-x-x-5--x-x-|--7--x-5--x-7--x-x-x-x-7--x-x-|


                                                              
------------------------------|------------------------------|
------------------------------|------------------------------|
------------------------------|------------------------------|
--7--x-5--x-7--x-x------------|--9--x-7--x-9--x-x------------|
--7--x-5--x-7--x-x-3-4-7--x-x-|--9--x-7--x-9--x-x-5-6-9--x-x-|
--5--x-3--x-5--x-x-x-x-5--x-x-|--7--x-5--x-7--x-x-x-x-7--x-x-|


                                                                     
------------------------|---------------------|---------------------|
------------------------|---------------------|--5---3---5----------|
------------------------|--4---2---4----------|--5---3---5----------|
--7---5---7-------------|--5---3---5----------|--5---3---5----------|
--7---5---7----0--3h0---|--5---3---5----------|--3---1---3----------|
--5---3---5-------------|--3---1---3----------|---------------------|


                                                                              
---------------------|--------------------------|----------------------------|
--7---5---7----------|--------------------------|----------------------------|
--7---5---7----------|----------------------7h9-|----------------------------|
--7---5---7----------|------4---5----6--7h9-----|----------------------------|
--5---3---5----------|--5-----------------------|--7--7--x-7---7--x-7----5h7-|
---------------------|--------------------------|--0--0--x-0-----------7-----|


                                                        
---------------------------|---------------------------|
---------------------------|---------------------------|
---------------------------|---------------------------|
--------------5b-----------|--------------7b--5--------|
--7~-7--x-7-------7----5h7-|--7~-7--x-7------------5h7-|
---------------------7-----|---------------------7-----|


                                                        
--------------------------|----------------------------|
--------------------------|----------------------------|
--------------------------|-----------------4--2h3-----|
--------------------------|------4----2-----4--3---4-2-|
--7~---5~---4--2----0-----|---------4-----4-2----------|
------------------3---3-0-|--2-------------------------|


                                                          
----------------------------|----------------------------|
----------------------------|----------------------------|
-----------------2--0h1-----|-----------------4--2h3-----|
------2----0-----2--0---2-0-|------4----2-----4--3---4-2-|
---------2-----2-0----------|---------4-----4-2----------|
--0-------------------------|--2-------------------------|


                                                          
----------------------------|----------------------------|
----------------------------|----------------------------|
-----------------2--0h1-----|-----------------4--2h3-----|
------2----0-----2--0---2-0-|------4----2-----4--3---4-2-|
---------2-----2-0----------|---------4-----4-2----------|
--0-------------------------|--2-------------------------|


                                                                                
----------------------------|----------------------------|---------------------|
----------------------------|----------------------------|---------------------|
-----------------2--0h1-----|-----------------4--2h3-----|--9---7---9----------|
------2----0-----2--0---2-0-|------4----2-----4------4---|--9---7---9----------|
---------2-----2-0----------|---------4-----4-2----------|--7---5---7----------|
--0-------------------------|--2-------------------------|---------------------|


                                                                  
---------------------|---------------------|---------------------|
---------------------|--5---3---5----------|--7---5---7----------|
--4---2---4----------|--5---3---5----------|--7---5---7----------|
--5---3---5----------|--5---3---5----------|--7---5---7----------|
--5---3---5----------|--3---1---3----------|--5---3---5----------|
--3---1---3----------|---------------------|---------------------|


                                                                           
-----------------------|------------------|-------------------------------|
--7---6---4----3--3----|------------------|-------------------------------|
--7---6---4----2--0----|------------------|--------------------------2----|
--7---6---4----0--0----|------------------|--------------------------2----|
--5---4---2----0--x----|------------------|--------2h0-------2-2-----0----|
------------------3----|------------------|--0-3h4-----0-3h4-0-0-3h4------|


                                                               
------------------------------|-------------------------------|
--3h2h0-----------------------|-------------------------------|
--------2h0-------------------|--------------------------2----|
-------------2h0---------2----|--------------------------2----|
-----------------2h0-----2----|--------2h0-------2-2-----0----|
---------------------3h4-0----|--0-3h4-----0-3h4-0-0-3h4------|


                                                      
----------------------|------------------------------|
--3-------------------|------------------------------|
--2---2---------------|------------------------------|
--0---2---------------|--------------------5---5h7---|
------0---2-----------|--5h7--x-5--x-7~--7---7-------|
---------------3~-----|------------------------------|


                                                            
----------------------------|------------------------------|
----------------------------|------------------------------|
----------------------------|------------------------------|
--5h7--x-5--x-5~---5--------|--------------------5---5h7---|
---------------------4-7~---|--5h7--x-5--x-7~--7---7-------|
----------------------------|------------------------------|


                                                            
----------------------------|------------------------------|
-------------------8---5~---|------------------------------|
---------------------6------|------------------------------|
--5h7--x-5--x-5~------------|--9--x-7--x-9--x-x------------|
----------------------------|--9--x-7--x-9--x-x-5-6-9--x-x-|
----------------------------|--7--x-5--x-7--x-x-x-x-7--x-x-|


                                                              
------------------------------|------------------------------|
------------------------------|------------------------------|
------------------------------|------------------------------|
--7--x-5--x-7--x-x------------|--9--x-7--x-9--x-x------------|
--7--x-5--x-7--x-x-3-4-7--x-x-|--9--x-7--x-9--x-x-5-6-9--x-x-|
--5--x-3--x-5--x-x-x-x-5--x-x-|--7--x-5--x-7--x-x-x-x-7--x-x-|


                                                              
------------------------------|------------------------------|
------------------------------|------------------------------|
------------------------------|------------------------------|
--7--x-5--x-7--x-x------------|--9--x-7--x-9--x-x------------|
--7--x-5--x-7--x-x-3-4-7--x-x-|--9--x-7--x-9--x-x-5-6-9--x-x-|
--5--x-3--x-5--x-x-x-x-5--x-x-|--7--x-5--x-7--x-x-x-x-7--x-x-|


                                                              
------------------------------|------------------------------|
------------------------------|------------------------------|
------------------------------|------------------------------|
--7--x-5--x-7--x-x------------|--9--x-7--x-9--x-x------------|
--7--x-5--x-7--x-x-3-4-7--x-x-|--9--x-7--x-9--x-x-5-6-9--x-x-|
--5--x-3--x-5--x-x-x-x-5--x-x-|--7--x-5--x-7--x-x-x-x-7--x-x-|


                                                                     
------------------------|---------------------|---------------------|
------------------------|---------------------|--5---3---5----------|
------------------------|--4---2---4----------|--5---3---5----------|
--7---5---7-------------|--5---3---5----------|--5---3---5----------|
--7---5---7----0--3h0---|--5---3---5----------|--3---1---3----------|
--5---3---5-------------|--3---1---3----------|---------------------|


                                                                              
---------------------|--------------------------|----------------------------|
--7---5---7----------|--------------------------|----------------------------|
--7---5---7----------|----------------------7h9-|----------------------------|
--7---5---7----------|------4---5----6--7h9-----|----------------------------|
--5---3---5----------|--5-----------------------|--7--7--x-7---7--x-7----5h7-|
---------------------|--------------------------|--0--0--x-0-----------7-----|


                                                        
---------------------------|---------------------------|
---------------------------|---------------------------|
---------------------------|---------------------------|
--------------5b-----------|--------------7b--5--------|
--7~-7--x-7-------7----5h7-|--7~-7--x-7------------5h7-|
---------------------7-----|---------------------7-----|


                                                           
--------------------------|-------------------------------|
--------------------------|-------------------------------|
--------------------------|--------------------------2----|
--------------------------|--------------------------2----|
--7~---5~---4--2----0-----|--------2h0-------2-2-----0----|
------------------3---3-0-|--0-3h4-----0-3h4-0-0-3h4------|


                                                               
------------------------------|-------------------------------|
--3h2h0-----------------------|-------------------------------|
--------2h0-------------------|--------------------------2----|
-------------2h0---------2----|--------------------------2----|
-----------------2h0-----2----|--------2h0-------2-2-----0----|
---------------------3h4-0----|--0-3h4-----0-3h4-0-0-3h4------|


                                                          
----------------------|----------------------------------|
--3-------------------|----------------------------------|
--2---2---------------|--------4---------------4---------|
--0---2---------------|----5-6---7---5-6---5-6---7---5-6-|
------0---2-----------|--7---------7-----7---------7-----|
---------------3~-----|----------------------------------|


                                                                
------------------------------|--------------------------------|
------------------------------|--3h2h0----------3h2h0----------|
--------4---------------------|--------2~-0-----------2~-0-----|
----5-6---7---5-6----5-6-7----|-------------2h0------------2h0-|
--7---------7-----7-----------|--------------------------------|
------------------------------|--------------------------------|


                                                                    
-----------------------------|------------------|------------------|
--3h2h0----------------------|------------------|------------------|
--------2~-0-----------------|------------------|------------------|
-------------2h0--------2----|------------------|------------------|
-----------------2h0----2----|------------------|------------------|
---------------------3b-0----|------------------|------------------|


                    
------------------||
------------------||
------------------||
------------------||
------------------||
------------------||


guitar 2(slash):


D#||---------------------------------|---------------------------------||
A#||---------------------------------|---------------------------------||
F#||*--------------------------------|--------------------------------*||
C#||*--x-x-x-x-x-x-x-x-x-x-x--x--x-x-|--x-x-x-x-x-x-x-x-x-x-x--x--x-x-*||
G#||---x-x-x-x-x-x-x-x-x-x-x--x--x-x-|--x-x-x-x-x-x-x-x-x-x-x--x--x-x--||
D#||---x-x-x-x-x-x-x-x-x-x-x--x--x-x-|--x-x-x-x-x-x-x-x-x-x-x--x--x-x--||


                                                                  
--------------------------------|--------------------------------|
--------------------------------|--------------------------------|
--------------------------------|--------------------------------|
--x-x-x-x-x-x-x-x-x-x-x--x--x-x-|--x-x-x-x-x-x-x-x-x-x-x--x--x-x-|
--x-x-x-x-x-x-x-x-x-x-x--x--x-x-|--x-x-x-x-x-x-x-x-x-x-x--x--x-x-|
--x-x-x-x-x-x-x-x-x-x-x--x--x-x-|--x-x-x-x-x-x-x-x-x-x-x--x--x-x-|


                                                                            
------------------|------------------|------------------|------------------|
------------------|------------------|------------------|------------------|
------------------|------------------|------------------|------------------|
------------------|------------------|------------------|------------------|
------------------|------------------|------------------|------------------|
------------------|------------------|------------------|------------------|


                                                          
|-------------------------------|---------------------0--|
|-------------------------------|---------------------0--|
|*-------------------------2----|--7---6---4-------------|
|*--------x----------------2----|--7---6---4-------------|
|---x-x-x-2h0-x-x-x-x--x-x-0----|--5---4---2-------x-----|
|---0-3-4-----0-3-4-0--3-4------|---------------3b-0-----|


                                                        
------------------------------|------------------------|
------------------------------|------------------------|
-------------------------2----|--7---6---4-------------|
--------x----------------2----|--7---6---4-------2-----|
--x-x-x-2h0-x-x-x-x--x-x-0----|--5---4---2---------5b--|
--0-3-4-----0-3-4-0--3-4------|---------------3b-------|


                                                            
------------------------------|----------------------------|
------------------------------|----------------------------|
------------------------------|----------------------------|
--------------------5---5h7---|--5h7--x-5--x-5~---5--------|
--5h7--x-5--x-7~--7---7-------|---------------------4-7~---|
------------------------------|----------------------------|


                                                              
------------------------------|-----------------------------||
------------------------------|-------------------8---5~----||
------------------------------|---------------------6------*||
--------------------5---5h7---|--5h7--x-5--x-5~------------*||
--5h7--x-5--x-7~--7---7-------|-----------------------------||
------------------------------|-----------------------------||


                                                                  
---------------------|---------------------|---------------------|
---------------------|---------------------|---------------------|
---------------------|---------------------|---------------------|
---------------------|--5---3---5----------|--7---5---7----------|
--5---3---5----------|--3---1---3----------|--5---3---5----------|
--3---1---3----------|---------------------|---------------------|


                                                        
--------------------------|----------------------------|
--------------------------|----------------------------|
----------------------7h9-|----------------------------|
------4---5----6--7h9-----|----------------------------|
--5-----------------------|--7--7--x-7---7--x-7----5h7-|
--------------------------|--0--0--x-0-----------7-----|


                                                        
---------------------------|---------------------------|
---------------------------|---------------------------|
---------------------------|---------------------------|
--------------5b-----------|--------------7b--5--------|
--7~-7--x-7-------7----5h7-|--7~-7--x-7------------5h7-|
---------------------7-----|---------------------7-----|


                                                          
--------------------------|------------------------------|
--------------------------|------------------------------|
--------------------------|------------------------------|
--------------------------|--9--x-7--x-9--x-x------------|
--7~---5~---4--2----0-----|--9--x-7--x-9--x-x-5-6-9--x-x-|
------------------3---3-0-|--7--x-5--x-7--x-x-x-x-7--x-x-|


                                                              
------------------------------|------------------------------|
------------------------------|------------------------------|
------------------------------|------------------------------|
--7--x-5--x-7--x-x------------|--9--x-7--x-9--x-x------------|
--7--x-5--x-7--x-x-3-4-7--x-x-|--9--x-7--x-9--x-x-5-6-9--x-x-|
--5--x-3--x-5--x-x-x-x-5--x-x-|--7--x-5--x-7--x-x-x-x-7--x-x-|


                                                              
------------------------------|------------------------------|
------------------------------|------------------------------|
------------------------------|------------------------------|
--7--x-5--x-7--x-x------------|--9--x-7--x-9--x-x------------|
--7--x-5--x-7--x-x-3-4-7--x-x-|--9--x-7--x-9--x-x-5-6-9--x-x-|
--5--x-3--x-5--x-x-x-x-5--x-x-|--7--x-5--x-7--x-x-x-x-7--x-x-|


                                                              
------------------------------|------------------------------|
------------------------------|------------------------------|
------------------------------|------------------------------|
--7--x-5--x-7--x-x------------|--9--x-7--x-9--x-x------------|
--7--x-5--x-7--x-x-3-4-7--x-x-|--9--x-7--x-9--x-x-5-6-9--x-x-|
--5--x-3--x-5--x-x-x-x-5--x-x-|--7--x-5--x-7--x-x-x-x-7--x-x-|


                                                                     
------------------------|---------------------|---------------------|
------------------------|---------------------|---------------------|
------------------------|---------------------|---------------------|
--7---5---7-------------|---------------------|--5---3---5----------|
--7---5---7----0--3h0---|--5---3---5----------|--3---1---3----------|
--5---3---5-------------|--3---1---3----------|---------------------|


                                                                              
---------------------|--------------------------|----------------------------|
---------------------|--------------------------|----------------------------|
---------------------|----------------------7h9-|----------------------------|
--7---5---7----------|------4---5----6--7h9-----|----------------------------|
--5---3---5----------|--5-----------------------|--7--7--x-7---7--x-7----5h7-|
---------------------|--------------------------|--0--0--x-0-----------7-----|


                                                        
---------------------------|---------------------------|
---------------------------|---------------------------|
---------------------------|---------------------------|
--------------5b-----------|--------------7b--5--------|
--7~-7--x-7-------7----5h7-|--7~-7--x-7------------5h7-|
---------------------7-----|---------------------7-----|


                                                        
--------------------------|----------------------------|
--------------------------|----------------------------|
--------------------------|-----------------4--2h3-----|
--------------------------|------4----2-----4--3---4-2-|
--7~---5~---4--2----0-----|---------4-----4-2----------|
------------------3---3-0-|--2-------------------------|


                                                          
----------------------------|----------------------------|
----------------------------|----------------------------|
-----------------2--0h1-----|-----------------4--2h3-----|
------2----0-----2--0---2-0-|------4----2-----4--3---4-2-|
---------2-----2-0----------|---------4-----4-2----------|
--0-------------------------|--2-------------------------|


                                                          
----------------------------|----------------------------|
----------------------------|----------------------------|
-----------------2--0h1-----|-----------------4--2h3-----|
------2----0-----2--0---2-0-|------4----2-----4--3---4-2-|
---------2-----2-0----------|---------4-----4-2----------|
--0-------------------------|--2-------------------------|


                                                                                
----------------------------|----------------------------|---------------------|
----------------------------|----------------------------|---------------------|
-----------------2--0h1-----|-----------------4--2h3-----|--9---7---9----------|
------2----0-----2--0---2-0-|------4----2-----4------4---|--9---7---9----------|
---------2-----2-0----------|---------4-----4-2----------|--7---5---7----------|
--0-------------------------|--2-------------------------|---------------------|


                                                                  
---------------------|---------------------|---------------------|
---------------------|--5---3---5----------|--7---5---7----------|
--4---2---4----------|--5---3---5----------|--7---5---7----------|
--5---3---5----------|--5---3---5----------|--7---5---7----------|
--5---3---5----------|--3---1---3----------|--5---3---5----------|
--3---1---3----------|---------------------|---------------------|


                                                     
-----------------------|----------------------------|
--7---6---4----3--3----|----------------------------|
--7---6---4----2--0----|----------------------------|
--7---6---4----0--0----|--x-x-x-x--x----x-x-x-------|
--5---4---2----0--x----|--x-x-x-x--x--x-x-x-x--5/---|
------------------3----|--x-x-x-x--x--x-x-x-x--3/---|


                                                        
------------------------------|---------------------0--|
------------------------------|---------------------0--|
-------------------------2----|--7---6---4-------------|
--------x----------------2----|--7---6---4-------------|
--x-x-x-2h0-x-x-x-x--x-x-0----|--5---4---2-------x-----|
--0-3-4-----0-3-4-0--3-4------|---------------3b-0-----|


                                                        
------------------------------|------------------------|
------------------------------|------------------------|
-------------------------2----|--7---6---4-------------|
--------x----------------2----|--7---6---4-------2-----|
--x-x-x-2h0-x-x-x-x--x-x-0----|--5---4---2---------5b--|
--0-3-4-----0-3-4-0--3-4------|---------------3b-------|


                                                            
------------------------------|----------------------------|
------------------------------|----------------------------|
------------------------------|----------------------------|
--------------------5---5h7---|--5h7--x-5--x-5~---5--------|
--5h7--x-5--x-7~--7---7-------|---------------------4-7~---|
------------------------------|----------------------------|


                                                            
------------------------------|----------------------------|
------------------------------|-------------------8---5~---|
------------------------------|---------------------6------|
--------------------5---5h7---|--5h7--x-5--x-5~------------|
--5h7--x-5--x-7~--7---7-------|----------------------------|
------------------------------|----------------------------|


                                                              
------------------------------|------------------------------|
------------------------------|------------------------------|
------------------------------|------------------------------|
--9--x-7--x-9--x-x------------|--7--x-5--x-7--x-x------------|
--9--x-7--x-9--x-x-5-6-9--x-x-|--7--x-5--x-7--x-x-3-4-7--x-x-|
--7--x-5--x-7--x-x-x-x-7--x-x-|--5--x-3--x-5--x-x-x-x-5--x-x-|


                                                              
------------------------------|------------------------------|
------------------------------|------------------------------|
------------------------------|------------------------------|
--9--x-7--x-9--x-x------------|--7--x-5--x-7--x-x------------|
--9--x-7--x-9--x-x-5-6-9--x-x-|--7--x-5--x-7--x-x-3-4-7--x-x-|
--7--x-5--x-7--x-x-x-x-7--x-x-|--5--x-3--x-5--x-x-x-x-5--x-x-|


                                                              
------------------------------|------------------------------|
------------------------------|------------------------------|
------------------------------|------------------------------|
--9--x-7--x-9--x-x------------|--7--x-5--x-7--x-x------------|
--9--x-7--x-9--x-x-5-6-9--x-x-|--7--x-5--x-7--x-x-3-4-7--x-x-|
--7--x-5--x-7--x-x-x-x-7--x-x-|--5--x-3--x-5--x-x-x-x-5--x-x-|


                                                                              
------------------------------|------------------------|---------------------|
------------------------------|------------------------|---------------------|
------------------------------|------------------------|---------------------|
--9--x-7--x-9--x-x------------|--7---5---7-------------|---------------------|
--9--x-7--x-9--x-x-5-6-9--x-x-|--7---5---7----0--3h0---|--5---3---5----------|
--7--x-5--x-7--x-x-x-x-7--x-x-|--5---3---5-------------|--3---1---3----------|


                                                                       
---------------------|---------------------|--------------------------|
---------------------|---------------------|--------------------------|
---------------------|---------------------|----------------------7h9-|
--5---3---5----------|--7---5---7----------|------4---5----6--7h9-----|
--3---1---3----------|--5---3---5----------|--5-----------------------|
---------------------|---------------------|--------------------------|


                                                         
----------------------------|---------------------------|
----------------------------|---------------------------|
----------------------------|---------------------------|
----------------------------|--------------5b-----------|
--7--7--x-7---7--x-7----5h7-|--7~-7--x-7-------7----5h7-|
--0--0--x-0-----------7-----|---------------------7-----|


                                                       
---------------------------|--------------------------|
---------------------------|--------------------------|
---------------------------|--------------------------|
--------------7b--5--------|--------------------------|
--7~-7--x-7------------5h7-|--7~---5~---4--2----0-----|
---------------------7-----|------------------3---3-0-|


                                                        
------------------------------|---------------------0--|
------------------------------|---------------------0--|
-------------------------2----|--7---6---4-------------|
--------x----------------2----|--7---6---4-------------|
--x-x-x-2h0-x-x-x-x--x-x-0----|--5---4---2-------x-----|
--0-3-4-----0-3-4-0--3-4------|---------------3b-0-----|


                                                        
------------------------------|------------------------|
------------------------------|------------------------|
-------------------------2----|--7---6---4-------------|
--------x----------------2----|--7---6---4-------2-----|
--x-x-x-2h0-x-x-x-x--x-x-0----|--5---4---2---------5b--|
--0-3-4-----0-3-4-0--3-4------|---------------3b-------|


                                                                  
----------------------------------|------------------------------|
----------------------------------|------------------------------|
----------------------------------|-------------------------2----|
----------------------------------|-------------------------2----|
--------2-0-------------2-0-------|--------2-0--------------0----|
--0-3-4-----0-3-4-0-3-4-----0-3-4-|--0-3-4-----0-3-4-0--3-4------|


                                                               
--------------------------------|-----------------------------|
--3h2h0----------3h2h0----------|--3h2h0----------------------|
--------2~-0-----------2~-0-----|--------2~-0-----------------|
-------------2h0------------2h0-|-------------2h0--------2----|
--------------------------------|-----------------2h0----2----|
--------------------------------|---------------------3b-0----|

solo with wah wah: 

                                                          
------------------|------------------|------------------||
------------------|------------------|------------------||
------------------|------------------|------------------||
------------------|------------------|------------------||
------------------|------------------|------------------||
------------------|------------------|------------------||




------------------|--14-----------------------------|
------------------|--17b--17--x-16r---14----14------|
------------------|----------------------16----16~--|
------------------|---------------------------------|
------------------|---------------------------------|
------------------|---------------------------------|


                                                       
------------------------------------------------------|
------------------------------------------------------|
--16-16--16r-14-16-16--16r-14-16-16--16r-14-14~-------|
------------------------------------------------14-12-|
------------------------------------------------------|
------------------------------------------------------|


                                         
----------------------------------------|
--17b--17--x-16r---14----14h17h14----14-|
----------------------17----------17----|
----------------------------------------|
----------------------------------------|
----------------------------------------|


                                                                            
----------------------------------------------|--------------------14--16--|
-----14---------------------------------------|--------22r---22~-----------|
--16b---17h16h14-16-16r-14----14----14b-16b---|----------------------------|
---------------------------16----16-----------|----------------------------|
----------------------------------------------|----------------------------|
----------------------------------------------|----------------------------|


                                                                       
--17-16h17h16h14----14-14----------------14-----------14h17h14--------|
-----------------17-------17-14h17h14-------17h14---------------------|
--------------------------------------16b---------16b----------16r-14-|
----------------------------------------------------------------------|
----------------------------------------------------------------------|
----------------------------------------------------------------------|


                                                 
------------------------------------------------|
-----14----14--------------14----14-------------|
--16----16b---14----14-16b----16----14b---14-16b|
-----------------16--------------------16-------|
------------------------------------------------|
------------------------------------------------|


                                                                     
--------------------------------|------3-----3------------------3-3/|
---14-------17r-14-17~----17/---|----3---3-6b--6-3------------3-----|
------16-14---------------------|--5b--------------5r-3-5-3-5b------|
--------------------------------|-----------------------------------|
--------------------------------|-----------------------------------|
--------------------------------|-----------------------------------|


                                        
-------8------8-11------------------8--|
-----8---8-11b-----8--------------8----|
--10b----------------10r-8-10-8h9------|
---------------------------------------|
---------------------------------------|
---------------------------------------|


                                                                         
-----10-13---------------------------------|--10---9----7---------15----|
--13b------10------------------------------|--13b--12b--10b---15--18b---|
--------------12-12r-10----12----10-10~----|----------------------------|
------------------------12----12-----------|----------------------------|
-------------------------------------------|----------------------------|
-------------------------------------------|----------------------------|


                                                                              
--------------------|------------------|------------------|------------------|
--------------------|------------------|------------------|------------------|
--------------------|------------------|------------------|------------------|
--------------------|------------------|------------------|------------------|
--------------------|------------------|------------------|------------------|
--------------12/---|------------------|------------------|------------------|
comments
print report bad tab
5 comments total. Showing first comments.
0 reply
slash_is_gr8st wrote on January 7 2005, 12:00 am

listen up.
this is a great tab, the best Mr. Brownstone Ive seen. You did great on the solo and rhythm, keep it up
yours in rock,
MR X

0 reply
potato1 wrote on August 18 2006, 08:49 am

weve ben reading total guitar

0 reply
MangeRamone wrote on January 27 2008, 08:07 am

hmm...how do you hammer-on from 2 to 0? ^^

I want to post or [tab]
guest
You may want to rate the tab now too:
select rating
Please do not post tabs as comments. Select "correction" instead!