Oops, an error
Loading. Please wait.

Mr Brownstone Tab

ver5
ver5
More versions @911Tabs.com
5,424 views 12 this week
no commentswrite comment
1 2 3 4 5
accurate
x 4
Autoscroll
+/-
esc
set tempo
stop
Contributor
Hey! There's an official Ultimate Guitar app which is ideal
for learning songs when you're away from computer. Get the app
WARNING: You are trying to view
                                    content from Ultimate-Guitar.com
                                    in an unauthorized application,
                                    which is prohibited.

                                    Please use an official Ultimate
                                    Guitar Tabs application for iPhone,
                                    iPad or Android to access legitimate
                                    chords, guitar, bass, and drum tabs
                                    from Ultimate-Guitar.com database.

                                    Type "ultimate guitar tabs" in Apple
                                    App Store's or Android Market's
                                    search to find the application.
>> Once, one my friends gave me some tabs. This is one of them. She said "Hope this will 
be useful to you!" and I hope this will be useful to you, too.

GUNS'N'ROSES ROCKS!

Guitar 1
Wah Rocking =>"+"=Treble,"0"=bass



       W                   W
D#||--------------------|--------------------||
A#||--------------------|--------------------||
F#||*-------------------|-------------------*||
C#||*-------------------|-------------------*||
G#||--------------------|--------------------||
D#||--------------------|--------------------||


   S  S  S  S  S S S S S S S S S S S S    S S S S S S S S S S E   E  E
---------------------------------------|--------------------------------|
---------------------------------------|--------------------------------|
---------------------------------------|--------------------------------|
---------------------------------------|--------------------------------|
---------------------------------------|--------------------------------|
--12-12-11-10-10-9-8-8-7-7-6-6-5-5-3-1-|--0-0-1-1-1-2-2-3-5-6-7--12--0--|


  S S  S S  S S S  S S S S  S Q       S  S  S S  S S S  S S  S S  S Q
-----------------------------------|-------------------------------------|
-----------------------------------|--3p-2p-0----------------------------|
------------------------------2----|----------2p-0-----------------------|
------------------------------2----|-----------------2p-0-----------2----|
---------2p-0--------2-2------0----|----------------------2p-0------2----|
--0-3h-4------0-3h-4-0-0-3h-4------|---------------------------3h-4-0----|


  S S  S S  S S S  S S S S  S Q       E.  S E  E  E  Q.
-----------------------------------|-------------------------|
-----------------------------------|--3----------------------|
------------------------------2----|--2---2-L----------------|
------------------------------2----|--0---2-L----------------|
---------2p-0--------2-2------0----|------0-L--2--L----------|
--0-3h-4------0-3h-4-0-0-3h-4------|-----------------3~------|


    S S  S S  S S S  S S S S  S Q       S  S  S S  S S S  S S  S S  S Q
|------------------------------------|-------------------------------------|
|------------------------------------|--3p-2p-0----------------------------|
|*------------------------------2----|----------2p-0-----------------------|
|*------------------------------2----|-----------------2p-0-----------2----|
|----------2p-0--------2-2------0----|----------------------2p-0------2----|
|---0-3h-4------0-3h-4-0-0-3h-4------|---------------------------3h-4-0----|


  S S  S S  S S S  S S S S  S Q       E.  S E  E  E  Q.
-----------------------------------|-------------------------|
-----------------------------------|--3----------------------|
------------------------------2----|--2---2-L----------------|
------------------------------2----|--0---2-L----------------|
---------2p-0--------2-2------0----|------0-L--2--L----------|
--0-3h-4------0-3h-4-0-0-3h-4------|-----------------3~------|


  T  T S S S S S E   S S S S S  E.     T  T S S S S S E   E  S S Q
------------------------------------|----------------------------------|
------------------------------------|----------------------------------|
------------------------------------|----------------------------------|
-------------------------5---5h-7---|--5h-7-L-x-5-L-x-5~--L--5---------|
--5h-7-L-x-5-L-x-7~--L-7---7--------|--------------------------4-7~----|
------------------------------------|----------------------------------|


  T  T S S S S S E   S S S S S  E.     T  T S S S S S E   E  S S Q
------------------------------------|-----------------------------------||
------------------------------------|------------------------8---5~-----||
------------------------------------|--------------------------6-------*||
-------------------------5---5h-7---|--5h-7-L-x-5-L-x-5~--L------------*||
--5h-7-L-x-5-L-x-7~--L-7---7--------|-----------------------------------||
------------------------------------|-----------------------------------||


  Chorus
  E.     S S S E  H           E.  S S S E  H           E.  S S S E  H
---------------------------|------------------------|----------------------|
---------------------------|--5---3-L---5--L--------|--7---5-L---7--L------|
--4------2-L---4--L--------|--5---3-L---5--L--------|--7---5-L---7--L------|
--5------3-L---5--L--------|--5---3-L---5--L--------|--7---5-L---7--L------|
--5------3-L---5--L--------|--3---1-L---3--L--------|--5---3-L---5--L------|
--3------1-L---3--L--------|------------------------|----------------------|


  E.  S E  E  E  E  S  S S  S    E  E  S E.  E  S S S S S  S
------------------------------|------------------------------|
------------------------------|------------------------------|
-------------------------7h-9-|------------------------------|
------4-L--5--L--6--7h-9------|------------------------------|
--5---------------------------|--7--7--x-7---7--x-7-L---5h-7-|
------------------------------|--0--0--x-0------------7------|


  E   E  S E.  E   S S S S S  S    E   E  S E.  S  E  S S S S  S
--------------------------------|--------------------------------|
--------------------------------|--------------------------------|
--------------------------------|--------------------------------|
---------------5b--L------------|---------------7b-L--5-L--------|
--7~--7--x-7---------7-L---5h-7-|--7~--7--x-7---------------5h-7-|
-------------------------7------|-------------------------7------|


                               Bridge
  Q     Q     E  E  S S S S    E      S S S S E  S S S S E  S S
----------------------------|-----------------------------------|
----------------------------|-----------------------------------|
----------------------------|-----------------------------------|
----------------------------|--9------x-7-L-x-9--x-x------------|
--7~----5~----4--2----0-----|--9------x-7-L-x-9--x-x-5-6-9--x-x-|
--------------------3---3-0-|--7------x-5-L-x-7--x-x-x-x-7--x-x-|


  E  S S S S E  S S S S E  S S    E  S S S S E  S S S S E  S S
-------------------------------|-------------------------------|
-------------------------------|-------------------------------|
-------------------------------|-------------------------------|
--7--x-5-L-x-7--x-x------------|--9--x-7-L-x-9--x-x------------|
--7--x-5-L-x-7--x-x-3-4-7--x-x-|--9--x-7-L-x-9--x-x-5-6-9--x-x-|
--5--x-3-L-x-5--x-x-x-x-5--x-x-|--7--x-5-L-x-7--x-x-x-x-7--x-x-|


  E  S S S S E  S S S S E  S S    E  S S S S E  S S S S E  S S
-------------------------------|-------------------------------|
-------------------------------|-------------------------------|
-------------------------------|-------------------------------|
--7--x-5-L-x-7--x-x------------|--9--x-7-L-x-9--x-x------------|
--7--x-5-L-x-7--x-x-3-4-7--x-x-|--9--x-7-L-x-9--x-x-5-6-9--x-x-|
--5--x-3-L-x-5--x-x-x-x-5--x-x-|--7--x-5-L-x-7--x-x-x-x-7--x-x-|


  E  S S S S E  S S S S E  S S    E  S S S S E  S S S S E  S S
-------------------------------|-------------------------------|
-------------------------------|-------------------------------|
-------------------------------|-------------------------------|
--7--x-5-L-x-7--x-x------------|--9--x-7-L-x-9--x-x------------|
--7--x-5-L-x-7--x-x-3-4-7--x-x-|--9--x-7-L-x-9--x-x-5-6-9--x-x-|
--5--x-3-L-x-5--x-x-x-x-5--x-x-|--7--x-5-L-x-7--x-x-x-x-7--x-x-|


                              Chorus
  E.  S E  E  E  E  S  E.     E.     S S S E  H
---------------------------|---------------------------|
---------------------------|---------------------------|
---------------------------|--4------2-L---4--L--------|
--7---5-L--7--L------------|--5------3-L---5--L--------|
--7---5-L--7--L--0--3p-0---|--5------3-L---5--L--------|
--5---3-L--5--L------------|--3------1-L---3--L--------|


  E.  S S S E  H           E.  S S S E  H
------------------------|------------------------|
--5---3-L---5--L--------|--7---5-L---7--L--------|
--5---3-L---5--L--------|--7---5-L---7--L--------|
--5---3-L---5--L--------|--7---5-L---7--L--------|
--3---1-L---3--L--------|--5---3-L---5--L--------|
------------------------|------------------------|


  E.  S E  E  E  E  S  S S  S    E  E  S E.  E  S S S S S  S
------------------------------|------------------------------|
------------------------------|------------------------------|
-------------------------7h-9-|------------------------------|
------4-L--5--L--6--7h-9------|------------------------------|
--5---------------------------|--7--7--x-7---7--x-7-L---5h-7-|
------------------------------|--0--0--x-0------------7------|


  E   E  S E.  E   S S S S S  S    E   E  S E.  S  E  S S S S  S
--------------------------------|--------------------------------|
--------------------------------|--------------------------------|
--------------------------------|--------------------------------|
---------------5b--L------------|---------------7b-L--5-L--------|
--7~--7--x-7---------7-L---5h-7-|--7~--7--x-7---------------5h-7-|
-------------------------7------|-------------------------7------|


  Q     Q     E  E  S S S S    E.  S S S E  S S E  S  S S S
----------------------------|-------------------------------|
----------------------------|-------------------------------|
----------------------------|-------------------4--2h-3-----|
----------------------------|------4-L---2--L---4--3----4-2-|
--7~----5~----4--2----0-----|----------4------4-2-----------|
--------------------3---3-0-|--2----------------------------|


  E.  S S S E  S S E  S  S S S    E.  S S S E  S S E  S  S S S
-------------------------------|-------------------------------|
-------------------------------|-------------------------------|
-------------------2--0h-1-----|-------------------4--2h-3-----|
------2-L---0--L---2--0----2-0-|------4-L---2--L---4--3----4-2-|
----------2------2-0-----------|----------4------4-2-----------|
--0----------------------------|--2----------------------------|


  E.  S S S E  S S E  S  S S S    E.  S S S E  S S E  S  S S S
-------------------------------|-------------------------------|
-------------------------------|-------------------------------|
-------------------2--0h-1-----|-------------------4--2h-3-----|
------2-L---0--L---2--0----2-0-|------4-L---2--L---4--3----4-2-|
----------2------2-0-----------|----------4------4-2-----------|
--0----------------------------|--2----------------------------|


  E.  S S S E  S S E  S  S S S    E.  S S S E  S S E  T  T E.
-------------------------------|-------------------------------|
-------------------------------|-------------------------------|
-------------------2--0h-1-----|-------------------4--2h-3-----|
------2-L---0--L---2--0----2-0-|------4-L---2--L---4-------4---|
----------2------2-0-----------|----------4------4-2-----------|
--0----------------------------|--2----------------------------|


  E.  S E  E  H           E.  S S S E  H           E.  S S S E  H
-----------------------|------------------------|------------------------|
-----------------------|------------------------|--5---3-L---5--L--------|
--9---7-L--9--L--------|--4---2-L---4--L--------|--5---3-L---5--L--------|
--9---7-L--9--L--------|--5---3-L---5--L--------|--5---3-L---5--L--------|
--7---5-L--7--L--------|--5---3-L---5--L--------|--3---1-L---3--L--------|
-----------------------|--3---1-L---3--L--------|------------------------|


  E.  S S S E  H           E.  S E  E  E  E  Q       W
------------------------|-------------------------|-------------------|
--7---5-L---7--L--------|--7---6-L--4--L--3--3----|-------------------|
--7---5-L---7--L--------|--7---6-L--4--L--2--0----|-------------------|
--7---5-L---7--L--------|--7---6-L--4--L--0--0----|-------------------|
--5---3-L---5--L--------|--5---4-L--2--L--0--x----|-------------------|
------------------------|--------------------3----|-------------------|


  S S  S S  S S S  S S S S  S Q       S  S  S S  S S S  S S  S S  S Q
-----------------------------------|-------------------------------------|
-----------------------------------|--3p-2p-0----------------------------|
------------------------------2----|----------2p-0-----------------------|
------------------------------2----|-----------------2p-0-----------2----|
---------2p-0--------2-2------0----|----------------------2p-0------2----|
--0-3h-4------0-3h-4-0-0-3h-4------|---------------------------3h-4-0----|


  S S  S S  S S S  S S S S  S Q       E.  S E  E  E  Q.
-----------------------------------|-------------------------|
-----------------------------------|--3----------------------|
------------------------------2----|--2---2-L----------------|
------------------------------2----|--0---2-L----------------|
---------2p-0--------2-2------0----|------0-L--2--L----------|
--0-3h-4------0-3h-4-0-0-3h-4------|-----------------3~------|


  T  T S S S S S E   S S S S S  E.     T  T S S S S S E   E  S S Q
------------------------------------|----------------------------------|
------------------------------------|----------------------------------|
------------------------------------|----------------------------------|
-------------------------5---5h-7---|--5h-7-L-x-5-L-x-5~--L--5---------|
--5h-7-L-x-5-L-x-7~--L-7---7--------|--------------------------4-7~----|
------------------------------------|----------------------------------|


  T  T S S S S S E   S S S S S  E.     T  T S S S S S E   E  S S Q
------------------------------------|----------------------------------|
------------------------------------|------------------------8---5~----|
------------------------------------|--------------------------6-------|
-------------------------5---5h-7---|--5h-7-L-x-5-L-x-5~--L------------|
--5h-7-L-x-5-L-x-7~--L-7---7--------|----------------------------------|
------------------------------------|----------------------------------|


  Bridge
  E      S S S S E  S S S S E  S S    E  S S S S E  S S S S E  S S
-----------------------------------|-------------------------------|
-----------------------------------|-------------------------------|
-----------------------------------|-------------------------------|
--9------x-7-L-x-9--x-x------------|--7--x-5-L-x-7--x-x------------|
--9------x-7-L-x-9--x-x-5-6-9--x-x-|--7--x-5-L-x-7--x-x-3-4-7--x-x-|
--7------x-5-L-x-7--x-x-x-x-7--x-x-|--5--x-3-L-x-5--x-x-x-x-5--x-x-|


  E  S S S S E  S S S S E  S S    E  S S S S E  S S S S E  S S
-------------------------------|-------------------------------|
-------------------------------|-------------------------------|
-------------------------------|-------------------------------|
--9--x-7-L-x-9--x-x------------|--7--x-5-L-x-7--x-x------------|
--9--x-7-L-x-9--x-x-5-6-9--x-x-|--7--x-5-L-x-7--x-x-3-4-7--x-x-|
--7--x-5-L-x-7--x-x-x-x-7--x-x-|--5--x-3-L-x-5--x-x-x-x-5--x-x-|


  E  S S S S E  S S S S E  S S    E  S S S S E  S S S S E  S S
-------------------------------|-------------------------------|
-------------------------------|-------------------------------|
-------------------------------|-------------------------------|
--9--x-7-L-x-9--x-x------------|--7--x-5-L-x-7--x-x------------|
--9--x-7-L-x-9--x-x-5-6-9--x-x-|--7--x-5-L-x-7--x-x-3-4-7--x-x-|
--7--x-5-L-x-7--x-x-x-x-7--x-x-|--5--x-3-L-x-5--x-x-x-x-5--x-x-|


  E  S S S S E  S S S S E  S S    E.  S E  E  E  E  S  E.
-------------------------------|---------------------------|
-------------------------------|---------------------------|
-------------------------------|---------------------------|
--9--x-7-L-x-9--x-x------------|--7---5-L--7--L------------|
--9--x-7-L-x-9--x-x-5-6-9--x-x-|--7---5-L--7--L--0--3p-0---|
--7--x-5-L-x-7--x-x-x-x-7--x-x-|--5---3-L--5--L------------|


  Chorus
  E.     S S S E  H           E.  S S S E  H           E.  S S S E  H
---------------------------|------------------------|----------------------|
---------------------------|--5---3-L---5--L--------|--7---5-L---7--L------|
--4------2-L---4--L--------|--5---3-L---5--L--------|--7---5-L---7--L------|
--5------3-L---5--L--------|--5---3-L---5--L--------|--7---5-L---7--L------|
--5------3-L---5--L--------|--3---1-L---3--L--------|--5---3-L---5--L------|
--3------1-L---3--L--------|------------------------|----------------------|


  E.  S E  E  E  E  S  S S  S    E  E  S E.  E  S S S S S  S
------------------------------|------------------------------|
------------------------------|------------------------------|
-------------------------7h-9-|------------------------------|
------4-L--5--L--6--7h-9------|------------------------------|
--5---------------------------|--7--7--x-7---7--x-7-L---5h-7-|
------------------------------|--0--0--x-0------------7------|


  E   E  S E.  E   S S S S S  S    E   E  S E.  S  E  S S S S  S
--------------------------------|--------------------------------|
--------------------------------|--------------------------------|
--------------------------------|--------------------------------|
---------------5b--L------------|---------------7b-L--5-L--------|
--7~--7--x-7---------7-L---5h-7-|--7~--7--x-7---------------5h-7-|
-------------------------7------|-------------------------7------|


  Q     Q     E  E  S S S S    S S  S S  S S S  S S S S  S Q
----------------------------|-----------------------------------|
----------------------------|-----------------------------------|
----------------------------|------------------------------2----|
----------------------------|------------------------------2----|
--7~----5~----4--2----0-----|---------2p-0--------2-2------0----|
--------------------3---3-0-|--0-3h-4------0-3h-4-0-0-3h-4------|


  S  S  S S  S S S  S S  S S  S Q       S S  S S  S S S  S S S S  S Q
-------------------------------------|-----------------------------------|
--3p-2p-0----------------------------|-----------------------------------|
----------2p-0-----------------------|------------------------------2----|
-----------------2p-0-----------2----|------------------------------2----|
----------------------2p-0------2----|---------2p-0--------2-2------0----|
---------------------------3h-4-0----|--0-3h-4------0-3h-4-0-0-3h-4------|


  E.  S E  E  E  Q.         S S S S S S S S S S S S S S S S
-------------------------|----------------------------------|
--3----------------------|----------------------------------|
--2---2-L----------------|--------4---------------4---------|
--0---2-L----------------|----5-6---7---5-6---5-6---7---5-6-|
------0-L--2--L----------|--7---------7-----7---------7-----|
-----------------3~------|----------------------------------|


  S S S S S S S S E  S S Q       S  S  S S  S S S  S S  S  S S  S S S  S
------------------------------|------------------------------------------|
------------------------------|--3p-2p-0-------------3p-2p-0-------------|
--------4---------------------|----------2~-L-0--------------2~-L-0------|
----5-6---7---5-6----5-6-7----|-----------------2p-0----------------2p-0-|
--7---------7-----7-----------|------------------------------------------|
------------------------------|------------------------------------------|


  S  S  S S  S S S  S S  S S  S Q       W                   W
-------------------------------------|-------------------|-----------------|
--3p-2p-0----------------------------|-------------------|-----------------|
----------2~-L-0---------------------|-------------------|-----------------|
-----------------2p-0-----------2----|--L----------------|--L--------------|
----------------------2p-0------2----|--L----------------|--L--------------|
---------------------------3b-L-0----|--L----------------|--L--------------|


  W
-------------------||
-------------------||
-------------------||
--L----------------||
--L----------------||
--L----------------||


Guitar 2
Wah Rocking =>"+"=Treble,"0"=bass



       + + 0 0 0 0 0 0 + + 0   0   0 0    + + 0 0 0 0 0 0 + + 0   0   0 0
       S S S S S S S S S S S S S S S S    S S S S S S S S S S S S S S S S
D#||-----------------------------------|------------------------------------|
A#||-----------------------------------|------------------------------------|
F#||*----------------------------------|------------------------------------|
C#||*--x-x-x-x-x-x-x-x-x-x-x---x---x-x-|--x-x-x-x-x-x-x-x-x-x-x---x---x-x---|
G#||---x-x-x-x-x-x-x-x-x-x-x---x---x-x-|--x-x-x-x-x-x-x-x-x-x-x---x---x-x---|
D#||---x-x-x-x-x-x-x-x-x-x-x---x---x-x-|--x-x-x-x-x-x-x-x-x-x-x---x---x-x---|

  + + 0 0 0 0 0 0 + + 0   0   0 0    + + 0 0 0 0 0 0 + + 0   0   0 0
  S S S S S S S S S S S S S S S S    S S S S S S S S S S S S S S S S
----------------------------------|----------------------------------|
----------------------------------|----------------------------------|
----------------------------------|----------------------------------|
--x-x-x-x-x-x-x-x-x-x-x---x---x-x-|--x-x-x-x-x-x-x-x-x-x-x---x---x-x-|
--x-x-x-x-x-x-x-x-x-x-x---x---x-x-|--x-x-x-x-x-x-x-x-x-x-x---x---x-x-|
--x-x-x-x-x-x-x-x-x-x-x---x---x-x-|--x-x-x-x-x-x-x-x-x-x-x---x---x-x-|


  W                   W                   W                   W
-------------------|-------------------|-------------------|---------------|
-------------------|-------------------|-------------------|---------------|
-------------------|-------------------|-------------------|---------------|
-------------------|-------------------|-------------------|---------------|
-------------------|-------------------|-------------------|---------------|
-------------------|-------------------|-------------------|---------------|


    x=PM
    S    S S S  S S S S S S S S Q       E.  S E  E  E  S  S S S E
|------------------------------------|--------------------------0--|
|------------------------------------|--------------------------0--|
|*------------------------------2----|--7---6-L--4--L--------------|
|*-----------x------------------2----|--7---6-L--4--L--------------|
|---x----x-x-2p-0-x-x-x-x---x-x-0----|--5---4-L--2--L-------x------|
|---0----3-4------0-3-4-0---3-4------|-----------------3b-L-0------|


  x=PM
  S    S S S  S S S S S S S S Q       E.  S E  E  E  S  S S E   S
-----------------------------------|------------------------------|
-----------------------------------|------------------------------|
------------------------------2----|--7---6-L--4--L---------------|
-----------x------------------2----|--7---6-L--4--L-------2-------|
--x----x-x-2p-0-x-x-x-x---x-x-0----|--5---4-L--2--L---------5b--L-|
--0----3-4------0-3-4-0---3-4------|-----------------3b-L---------|


  T  T S S S S S E   S S S S S  E.     T  T S S S S S E   E  S S Q
------------------------------------|----------------------------------|
------------------------------------|----------------------------------|
------------------------------------|----------------------------------|
-------------------------5---5h-7---|--5h-7-L-x-5-L-x-5~--L--5---------|
--5h-7-L-x-5-L-x-7~--L-7---7--------|--------------------------4-7~----|
------------------------------------|----------------------------------|


  T  T S S S S S E   S S S S S  E.     T  T S S S S S E   E  S S Q
------------------------------------|-----------------------------------||
------------------------------------|------------------------8---5~-----||
------------------------------------|--------------------------6-------*||
-------------------------5---5h-7---|--5h-7-L-x-5-L-x-5~--L------------*||
--5h-7-L-x-5-L-x-7~--L-7---7--------|-----------------------------------||
------------------------------------|-----------------------------------||


  E.  S S S E  H           E.  S S S E  H           E.  S S S E  H
------------------------|------------------------|------------------------|
------------------------|------------------------|------------------------|
------------------------|------------------------|------------------------|
------------------------|--5---3-L---5--L--------|--7---5-L---7--L--------|
--5---3-L---5--L--------|--3---1-L---3--L--------|--5---3-L---5--L--------|
--3---1-L---3--L--------|------------------------|------------------------|


  E.  S E  E  E  E  S  S S  S    E  E  S E.  E  S S S S S  S
------------------------------|------------------------------|
------------------------------|------------------------------|
-------------------------7h-9-|------------------------------|
------4-L--5--L--6--7h-9------|------------------------------|
--5---------------------------|--7--7--x-7---7--x-7-L---5h-7-|
------------------------------|--0--0--x-0------------7------|


  E   E  S E.  E   S S S S S  S    E   E  S E.  S  E  S S S S  S
--------------------------------|--------------------------------|
--------------------------------|--------------------------------|
--------------------------------|--------------------------------|
---------------5b--L------------|---------------7b-L--5-L--------|
--7~--7--x-7---------7-L---5h-7-|--7~--7--x-7---------------5h-7-|
-------------------------7------|-------------------------7------|


                               Bridge
  Q     Q     E  E  S S S S    E      S S S S E  S S S S E  S S
----------------------------|-----------------------------------|
----------------------------|-----------------------------------|
----------------------------|-----------------------------------|
----------------------------|--9------x-7-L-x-9--x-x------------|
--7~----5~----4--2----0-----|--9------x-7-L-x-9--x-x-5-6-9--x-x-|
--------------------3---3-0-|--7------x-5-L-x-7--x-x-x-x-7--x-x-|


  E  S S S S E  S S S S E  S S    E  S S S S E  S S S S E  S S
-------------------------------|-------------------------------|
-------------------------------|-------------------------------|
-------------------------------|-------------------------------|
--7--x-5-L-x-7--x-x------------|--9--x-7-L-x-9--x-x------------|
--7--x-5-L-x-7--x-x-3-4-7--x-x-|--9--x-7-L-x-9--x-x-5-6-9--x-x-|
--5--x-3-L-x-5--x-x-x-x-5--x-x-|--7--x-5-L-x-7--x-x-x-x-7--x-x-|


  E  S S S S E  S S S S E  S S    E  S S S S E  S S S S E  S S
-------------------------------|-------------------------------|
-------------------------------|-------------------------------|
-------------------------------|-------------------------------|
--7--x-5-L-x-7--x-x------------|--9--x-7-L-x-9--x-x------------|
--7--x-5-L-x-7--x-x-3-4-7--x-x-|--9--x-7-L-x-9--x-x-5-6-9--x-x-|
--5--x-3-L-x-5--x-x-x-x-5--x-x-|--7--x-5-L-x-7--x-x-x-x-7--x-x-|


  E  S S S S E  S S S S E  S S    E  S S S S E  S S S S E  S S
-------------------------------|-------------------------------|
-------------------------------|-------------------------------|
-------------------------------|-------------------------------|
--7--x-5-L-x-7--x-x------------|--9--x-7-L-x-9--x-x------------|
--7--x-5-L-x-7--x-x-3-4-7--x-x-|--9--x-7-L-x-9--x-x-5-6-9--x-x-|
--5--x-3-L-x-5--x-x-x-x-5--x-x-|--7--x-5-L-x-7--x-x-x-x-7--x-x-|


  E.  S E  E  E  E  S  E.     E.  S S S E  H           E.  S S S E  H
---------------------------|------------------------|-----------------------|
---------------------------|------------------------|-----------------------|
---------------------------|------------------------|-----------------------|
--7---5-L--7--L------------|------------------------|--5---3-L---5--L-------|
--7---5-L--7--L--0--3p-0---|--5---3-L---5--L--------|--3---1-L---3--L-------|
--5---3-L--5--L------------|--3---1-L---3--L--------|-----------------------|


  E.  S S S E  H           E.  S E  E  E  E  S  S S  S
------------------------|------------------------------|
------------------------|------------------------------|
------------------------|-------------------------7h-9-|
--7---5-L---7--L--------|------4-L--5--L--6--7h-9------|
--5---3-L---5--L--------|--5---------------------------|
------------------------|------------------------------|


  E  E  S E.  E  S S S S S  S    E   E  S E.  E   S S S S S  S
------------------------------|--------------------------------|
------------------------------|--------------------------------|
------------------------------|--------------------------------|
------------------------------|---------------5b--L------------|
--7--7--x-7---7--x-7-L---5h-7-|--7~--7--x-7---------7-L---5h-7-|
--0--0--x-0------------7------|-------------------------7------|


  E   E  S E.  S  E  S S S S  S    Q     Q     E  E  S S S S
--------------------------------|----------------------------|
--------------------------------|----------------------------|
--------------------------------|----------------------------|
---------------7b-L--5-L--------|----------------------------|
--7~--7--x-7---------------5h-7-|--7~----5~----4--2----0-----|
-------------------------7------|--------------------3---3-0-|


  E.  S S S E  S S E  S  S S S    E.  S S S E  S S E  S  S S S
-------------------------------|-------------------------------|
-------------------------------|-------------------------------|
-------------------4--2h-3-----|-------------------2--0h-1-----|
------4-L---2--L---4--3----4-2-|------2-L---0--L---2--0----2-0-|
----------4------4-2-----------|----------2------2-0-----------|
--2----------------------------|--0----------------------------|


  E.  S S S E  S S E  S  S S S    E.  S S S E  S S E  S  S S S
-------------------------------|-------------------------------|
-------------------------------|-------------------------------|
-------------------4--2h-3-----|-------------------2--0h-1-----|
------4-L---2--L---4--3----4-2-|------2-L---0--L---2--0----2-0-|
----------4------4-2-----------|----------2------2-0-----------|
--2----------------------------|--0----------------------------|


  E.  S S S E  S S E  S  S S S    E.  S S S E  S S E  S  S S S
-------------------------------|-------------------------------|
-------------------------------|-------------------------------|
-------------------4--2h-3-----|-------------------2--0h-1-----|
------4-L---2--L---4--3----4-2-|------2-L---0--L---2--0----2-0-|
----------4------4-2-----------|----------2------2-0-----------|
--2----------------------------|--0----------------------------|


  E.  S S S E  S S E  T  T E.     E.  S E  E  H
-------------------------------|-----------------------|
-------------------------------|-----------------------|
-------------------4--2h-3-----|--9---7-L--9--L--------|
------4-L---2--L---4-------4---|--9---7-L--9--L--------|
----------4------4-2-----------|--7---5-L--7--L--------|
--2----------------------------|-----------------------|


  E.  S S S E  H           E.  S S S E  H           E.  S S S E  H
------------------------|------------------------|------------------------|
------------------------|--5---3-L---5--L--------|--7---5-L---7--L--------|
--4---2-L---4--L--------|--5---3-L---5--L--------|--7---5-L---7--L--------|
--5---3-L---5--L--------|--5---3-L---5--L--------|--7---5-L---7--L--------|
--5---3-L---5--L--------|--3---1-L---3--L--------|--5---3-L---5--L--------|
--3---1-L---3--L--------|------------------------|------------------------|


                            + 0 0 +   0   0 + + 0 0
  E.  S E  E  E  E  Q       S S S S S S S S S S S S Q
-------------------------|-------------------------------|
--7---6-L--4--L--3--3----|-------------------------------|
--7---6-L--4--L--2--0----|-------------------------------|
--7---6-L--4--L--0--0----|--x-x-x-x---x-----x-x-x--------|
--5---4-L--2--L--0--x----|--x-x-x-x---x---x-x-x-x---5----|
--------------------3----|--x-x-x-x---x---x-x-x-x---3----|


  x=PM
  S    S S S  S S S S S S S S Q       E.  S E  E  E  S  S S S E
-----------------------------------|--------------------------0--|
-----------------------------------|--------------------------0--|
------------------------------2----|--7---6-L--4--L--------------|
-----------x------------------2----|--7---6-L--4--L--------------|
--x----x-x-2p-0-x-x-x-x---x-x-0----|--5---4-L--2--L-------x------|
--0----3-4------0-3-4-0---3-4------|-----------------3b-L-0------|


  x=PM
  S    S S S  S S S S S S S S Q       E.  S E  E  E  S  S S E   S
-----------------------------------|------------------------------|
-----------------------------------|------------------------------|
------------------------------2----|--7---6-L--4--L---------------|
-----------x------------------2----|--7---6-L--4--L-------2-------|
--x----x-x-2p-0-x-x-x-x---x-x-0----|--5---4-L--2--L---------5b--L-|
--0----3-4------0-3-4-0---3-4------|-----------------3b-L---------|


  T  T S S S S S E   S S S S S  E.     T  T S S S S S E   E  S S Q
------------------------------------|----------------------------------|
------------------------------------|----------------------------------|
------------------------------------|----------------------------------|
-------------------------5---5h-7---|--5h-7-L-x-5-L-x-5~--L--5---------|
--5h-7-L-x-5-L-x-7~--L-7---7--------|--------------------------4-7~----|
------------------------------------|----------------------------------|


  T  T S S S S S E   S S S S S  E.     T  T S S S S S E   E  S S Q
------------------------------------|----------------------------------|
------------------------------------|------------------------8---5~----|
------------------------------------|--------------------------6-------|
-------------------------5---5h-7---|--5h-7-L-x-5-L-x-5~--L------------|
--5h-7-L-x-5-L-x-7~--L-7---7--------|----------------------------------|
------------------------------------|----------------------------------|


  Bridge
  E      S S S S E  S S S S E  S S    E  S S S S E  S S S S E  S S
-----------------------------------|-------------------------------|
-----------------------------------|-------------------------------|
-----------------------------------|-------------------------------|
--9------x-7-L-x-9--x-x------------|--7--x-5-L-x-7--x-x------------|
--9------x-7-L-x-9--x-x-5-6-9--x-x-|--7--x-5-L-x-7--x-x-3-4-7--x-x-|
--7------x-5-L-x-7--x-x-x-x-7--x-x-|--5--x-3-L-x-5--x-x-x-x-5--x-x-|


  E  S S S S E  S S S S E  S S    E  S S S S E  S S S S E  S S
-------------------------------|-------------------------------|
-------------------------------|-------------------------------|
-------------------------------|-------------------------------|
--9--x-7-L-x-9--x-x------------|--7--x-5-L-x-7--x-x------------|
--9--x-7-L-x-9--x-x-5-6-9--x-x-|--7--x-5-L-x-7--x-x-3-4-7--x-x-|
--7--x-5-L-x-7--x-x-x-x-7--x-x-|--5--x-3-L-x-5--x-x-x-x-5--x-x-|


  E  S S S S E  S S S S E  S S    E  S S S S E  S S S S E  S S
-------------------------------|-------------------------------|
-------------------------------|-------------------------------|
-------------------------------|-------------------------------|
--9--x-7-L-x-9--x-x------------|--7--x-5-L-x-7--x-x------------|
--9--x-7-L-x-9--x-x-5-6-9--x-x-|--7--x-5-L-x-7--x-x-3-4-7--x-x-|
--7--x-5-L-x-7--x-x-x-x-7--x-x-|--5--x-3-L-x-5--x-x-x-x-5--x-x-|


  E  S S S S E  S S S S E  S S    E.  S E  E  E  E  S  E.
-------------------------------|---------------------------|
-------------------------------|---------------------------|
-------------------------------|---------------------------|
--9--x-7-L-x-9--x-x------------|--7---5-L--7--L------------|
--9--x-7-L-x-9--x-x-5-6-9--x-x-|--7---5-L--7--L--0--3p-0---|
--7--x-5-L-x-7--x-x-x-x-7--x-x-|--5---3-L--5--L------------|


  E.  S S S E  H           E.  S S S E  H           E.  S S S E  H
------------------------|------------------------|------------------------|
------------------------|------------------------|------------------------|
------------------------|------------------------|------------------------|
------------------------|--5---3-L---5--L--------|--7---5-L---7--L--------|
--5---3-L---5--L--------|--3---1-L---3--L--------|--5---3-L---5--L--------|
--3---1-L---3--L--------|------------------------|------------------------|


  E.  S E  E  E  E  S  S S  S    E  E  S E.  E  S S S S S  S
------------------------------|------------------------------|
------------------------------|------------------------------|
-------------------------7h-9-|------------------------------|
------4-L--5--L--6--7h-9------|------------------------------|
--5---------------------------|--7--7--x-7---7--x-7-L---5h-7-|
------------------------------|--0--0--x-0------------7------|


  E   E  S E.  E   S S S S S  S    E   E  S E.  S  E  S S S S  S
--------------------------------|--------------------------------|
--------------------------------|--------------------------------|
--------------------------------|--------------------------------|
---------------5b--L------------|---------------7b-L--5-L--------|
--7~--7--x-7---------7-L---5h-7-|--7~--7--x-7---------------5h-7-|
-------------------------7------|-------------------------7------|


                               x=PM
  Q     Q     E  E  S S S S    S    S S S  S S S S S S S S Q
----------------------------|-----------------------------------|
----------------------------|-----------------------------------|
----------------------------|------------------------------2----|
----------------------------|-----------x------------------2----|
--7~----5~----4--2----0-----|--x----x-x-2p-0-x-x-x-x---x-x-0----|
--------------------3---3-0-|--0----3-4------0-3-4-0---3-4------|


                                x=PM
  E.  S E  E  E  S  S S S E     S    S S S  S S S S S S S S Q
--------------------------0--|-----------------------------------|
--------------------------0--|-----------------------------------|
--7---6-L--4--L--------------|------------------------------2----|
--7---6-L--4--L--------------|-----------x------------------2----|
--5---4-L--2--L-------x------|--x----x-x-2p-0-x-x-x-x---x-x-0----|
-----------------3b-L-0------|--0----3-4------0-3-4-0---3-4------|


                                 All PM
  E.  S E  E  E  S  S S E   S    S      S S S S S S S S S S S S S S S
------------------------------|---------------------------------------|
------------------------------|---------------------------------------|
--7---6-L--4--L---------------|---------------------------------------|
--7---6-L--4--L-------2-------|---------------------------------------|
--5---4-L--2--L---------5b--L-|-------------2-0-------------2-0-------|
-----------------3b-L---------|--0------3-4-----0-3-4-0-3-4-----0-3-4-|


  All PM
  S      S S S S S S S E  S S Q       S  S  S S  S S S  S S  S  S S  S S S  S
---------------------------------|------------------------------------------|
---------------------------------|--3p-2p-0-------------3p-2p-0-------------|
----------------------------2----|----------2~-L-0--------------2~-L-0------|
----------------------------2----|-----------------2p-0----------------2p-0-|
-----------2-0--------------0----|------------------------------------------|
0------3-4-----0-3-4-0--3-4------|------------------------------------------|


  S  S  S S  S S S  S S  S S  S Q       W                   W
-------------------------------------|-------------------|-----------------|
--3p-2p-0----------------------------|-------------------|-----------------|
----------2~-L-0---------------------|-------------------|-----------------|
-----------------2p-0-----------2----|--L----------------|--L--------------|
----------------------2p-0------2----|--L----------------|--L--------------|
---------------------------3b-L-0----|--L----------------|--L--------------|


  W
-------------------||
-------------------||
-------------------||
--L----------------||
--L----------------||
--L----------------||

   Solo With Wah and Echo
   E                     S  S S S  E    E   S  S  S  E.
--14------------------------------------------------------|
--17b----------------------17---x-16br--L--14----14-------|
----------------------------------------------16----16~---|
----------------------------------------------------------|
----------------------------------------------------------|
----------------------------------------------------------|


   S  E   X.  X  X. S  E   X.  X  X. S  E   X.  X  X. E    S  S
----------------------------------------------------------------|
----------------------------------------------------------------|
--16-16--16br-L-14-16-16--16br-L-14-16-16--16br-L-14-14~--------|
----------------------------------------------------------14-12-|
----------------------------------------------------------------|
----------------------------------------------------------------|


                 Pre-Bend
   E   S  S S S  E       E   S  S  S   T   T  S  S
---------------------------------------------------|
--17b----17---x-16br-----L--14----14h-17p-14----14-|
-------------------------------17------------17----|
---------------------------------------------------|
---------------------------------------------------|
---------------------------------------------------|


                                                Bend 2 tones from 14, don't repi
          |---3---|
   S   S  S   S   S  S  T   T  S  S  S  S  E    Q
----------------------------------------------------------------------------|
------14--------------------------------------------------------------------|
--16b----17p-16p-14-16-16br-L-14----14----14b--16b--------------------------|
---------------------------------16----16-----------------------------------|
----------------------------------------------------------------------------|
----------------------------------------------------------------------------|


                       |---3---|
  Q.      E    E   E   E   E   E
--------------------------14--16--|
---------22br--L--22~--L----------|
--L-------------------------------|
----------------------------------|
----------------------------------|
----------------------------------|


                           |--3--|   |---3--|   |---3--|        |---3---|  |---3
   S  S   X.  X   X. T  T  S  S  S   S   S  S   S  S   S  S  S  S   S   S  S   S
17-16h-17p-16p-14----14-14-------------------14--------------14h-17p-14----|
------------------17-------17-14h-17p-14--------17p-14---------------------|
-----------------------------------------16b-----------16b-L------------16-|br-L
---------------------------------------------------------------------------|
---------------------------------------------------------------------------|
---------------------------------------------------------------------------|


   S  S  S   S  S  S  S  S  S  S  S  S  S   S  S  S
-----------------------------------------------------|
-----14-----14----------------14----14---------------|
--16----16b----14----14-16b-L----16----14b----14-16b-|
------------------16-----------------------16--------|
-----------------------------------------------------|
-----------------------------------------------------|


  S  S  S  S  S   S  S  S  Q     Q
--------------------------------------|
----14-------17br-L-14-17~-L----17----|
--L----16-14--------------------------|
--------------------------------------|
--------------------------------------|
--------------------------------------|


                    |--3--|
  S  S S S S  S S S S   S S S S S  S S S
-------3------3----------------------3-3-|
-----3---3-6b---6-3----------------3-----|
--5b----------------5br-L-3-5-3-5b-------|
-----------------------------------------|
-----------------------------------------|
-----------------------------------------|


                        |--3--|
   S  S S S  S  S  S S  S   S S  S S  S S E
--------8-------8-11----------------------8--|
------8---8-11b------8------------------8----|
--10b------------------10br-L-8-10-8h-9------|
---------------------------------------------|
---------------------------------------------|
---------------------------------------------|


                   pre-bend
                   |-----3----|
   S   S  S  S  S  S       S  S  S  S  S  S  S  Q
------10-13------------------------------------------|
--13b-------10---------------------------------------|
---------------12-12br-----L-10----12----10-10~-L----|
--------------------------------12----12-------------|
-----------------------------------------------------|
-----------------------------------------------------|


   E.    S  E   E   E   E   Q        H        Q     Q       W
--10-----9--L---7---L------15-----|----------------------|------------------|
--13b---12b-L--10b--L--15--18b----|----------------------|------------------|
----------------------------------|----------------------|------------------|
----------------------------------|----------------------|------------------|
----------------------------------|----------------------|------------------|
----------------------------------|----------------12----|------------------|
comments
print report bad tab
I want to post or [tab]
guest
You may want to rate the tab now too:
select rating
Please do not post tabs as comments. Select "correction" instead!