Oops, an error
Loading. Please wait.

My Michelle Tab

ver4
ver4

Intro

Interactive

More versions @911Tabs.com
4,907 views 1 this week
2 commentsread comments
1 2 3 4 5
accurate
x 2
Autoscroll
+/-
esc
set tempo
stop
Contributor
Difficulty
intermediate
Hey! There's an official Ultimate Guitar app which is ideal
for learning songs when you're away from computer. Get the app
WARNING: You are trying to view
                                    content from Ultimate-Guitar.com
                                    in an unauthorized application,
                                    which is prohibited.

                                    Please use an official Ultimate
                                    Guitar Tabs application for iPhone,
                                    iPad or Android to access legitimate
                                    chords, guitar, bass, and drum tabs
                                    from Ultimate-Guitar.com database.

                                    Type "ultimate guitar tabs" in Apple
                                    App Store's or Android Market's
                                    search to find the application.
                                  My Michelle                                   


                                                                   Guns N' Roses
Guitar 1 (Slash)
-



      tempo 72  
      Q         
D#||-----------|
A#||-----------|
F#||-----------|
C#||-----------|
G#||-----------|
D#||-----------|


  Let ring (w/clean tone and flanger)                                        
  A/C#                                              Amsus2/c       B7        
  S                                   S S S S S S S S        S S S S  S S S  
----------------------------------------------------------------------------|
------------------------------------------2----------------------0--------0-|
----------------------------------------2---2------------------2--------2---|
--------------------------------------2-------2---2----------2--------4-----|
--4---------------------------------------------4---3--------------2--------|
----------------------------------------------------------------------------|


  F#m                                
  S   S S S S S S S S S S S S S S S  
------------------------------------|
------------------------------------|
----------2---------------2---------|
--------4---4-----------4---4-------|
------4-------4---4---4-------4---4-|
--2-------------2---2-----------2---|


  A/C#               Amsus2/c       B7        
  S    S S S S S S S S        S S S S  S S S  
---------------------------------------------|
-----------2----------------------0--------0-|
---------2---2------------------2--------2---|
-------2-------2---2----------2--------4-----|
--4--------------4---3--------------2--------|
---------------------------------------------|


  F#m                                
  S   S S S S S S S S S S S S S S S  
------------------------------------|
------------------------------------|
----------2---------------2---------|
--------4---4-----------4---4-------|
------4-------4---4---4-------4---4-|
--2-------------2---2-----------2---|


  A/C#               Amsus2/c       B7        
  S    S S S S S S S S        S S S S  S S S  
---------------------------------------------|
-----------2----------------------0--------0-|
---------2---2------------------2--------2---|
-------2-------2---2----------2--------4-----|
--4--------------4---3--------------2--------|
---------------------------------------------|


  F#m                                
  S   S S S S S S S S S S S S S S S  
------------------------------------|
------------------------------------|
----------2---------------2---------|
--------4---4-----------4---4-------|
------4-------4---4---4-------4---4-|
--2-------------2---2-----------2---|


  A/C#               Amsus2/c       B7          F#m                    
  S    S S S S S S S S        S S S S  S S S    S   E.  H        Q     
---------------------------------------------|------------------------|
-----------2----------------------0--------0-|------2---L-------------|
---------2---2------------------2--------2---|------2---L-------------|
-------2-------2---2----------2--------4-----|------4---L-------------|
--4--------------4---3--------------2--------|------4---L-------------|
---------------------------------------------|--2---L-----------------|


    distortion                                                           
    C#              C     B           F#5          A      E5             
    Q.           E  Q     S S  S S    E   E  S S S S  S S S  S E  S S    
|----------------------------------|-----------------------------------||
|----------------------------------|-----------------------------------||
|*---------------------------------|----------------------------------*||
|*---------------------------------|----------------------------------*||
|---4----------xg4--3~----2-3p-2-0-|-----------------------------------||
|----------------------------------|--2---2--2-0-2-5~-L-5-0--1-2--0-2--||


  C#          C     B           F#5          A      E5           
  Q.       E  Q     S S  S S    E   E  S S S S  S S S  S E  S S  
-----------------------------|----------------------------------|
-----------------------------|----------------------------------|
-----------------------------|----------------------------------|
-----------------------------|----------------------------------|
--4------xg4--3~----2-3p-2-0-|----------------------------------|
-----------------------------|--2---2--2-0-2-5~-L-5-0--1-2--0-2-|


  C#          C     B           F#5                  
  Q.       E  Q     S S  S S    H          H         
-----------------------------|----------------------|
-----------------------------|----------------------|
-----------------------------|----------------------|
-----------------------------|----------------------|
--4------xg4--3~----2-3p-2-0-|----------------------|
-----------------------------|--2br--------L--------|


  C#             C       B    A  
  S  S E  E  S S S S S S E  S S  
--------------------------------|
--6--6-------6-6-5-5---x-4--x-2-|
--6--6-------6-6-5-5---x-4--x-2-|
--6--6-------6-6-5-5---x-4--x-2-|
--4--4-------4-4-3-3---x-2--x---|
--------------------------------|


  P.M. - - - - - - - - -                            
  F#5                             A     E5 F#5      
  E                      E  S S S S S S E  E   S S  
---------------------------------------------------|
----------------------------------2-L--------------|
----------------------------------2-L--------------|
--4----------------------4--4-2-4-2-L-x-2--4-------|
--4----------------------4--4-2-4-----x-2--4---x-x-|
--------------------------------------x-0--2---x-x-|


                                             slide up        long slide
  C#             C       B        C#                                   
  S  S E  E  S S S S S S E.  S    E  E  E  S S        Q      Q         
-------------------------------|--------------------------------------|
--6--6-------6-6-5-5---x-4---4-|--------------------------------------|
--6--6-------6-6-5-5---x-4---4-|--------------------------------------|
--6--6-------6-6-5-5---x-4---4-|--------------------------------------|
--4--4-------4-4-3-3---x-2---2-|--4--4--4--5-4--------L---------------|
-------------------------------|---------------------------(19)S------|


  C#             C       B    A  
  S  S E  E  S S S S S S E  S S  
--------------------------------|
--6--6-------6-6-5-5---x-4--x-2-|
--6--6-------6-6-5-5---x-4--x-2-|
--6--6-------6-6-5-5---x-4--x-2-|
--4--4-------4-4-3-3---x-2--x---|
--------------------------------|


  P.M. - - - - - - - - -                            
  F#5                             A     E5 F#5      
  E                      E  S S S S S S E  E   S S  
---------------------------------------------------|
----------------------------------2-L--------------|
----------------------------------2-L--------------|
--4----------------------4--4-2-4-2-L-x-2--4-------|
--4----------------------4--4-2-4-----x-2--4---x-x-|
--------------------------------------x-0--2---x-x-|


  C#             C       B        A5 F#5    E5 F#5           
  S  S E  E  S S S S S S E.  S    E  E   E  S  S   H         
-------------------------------|----------------------------|
--6--6-------6-6-5-5---x-4---4-|----------------------------|
--6--6-------6-6-5-5---x-4---4-|--2-------------------------|
--6--6-------6-6-5-5---x-4---4-|--2--4---4--2--4---L--------|
--4--4-------4-4-3-3---x-2---2-|--0--4---4--2--4---L--------|
-------------------------------|-----2---2--0--2---L--------|


  D5       E5     B5                        C#5      E5     A5  
  H        Q.     E     W                   H        Q.     E   
---------------------|-------------------|---------------------|
---------------------|-------------------|---------------------|
--7--------9---------|-------------------|--6--------9---------|
--7--------9------9--|--L----------------|--6--------9------7--|
--5--------7------9--|--L----------------|--4--------7------7--|
------------------7--|--L----------------|------------------5--|


                        D5         C#5           B5         A5   G# A5  
  H.           E  E     Q    E  E  Q    E  E     Q    E  E  Q    E  E   
---------------------|------------------------|------------------------|
---------------------|------------------------|------------------------|
---------------x--x--|--7----x--x--6----x--x--|--4----x--x--2-------2--|
--L------------x--x--|--7----x--x--6----x--x--|--4----x--x--2-------2--|
--L------------x--x--|--5----x--x--4----x--x--|--2----x--x--0-------0--|
--L------------------|------------------------|------------------4-----|


                                            C#          C     B         
  W                   Q    Q    H           Q.       E  Q     S S  S S  
-------------------|---------------------|-----------------------------|
-------------------|---------------------|-----------------------------|
--L----------------|--2------------------|-----------------------------|
--L----------------|--2------------------|-----------------------------|
--L----------------|--0------------------|--4------xg4--3~----2-3p-2-0-|
-------------------|---------------------|-----------------------------|


  F#5          A      E5             C#          C     B         
  E   E  S S S S  S S S  S E  S S    Q.       E  Q     S S  S S  
----------------------------------|-----------------------------|
----------------------------------|-----------------------------|
----------------------------------|-----------------------------|
----------------------------------|-----------------------------|
----------------------------------|--4------xg4--3~----2-3p-2-0-|
--2---2--2-0-2-5~-L-5-0--1-2--0-2-|-----------------------------|


  F#5                 C#             C       B    A  
  W                   S  S E  E  S S S S S S E  S S  
-------------------|--------------------------------|
-------------------|--6--6-------6-6-5-5---x-4--x-2-|
-------------------|--6--6-------6-6-5-5---x-4--x-2-|
--4----------------|--6--6-------6-6-5-5---x-4--x-2-|
--4----------------|--4--4-------4-4-3-3---x-2--x---|
--2----------------|--------------------------------|


  P.M. - - - - - - - - -                            
  F#5                             A     E5 F#5      
  E                      E  S S S S S S E  E   S S  
---------------------------------------------------|
----------------------------------2-L--------------|
----------------------------------2-L--------------|
--4----------------------4--4-2-4-2-L-x-2--4-------|
--4----------------------4--4-2-4-----x-2--4---x-x-|
--------------------------------------x-0--2---x-x-|


                                             slide up        long slide
  C#             C       B        C#                                   
  S  S E  E  S S S S S S E.  S    E  E  E  S S        Q      Q         
-------------------------------|--------------------------------------|
--6--6-------6-6-5-5---x-4---4-|--------------------------------------|
--6--6-------6-6-5-5---x-4---4-|--------------------------------------|
--6--6-------6-6-5-5---x-4---4-|--------------------------------------|
--4--4-------4-4-3-3---x-2---2-|--4--4--4--5-4--------L---------------|
-------------------------------|---------------------------(19)S------|


  C#             C       B    A  
  S  S E  E  S S S S S S E  S S  
--------------------------------|
--6--6-------6-6-5-5---x-4--x-2-|
--6--6-------6-6-5-5---x-4--x-2-|
--6--6-------6-6-5-5---x-4--x-2-|
--4--4-------4-4-3-3---x-2--x---|
--------------------------------|


  P.M. - - - - - - - - -                            
  F#5                             A     E5 F#5      
  E                      E  S S S S S S E  E   S S  
---------------------------------------------------|
----------------------------------2-L--------------|
----------------------------------2-L--------------|
--4----------------------4--4-2-4-2-L-x-2--4-------|
--4----------------------4--4-2-4-----x-2--4---x-x-|
--------------------------------------x-0--2---x-x-|


  C#             C       B        A5 F#5    E5 F#5           
  S  S E  E  S S S S S S E.  S    E  E   E  S  S   H         
-------------------------------|----------------------------|
--6--6-------6-6-5-5---x-4---4-|----------------------------|
--6--6-------6-6-5-5---x-4---4-|--2-------------------------|
--6--6-------6-6-5-5---x-4---4-|--2--4---4--2--4---L--------|
--4--4-------4-4-3-3---x-2---2-|--0--4---4--2--4---L--------|
-------------------------------|-----2---2--0--2---L--------|


  D5       E5     B5                        C#5      E5     A5  
  H        Q.     E     W                   H        Q.     E   
---------------------|-------------------|---------------------|
---------------------|-------------------|---------------------|
--7--------9---------|-------------------|--6--------9---------|
--7--------9------9--|--L----------------|--6--------9------7--|
--5--------7------9--|--L----------------|--4--------7------7--|
------------------7--|--L----------------|------------------5--|


                        D5         C#5           B5         A5   G# A5  
  H.           E  E     Q    E  E  Q    E  E     Q    E  E  Q    E  E   
---------------------|------------------------|------------------------|
---------------------|------------------------|------------------------|
---------------x--x--|--7----x--x--6----x--x--|--4----x--x--2-------2--|
--L------------x--x--|--7----x--x--6----x--x--|--4----x--x--2-------2--|
--L------------x--x--|--5----x--x--4----x--x--|--2----x--x--0-------0--|
--L------------------|------------------------|------------------4-----|


                                                D5       E5     B5  
  Q    Q    Q    Q       Q    Q    Q    Q       H        Q.     E   
----------------------|----------------------|---------------------|
----------------------|----------------------|---------------------|
--L----2----2----2----|--2----2----2---------|--7--------9---------|
--L----2----2----2----|--2----2----2---------|--7--------9------9--|
--L----0----0----0----|--0----0----0---------|--5--------7------9--|
----------------------|----------------------|------------------7--|


                      C#5      E5     A5                        
  W                   H        Q.     E     H.           E  E   
-------------------|---------------------|---------------------|
-------------------|---------------------|---------------------|
-------------------|--6--------9---------|---------------x--x--|
--L----------------|--6--------9------4--|--L------------x--x--|
--L----------------|--4--------7------4--|--L------------x--x--|
--L----------------|------------------2--|--L------------------|


  D5         C#5           B5         A5   G# A5                         
  Q    E  E  Q    E  E     Q    E  E  Q    E  E     Q    Q    Q    Q     
------------------------|------------------------|----------------------|
------------------------|------------------------|----------------------|
--7----x--x--6----x--x--|--4----x--x--2-------2--|----------------------|
--7----x--x--6----x--x--|--4----x--x--2-------2--|-------6----4----2----|
--5----x--x--4----x--x--|--2----x--x--0-------0--|----------------------|
------------------------|------------------4-----|----------------------|


                         E5         D5       A5                             
  Q    Q    Q    Q       Q    E  E  E   Q    E     E  E  E  E  E  E  E  E   
----------------------|--0----0-----------------|--------------------------|
----------------------|--0----0-----------------|--------------------------|
----------------------|--9----9--------------2--|--L-----------------------|
----------------------|--9----9--0-----------2--|--L-----------2--2--4--2--|
--5----4----2----0----|--7----7-----4S--5----0--|--L--0--3--4--0--0--0-----|
----------------------|--0----0-----------------|--------------------------|


  B5        G        E5                               E5         D5       A5  
  Q    Q    Q     E  E     E  E  E  E  E  E  E  E     Q    E  E  E   Q    E   
------------------------|--------------------------|--0----0-----------------|
------------------------|--------------------------|--0----0-----------------|
--4----4----------------|--------------------------|--9----9--------------2--|
--4----4-------------2--|--L-----------------------|--9----9--0-----------2--|
--2----2-------------2--|--L-----------2--2--4--2--|--7----7-----4S--5----0--|
------------3b----L--0--|--L--0--3--4--0--0--0-----|--0----0-----------------|


                             B5                       
  E  E  E  E  E  E  E  E     E  E  E  E  E  E  E  E   
--------------------------|--------------------------|
--------------------------|--------------------------|
--L-----------------------|--------------------------|
--L-----------2--2--4--2--|--4--4--6-----4--4--6--4--|
--L--0--3--4--0--0--0-----|--2--2--2-----2--2--2--2--|
--------------------------|--------------------------|


                             E5         D5       A5                             
  E  E  E  E  E  E  E  E     Q    E  E  E   Q    E     E  E  E  E  E  E  E  E   
--------------------------|--0----0-----------------|--------------------------|
--------------------------|--0----0-----------------|--------------------------|
-----------------------4--|--9----9--------------2--|--L-----------------------|
--L--4--6-----4--4--6--4--|--9----9--0-----------2--|--L-----------2--2--4--2--|
--L--2--2-----2--2--2-----|--7----7-----4S--5----0--|--L--0--3--4--0--0--0-----|
--------------------------|--0----0-----------------|--------------------------|


  B5        G        E5                               E5         D5       A5  
  Q    Q    Q     E  E     E  E  E  E  E  E  E  E     Q    E  E  E   Q    E   
------------------------|--------------------------|--0----0-----------------|
------------------------|--------------------------|--0----0-----------------|
--4----4----------------|--------------------------|--9----9--------------2--|
--4----4-------------2--|--L-----------------------|--9----9--0-----------2--|
--2----2-------------2--|--L-----------2--2--4--2--|--7----7-----4S--5----0--|
------------3b----L--0--|--L--0--3--4--0--0--0-----|--0----0-----------------|


                             B5                       
  E  E  E  E  E  E  E  E     E  E  E  E  E  E  E  E   
--------------------------|--------------------------|
--------------------------|--------------------------|
--L-----------------------|--4--4--4--4--4--4--4--4--|
--L-----------2--2--4--2--|--4--4--4--4--4--4--4--4--|
--L--0--3--4--0--0--0-----|--2--2--2--2--2--2--2--2--|
--------------------------|--------------------------|


                              hit 6 (A.H. pitch G#)                   
                              C#                                      
  E  E  E  E  E  E  E  E      Q                     Q     H           
--------------------------|--16~-------------------------------------|
--------------------------|-------------------------------5~---------|
--4--4--4--4--4--4--4--4--|--(6)~-------------------------4b~--------|
--4--4--4--4--4--4--4--4--|------------------------------------------|
--2--2--2--2--2--2--2--2--|------------------------11S---------------|
--------------------------|------------------------------------------|


                       C#              C       D          
  W                    E.   S  E.   S  Q       E    S  S  
-------------------|-------------------------------------|
--L----------------|--16b---L-16b---L-16pb----16---------|
--L----------------|--16b---L-16b---L-16pb----16p--14----|
-------------------|----------------------------------16-|
-------------------|-------------------------------------|
-------------------|-------------------------------------|


                    slide down                                        
   F#5                                B5                              
                                                             |--3--|  
   Q     Q     Q    E          S S    S  S Q     E    Q.     S  S  S  
-----------------------------------|--7----7-----------------7-------|
---------------------------------7-|-----7------10b~--L--------10p-7-|
--14-------------------------------|---------------------------------|
--------16~----L----L--------------|---------------------------------|
-----------------------------------|---------------------------------|
-----------------------------------|---------------------------------|


             add vibrato                                           
  G5                     A5       B5                               
                         |-3-|               |-3-|                 
  H          Q.          E   S    Q       E  E   S Q       E  S S  
-------------------------7-----|-------------7----------------0---|
--9b~--------L--------------10-|----------------10--------------0-|
--9b~--------L-----------------|--9pbr----L--------9pbr----L------|
-------------------------------|----------------------------------|
-------------------------------|----------------------------------|
-------------------------------|----------------------------------|


   bends and rebends               don't hit         
   G5                                          A5    
   S                S S S S S S S  Q.          E     
----------------------------------------------------|
----------------------------------------------------|
----------------------------------------------------|
----------------------------------------------------|
--10b---------------L-L-L-L-L-L-L-10~--------(10)S--|
----------------------------------------------------|


   hit 7 (A.H. pitch G#)                                     slide down     
   B5                                      G5                               
   H                    S S  S S E  S S    Q    E   E  Q     E          E   
--16b~----------------------------------|----------------------------------|
----------------------------------------|----------------------------------|
----------------------------------------|----------------------------------|
------------------------7---------------|----------------------------------|
--(7)~--------------------7b-7-5--------|----------------------------------|
---------------------------------7--5-4-|--3----3b--L--3~----L-------------|


         P.M. - - -                   
  B5                                  
  E.   S S           S E   E  Q.      
-------------------------------------|
-------------------------------------|
-------------------------------------|
------------------------------0------|
---------2-------------4b--L---------|
--5b---L-------------5---------------|


           hit 5 (A.H. pitch D)                                                 
                                                 C#             C       B    A  
  E    E   E                    E    H           S  S E  E  S S S S S S E  S S  
----------22-------------------22~---L--------|--------------------------------|
----------------------------------------------|--6--6-------6-6-5-5---x-4--x-2-|
----------------------------------------------|--6--6-------6-6-5-5---x-4--x-2-|
--5br--L--(5)------------------(5)~--L--------|--6--6-------6-6-5-5---x-4--x-2-|
----------------------------------------------|--4--4-------4-4-3-3---x-2--x---|
----------------------------------------------|--------------------------------|


  P.M. - - - - - - - - -                            
  F#5                             A     E5 F#5      
  E                      E  S S S S S S E  E   S S  
---------------------------------------------------|
----------------------------------2-L--------------|
----------------------------------2-L--------------|
--4----------------------4--4-2-4-2-L-x-2--4-------|
--4----------------------4--4-2-4-----x-2--4---x-x-|
--------------------------------------x-0--2---x-x-|


                                             slide up        long slide
  C#             C       B        C#                                   
  S  S E  E  S S S S S S E.  S    E  E  E  S S        Q      Q         
-------------------------------|--------------------------------------|
--6--6-------6-6-5-5---x-4---4-|--------------------------------------|
--6--6-------6-6-5-5---x-4---4-|--------------------------------------|
--6--6-------6-6-5-5---x-4---4-|--------------------------------------|
--4--4-------4-4-3-3---x-2---2-|--4--4--4--5-4--------L---------------|
-------------------------------|---------------------------(19)S------|


  C#             C       B    A  
  S  S E  E  S S S S S S E  S S  
--------------------------------|
--6--6-------6-6-5-5---x-4--x-2-|
--6--6-------6-6-5-5---x-4--x-2-|
--6--6-------6-6-5-5---x-4--x-2-|
--4--4-------4-4-3-3---x-2--x---|
--------------------------------|


  P.M. - - - - - - - - -                            
  F#5                             A     E5 F#5      
  E                      E  S S S S S S E  E   S S  
---------------------------------------------------|
----------------------------------2-L--------------|
----------------------------------2-L--------------|
--4----------------------4--4-2-4-2-L-x-2--4-------|
--4----------------------4--4-2-4-----x-2--4---x-x-|
--------------------------------------x-0--2---x-x-|


  C#             C       B        A5 F#5    E5 F#5           
  S  S E  E  S S S S S S E.  S    E  E   E  S  S   H         
-------------------------------|----------------------------|
--6--6-------6-6-5-5---x-4---4-|----------------------------|
--6--6-------6-6-5-5---x-4---4-|--2-------------------------|
--6--6-------6-6-5-5---x-4---4-|--2--4---4--2--4---L--------|
--4--4-------4-4-3-3---x-2---2-|--0--4---4--2--4---L--------|
-------------------------------|-----2---2--0--2---L--------|


  D5       E5     B5                        C#5      E5     A5  
  H        Q.     E     W                   H        Q.     E   
---------------------|-------------------|---------------------|
---------------------|-------------------|---------------------|
--7--------9---------|-------------------|--6--------9---------|
--7--------9------9--|--L----------------|--6--------9------7--|
--5--------7------9--|--L----------------|--4--------7------7--|
------------------7--|--L----------------|------------------5--|


                        D5         C#5           B5         A5   G# A5  
  H.           E  E     Q    E  E  Q    E  E     Q    E  E  Q    E  E   
---------------------|------------------------|------------------------|
---------------------|------------------------|------------------------|
---------------x--x--|--7----x--x--6----x--x--|--4----x--x--2-------2--|
--L------------x--x--|--7----x--x--6----x--x--|--4----x--x--2-------2--|
--L------------x--x--|--5----x--x--4----x--x--|--2----x--x--0-------0--|
--L------------------|------------------------|------------------4-----|


                                                D5       E5     B5  
  Q    Q    Q    Q       Q    Q    Q    Q       H        Q.     E   
----------------------|----------------------|---------------------|
----------------------|----------------------|---------------------|
--L----2----2----2----|--2----2----2---------|--7--------9---------|
--L----2----2----2----|--2----2----2---------|--7--------9------9--|
--L----0----0----0----|--0----0----0---------|--5--------7------9--|
----------------------|----------------------|------------------7--|


                      C#5      E5     A5                        
  W                   H        Q.     E     H.           E  E   
-------------------|---------------------|---------------------|
-------------------|---------------------|---------------------|
-------------------|--6--------9---------|---------------x--x--|
--L----------------|--6--------9------4--|--L------------x--x--|
--L----------------|--4--------7------4--|--L------------x--x--|
--L----------------|------------------2--|--L------------------|


  D5         C#5           B5         A5   G# A5                         
  Q    E  E  Q    E  E     Q    E  E  Q    E  E     Q    Q    Q    Q     
------------------------|------------------------|----------------------|
------------------------|------------------------|----------------------|
--7----x--x--6----x--x--|--4----x--x--2-------2--|----------------------|
--7----x--x--6----x--x--|--4----x--x--2-------2--|-------6----4----2----|
--5----x--x--4----x--x--|--2----x--x--0-------0--|----------------------|
------------------------|------------------4-----|----------------------|


                           G#5    A5    G#5    A5     
  Q    Q    Q    Q         E   E  E  E  E   E  E  E   
----------------------||-----------------------------|
----------------------||-----------------------------|
----------------------||*---------2--2---------2--2--|
--0-------------------||*---------2--2---------2--2--|
-------4----2----0----||----------0--0---------0--0--|
----------------------||---4b--L--------4b--L--------|


  G#5    A5       C5                                                       
                              |---3---|  |---3---|  |---3---|  |---3---|   
  E   E  E  E  E  Q.      4x  E   E   E  E   E   E  E   E   E  E   E   E   
--------------------------||----------------------------------------------|
--------------------------||----------------------------------------------|
---------2--2-----5------*||--4p--2p--0-------------4p--2p--0-------------|
---------2--2-----5------*||-------------4p--2p--0-------------4p--2p--0--|
---------0--0-----3-------||----------------------------------------------|
--4b--L-------------------||----------------------------------------------|


                             PO                                       
  |---3---|  |---3---|  |---3---|  |---3---|                          
  E   E   E  E   E   E  E    E  E  E   E   E     Q    Q    H          
----------------------------------------------|---------------------||
----------------------------------------------|---------------------||
--4p--2p--0-------------4br--L--2-------------|---------------------||
-------------4p--2p--0-------------4p--2p--0--|--2------------------||
----------------------------------------------|--0------------------||
----------------------------------------------|---------------------||




Duration Legend
---------------
W - whole
H - half
Q - quarter
E - 8th
S - 16th
T - 32nd
X - 64th
. - note dotted
|-n-|  - n-tuplets


Tablature Legend
----------------

x - dead note
h - hammer on
p - pull off
b - bend
br - bendRelease
pb - preBend
pbr - preBendRelease
brb - bendReleaseBend
S - shift slide
s - legato slide
/ -  slide into from below or out of upwards
\ -  slide into from above or out of downwards
~ - vibrato
W - wide vibrato
comments
We did not receive enough feedback on this tab! Please rate:
print report bad tab
1 2 3 4 5
2 comments total.
0 reply
aaciseric wrote on July 5 2008, 07:21 am

Good points: Most of it seemed correct, the rhythm markings were useful.

Bad Points: Poorly laid out (IMO), no labels and putting each guitar seperately made this very hard to follow.

0 reply
Gunsnroses645 wrote on August 17 2008, 02:21 pm

the part after the intro where distorion starts ou is like this

-------------------------------------------
--------------2--------------2-------------
--6---6-5-4---2--------------2-------------
--6---6-5-4---2--4--4--424---2-------x-----
--4---4-3-2------4--4--424------2--4-x-----
--------------------------------0--2-x-----

I want to post or [tab]
guest
You may want to rate the tab now too:
select rating
Please do not post tabs as comments. Select "correction" instead!