Oops, an error
Loading. Please wait.

My Michelle Tab

ver5
ver5

Intro

Interactive

More versions @911Tabs.com
2,458 views 1 this week
1 commentread comment
1 2 3 4 5
not so good
x 4
Autoscroll
+/-
esc
set tempo
stop
Tuning
D# G# C# F# A# D#
WARNING: You are trying to view
                                    content from Ultimate-Guitar.com
                                    in an unauthorized application,
                                    which is prohibited.

                                    Please use an official Ultimate
                                    Guitar Tabs application for iPhone,
                                    iPad or Android to access legitimate
                                    chords, guitar, bass, and drum tabs
                                    from Ultimate-Guitar.com database.

                                    Type "ultimate guitar tabs" in Apple
                                    App Store's or Android Market's
                                    search to find the application.
Band: Guns N' Roses
Song: My Michelle



Guitar # 1 (Slash):


      tempo 72  
      Q         
D#||-----------|
A#||-----------|
F#||-----------|
C#||-----------|
G#||-----------|
D#||-----------|


  Let ring (w/clean tone and flanger)                                        
  A/C#                                              Amsus2/c       B7        
  S                                   S S S S S S S S        S S S S  S S S  
----------------------------------------------------------------------------|
------------------------------------------2----------------------0--------0-|
----------------------------------------2---2------------------2--------2---|
--------------------------------------2-------2---2----------2--------4-----|
--4---------------------------------------------4---3--------------2--------|
----------------------------------------------------------------------------|


  F#m                                
  S   S S S S S S S S S S S S S S S  
------------------------------------|
------------------------------------|
----------2---------------2---------|
--------4---4-----------4---4-------|
------4-------4---4---4-------4---4-|
--2-------------2---2-----------2---|


  A/C#               Amsus2/c       B7        
  S    S S S S S S S S        S S S S  S S S  
---------------------------------------------|
-----------2----------------------0--------0-|
---------2---2------------------2--------2---|
-------2-------2---2----------2--------4-----|
--4--------------4---3--------------2--------|
---------------------------------------------|


  F#m                                
  S   S S S S S S S S S S S S S S S  
------------------------------------|
------------------------------------|
----------2---------------2---------|
--------4---4-----------4---4-------|
------4-------4---4---4-------4---4-|
--2-------------2---2-----------2---|


  A/C#               Amsus2/c       B7        
  S    S S S S S S S S        S S S S  S S S  
---------------------------------------------|
-----------2----------------------0--------0-|
---------2---2------------------2--------2---|
-------2-------2---2----------2--------4-----|
--4--------------4---3--------------2--------|
---------------------------------------------|


  F#m                                
  S   S S S S S S S S S S S S S S S  
------------------------------------|
------------------------------------|
----------2---------------2---------|
--------4---4-----------4---4-------|
------4-------4---4---4-------4---4-|
--2-------------2---2-----------2---|


  A/C#               Amsus2/c       B7          F#m                    
  S    S S S S S S S S        S S S S  S S S    S   E.  H        Q     
---------------------------------------------|------------------------|
-----------2----------------------0--------0-|------2---L-------------|
---------2---2------------------2--------2---|------2---L-------------|
-------2-------2---2----------2--------4-----|------4---L-------------|
--4--------------4---3--------------2--------|------4---L-------------|
---------------------------------------------|--2---L-----------------|


    distortion                                                           
    C#              C     B           F#5          A      E5             
    Q.           E  Q     S S  S S    E   E  S S S S  S S S  S E  S S    
|----------------------------------|-----------------------------------||
|----------------------------------|-----------------------------------||
|*---------------------------------|----------------------------------*||
|*---------------------------------|----------------------------------*||
|---4----------xg4--3~----2-3p-2-0-|-----------------------------------||
|----------------------------------|--2---2--2-0-2-5~-L-5-0--1-2--0-2--||


  C#          C     B           F#5          A      E5           
  Q.       E  Q     S S  S S    E   E  S S S S  S S S  S E  S S  
-----------------------------|----------------------------------|
-----------------------------|----------------------------------|
-----------------------------|----------------------------------|
-----------------------------|----------------------------------|
--4------xg4--3~----2-3p-2-0-|----------------------------------|
-----------------------------|--2---2--2-0-2-5~-L-5-0--1-2--0-2-|


  C#          C     B           F#5                  
  Q.       E  Q     S S  S S    H          H         
-----------------------------|----------------------|
-----------------------------|----------------------|
-----------------------------|----------------------|
-----------------------------|----------------------|
--4------xg4--3~----2-3p-2-0-|----------------------|
-----------------------------|--2br--------L--------|


  C#             C       B    A  
  S  S E  E  S S S S S S E  S S  
--------------------------------|
--6--6-------6-6-5-5---x-4--x-2-|
--6--6-------6-6-5-5---x-4--x-2-|
--6--6-------6-6-5-5---x-4--x-2-|
--4--4-------4-4-3-3---x-2--x---|
--------------------------------|


  P.M. - - - - - - - - -                            
  F#5                             A     E5 F#5      
  E                      E  S S S S S S E  E   S S  
---------------------------------------------------|
----------------------------------2-L--------------|
----------------------------------2-L--------------|
--4----------------------4--4-2-4-2-L-x-2--4-------|
--4----------------------4--4-2-4-----x-2--4---x-x-|
--------------------------------------x-0--2---x-x-|


                                             slide up        long slide
  C#             C       B        C#                                   
  S  S E  E  S S S S S S E.  S    E  E  E  S S        Q      Q         
-------------------------------|--------------------------------------|
--6--6-------6-6-5-5---x-4---4-|--------------------------------------|
--6--6-------6-6-5-5---x-4---4-|--------------------------------------|
--6--6-------6-6-5-5---x-4---4-|--------------------------------------|
--4--4-------4-4-3-3---x-2---2-|--4--4--4--5-4--------L---------------|
-------------------------------|---------------------------(19)S------|


  C#             C       B    A  
  S  S E  E  S S S S S S E  S S  
--------------------------------|
--6--6-------6-6-5-5---x-4--x-2-|
--6--6-------6-6-5-5---x-4--x-2-|
--6--6-------6-6-5-5---x-4--x-2-|
--4--4-------4-4-3-3---x-2--x---|
--------------------------------|


  P.M. - - - - - - - - -                            
  F#5                             A     E5 F#5      
  E                      E  S S S S S S E  E   S S  
---------------------------------------------------|
----------------------------------2-L--------------|
----------------------------------2-L--------------|
--4----------------------4--4-2-4-2-L-x-2--4-------|
--4----------------------4--4-2-4-----x-2--4---x-x-|
--------------------------------------x-0--2---x-x-|


  C#             C       B        A5 F#5    E5 F#5           
  S  S E  E  S S S S S S E.  S    E  E   E  S  S   H         
-------------------------------|----------------------------|
--6--6-------6-6-5-5---x-4---4-|----------------------------|
--6--6-------6-6-5-5---x-4---4-|--2-------------------------|
--6--6-------6-6-5-5---x-4---4-|--2--4---4--2--4---L--------|
--4--4-------4-4-3-3---x-2---2-|--0--4---4--2--4---L--------|
-------------------------------|-----2---2--0--2---L--------|


  D5       E5     B5                        C#5      E5     A5  
  H        Q.     E     W                   H        Q.     E   
---------------------|-------------------|---------------------|
---------------------|-------------------|---------------------|
--7--------9---------|-------------------|--6--------9---------|
--7--------9------9--|--L----------------|--6--------9------7--|
--5--------7------9--|--L----------------|--4--------7------7--|
------------------7--|--L----------------|------------------5--|


                        D5         C#5           B5         A5   G# A5  
  H.           E  E     Q    E  E  Q    E  E     Q    E  E  Q    E  E   
---------------------|------------------------|------------------------|
---------------------|------------------------|------------------------|
---------------x--x--|--7----x--x--6----x--x--|--4----x--x--2-------2--|
--L------------x--x--|--7----x--x--6----x--x--|--4----x--x--2-------2--|
--L------------x--x--|--5----x--x--4----x--x--|--2----x--x--0-------0--|
--L------------------|------------------------|------------------4-----|


                                            C#          C     B         
  W                   Q    Q    H           Q.       E  Q     S S  S S  
-------------------|---------------------|-----------------------------|
-------------------|---------------------|-----------------------------|
--L----------------|--2------------------|-----------------------------|
--L----------------|--2------------------|-----------------------------|
--L----------------|--0------------------|--4------xg4--3~----2-3p-2-0-|
-------------------|---------------------|-----------------------------|


  F#5          A      E5             C#          C     B         
  E   E  S S S S  S S S  S E  S S    Q.       E  Q     S S  S S  
----------------------------------|-----------------------------|
----------------------------------|-----------------------------|
----------------------------------|-----------------------------|
----------------------------------|-----------------------------|
----------------------------------|--4------xg4--3~----2-3p-2-0-|
--2---2--2-0-2-5~-L-5-0--1-2--0-2-|-----------------------------|


  F#5                 C#             C       B    A  
  W                   S  S E  E  S S S S S S E  S S  
-------------------|--------------------------------|
-------------------|--6--6-------6-6-5-5---x-4--x-2-|
-------------------|--6--6-------6-6-5-5---x-4--x-2-|
--4----------------|--6--6-------6-6-5-5---x-4--x-2-|
--4----------------|--4--4-------4-4-3-3---x-2--x---|
--2----------------|--------------------------------|


  P.M. - - - - - - - - -                            
  F#5                             A     E5 F#5      
  E                      E  S S S S S S E  E   S S  
---------------------------------------------------|
----------------------------------2-L--------------|
----------------------------------2-L--------------|
--4----------------------4--4-2-4-2-L-x-2--4-------|
--4----------------------4--4-2-4-----x-2--4---x-x-|
--------------------------------------x-0--2---x-x-|


                                             slide up        long slide
  C#             C       B        C#                                   
  S  S E  E  S S S S S S E.  S    E  E  E  S S        Q      Q         
-------------------------------|--------------------------------------|
--6--6-------6-6-5-5---x-4---4-|--------------------------------------|
--6--6-------6-6-5-5---x-4---4-|--------------------------------------|
--6--6-------6-6-5-5---x-4---4-|--------------------------------------|
--4--4-------4-4-3-3---x-2---2-|--4--4--4--5-4--------L---------------|
-------------------------------|---------------------------(19)S------|


  C#             C       B    A  
  S  S E  E  S S S S S S E  S S  
--------------------------------|
--6--6-------6-6-5-5---x-4--x-2-|
--6--6-------6-6-5-5---x-4--x-2-|
--6--6-------6-6-5-5---x-4--x-2-|
--4--4-------4-4-3-3---x-2--x---|
--------------------------------|


  P.M. - - - - - - - - -                            
  F#5                             A     E5 F#5      
  E                      E  S S S S S S E  E   S S  
---------------------------------------------------|
----------------------------------2-L--------------|
----------------------------------2-L--------------|
--4----------------------4--4-2-4-2-L-x-2--4-------|
--4----------------------4--4-2-4-----x-2--4---x-x-|
--------------------------------------x-0--2---x-x-|


  C#             C       B        A5 F#5    E5 F#5           
  S  S E  E  S S S S S S E.  S    E  E   E  S  S   H         
-------------------------------|----------------------------|
--6--6-------6-6-5-5---x-4---4-|----------------------------|
--6--6-------6-6-5-5---x-4---4-|--2-------------------------|
--6--6-------6-6-5-5---x-4---4-|--2--4---4--2--4---L--------|
--4--4-------4-4-3-3---x-2---2-|--0--4---4--2--4---L--------|
-------------------------------|-----2---2--0--2---L--------|


  D5       E5     B5                        C#5      E5     A5  
  H        Q.     E     W                   H        Q.     E   
---------------------|-------------------|---------------------|
---------------------|-------------------|---------------------|
--7--------9---------|-------------------|--6--------9---------|
--7--------9------9--|--L----------------|--6--------9------7--|
--5--------7------9--|--L----------------|--4--------7------7--|
------------------7--|--L----------------|------------------5--|


                        D5         C#5           B5         A5   G# A5  
  H.           E  E     Q    E  E  Q    E  E     Q    E  E  Q    E  E   
---------------------|------------------------|------------------------|
---------------------|------------------------|------------------------|
---------------x--x--|--7----x--x--6----x--x--|--4----x--x--2-------2--|
--L------------x--x--|--7----x--x--6----x--x--|--4----x--x--2-------2--|
--L------------x--x--|--5----x--x--4----x--x--|--2----x--x--0-------0--|
--L------------------|------------------------|------------------4-----|


                                                D5       E5     B5  
  Q    Q    Q    Q       Q    Q    Q    Q       H        Q.     E   
----------------------|----------------------|---------------------|
----------------------|----------------------|---------------------|
--L----2----2----2----|--2----2----2---------|--7--------9---------|
--L----2----2----2----|--2----2----2---------|--7--------9------9--|
--L----0----0----0----|--0----0----0---------|--5--------7------9--|
----------------------|----------------------|------------------7--|


                      C#5      E5     A5                        
  W                   H        Q.     E     H.           E  E   
-------------------|---------------------|---------------------|
-------------------|---------------------|---------------------|
-------------------|--6--------9---------|---------------x--x--|
--L----------------|--6--------9------4--|--L------------x--x--|
--L----------------|--4--------7------4--|--L------------x--x--|
--L----------------|------------------2--|--L------------------|


  D5         C#5           B5         A5   G# A5                         
  Q    E  E  Q    E  E     Q    E  E  Q    E  E     Q    Q    Q    Q     
------------------------|------------------------|----------------------|
------------------------|------------------------|----------------------|
--7----x--x--6----x--x--|--4----x--x--2-------2--|----------------------|
--7----x--x--6----x--x--|--4----x--x--2-------2--|-------6----4----2----|
--5----x--x--4----x--x--|--2----x--x--0-------0--|----------------------|
------------------------|------------------4-----|----------------------|


                         E5         D5       A5                             
  Q    Q    Q    Q       Q    E  E  E   Q    E     E  E  E  E  E  E  E  E   
----------------------|--0----0-----------------|--------------------------|
----------------------|--0----0-----------------|--------------------------|
----------------------|--9----9--------------2--|--L-----------------------|
----------------------|--9----9--0-----------2--|--L-----------2--2--4--2--|
--5----4----2----0----|--7----7-----4S--5----0--|--L--0--3--4--0--0--0-----|
----------------------|--0----0-----------------|--------------------------|


  B5        G        E5                               E5         D5       A5  
  Q    Q    Q     E  E     E  E  E  E  E  E  E  E     Q    E  E  E   Q    E   
------------------------|--------------------------|--0----0-----------------|
------------------------|--------------------------|--0----0-----------------|
--4----4----------------|--------------------------|--9----9--------------2--|
--4----4-------------2--|--L-----------------------|--9----9--0-----------2--|
--2----2-------------2--|--L-----------2--2--4--2--|--7----7-----4S--5----0--|
------------3b----L--0--|--L--0--3--4--0--0--0-----|--0----0-----------------|


                             B5                       
  E  E  E  E  E  E  E  E     E  E  E  E  E  E  E  E   
--------------------------|--------------------------|
--------------------------|--------------------------|
--L-----------------------|--------------------------|
--L-----------2--2--4--2--|--4--4--6-----4--4--6--4--|
--L--0--3--4--0--0--0-----|--2--2--2-----2--2--2--2--|
--------------------------|--------------------------|


                             E5         D5       A5                             
  E  E  E  E  E  E  E  E     Q    E  E  E   Q    E     E  E  E  E  E  E  E  E   
--------------------------|--0----0-----------------|--------------------------|
--------------------------|--0----0-----------------|--------------------------|
-----------------------4--|--9----9--------------2--|--L-----------------------|
--L--4--6-----4--4--6--4--|--9----9--0-----------2--|--L-----------2--2--4--2--|
--L--2--2-----2--2--2-----|--7----7-----4S--5----0--|--L--0--3--4--0--0--0-----|
--------------------------|--0----0-----------------|--------------------------|


  B5        G        E5                               E5         D5       A5  
  Q    Q    Q     E  E     E  E  E  E  E  E  E  E     Q    E  E  E   Q    E   
------------------------|--------------------------|--0----0-----------------|
------------------------|--------------------------|--0----0-----------------|
--4----4----------------|--------------------------|--9----9--------------2--|
--4----4-------------2--|--L-----------------------|--9----9--0-----------2--|
--2----2-------------2--|--L-----------2--2--4--2--|--7----7-----4S--5----0--|
------------3b----L--0--|--L--0--3--4--0--0--0-----|--0----0-----------------|


                             B5                       
  E  E  E  E  E  E  E  E     E  E  E  E  E  E  E  E   
--------------------------|--------------------------|
--------------------------|--------------------------|
--L-----------------------|--4--4--4--4--4--4--4--4--|
--L-----------2--2--4--2--|--4--4--4--4--4--4--4--4--|
--L--0--3--4--0--0--0-----|--2--2--2--2--2--2--2--2--|
--------------------------|--------------------------|


                              hit 6 (A.H. pitch G#)                   
                              C#                                      
  E  E  E  E  E  E  E  E      Q                     Q     H           
--------------------------|--16~-------------------------------------|
--------------------------|-------------------------------5~---------|
--4--4--4--4--4--4--4--4--|--(6)~-------------------------4b~--------|
--4--4--4--4--4--4--4--4--|------------------------------------------|
--2--2--2--2--2--2--2--2--|------------------------11S---------------|
--------------------------|------------------------------------------|


                       C#              C       D          
  W                    E.   S  E.   S  Q       E    S  S  
-------------------|-------------------------------------|
--L----------------|--16b---L-16b---L-16pb----16---------|
--L----------------|--16b---L-16b---L-16pb----16p--14----|
-------------------|----------------------------------16-|
-------------------|-------------------------------------|
-------------------|-------------------------------------|


                    slide down                                        
   F#5                                B5                              
                                                             |--3--|  
   Q     Q     Q    E          S S    S  S Q     E    Q.     S  S  S  
-----------------------------------|--7----7-----------------7-------|
---------------------------------7-|-----7------10b~--L--------10p-7-|
--14-------------------------------|---------------------------------|
--------16~----L----L--------------|---------------------------------|
-----------------------------------|---------------------------------|
-----------------------------------|---------------------------------|


             add vibrato                                           
  G5                     A5       B5                               
                         |-3-|               |-3-|                 
  H          Q.          E   S    Q       E  E   S Q       E  S S  
-------------------------7-----|-------------7----------------0---|
--9b~--------L--------------10-|----------------10--------------0-|
--9b~--------L-----------------|--9pbr----L--------9pbr----L------|
-------------------------------|----------------------------------|
-------------------------------|----------------------------------|
-------------------------------|----------------------------------|


   bends and rebends               don't hit         
   G5                                          A5    
   S                S S S S S S S  Q.          E     
----------------------------------------------------|
----------------------------------------------------|
----------------------------------------------------|
----------------------------------------------------|
--10b---------------L-L-L-L-L-L-L-10~--------(10)S--|
----------------------------------------------------|


   hit 7 (A.H. pitch G#)                                     slide down     
   B5                                      G5                               
   H                    S S  S S E  S S    Q    E   E  Q     E          E   
--16b~----------------------------------|----------------------------------|
----------------------------------------|----------------------------------|
----------------------------------------|----------------------------------|
------------------------7---------------|----------------------------------|
--(7)~--------------------7b-7-5--------|----------------------------------|
---------------------------------7--5-4-|--3----3b--L--3~----L-------------|


         P.M. - - -                   
  B5                                  
  E.   S S           S E   E  Q.      
-------------------------------------|
-------------------------------------|
-------------------------------------|
------------------------------0------|
---------2-------------4b--L---------|
--5b---L-------------5---------------|


           hit 5 (A.H. pitch D)                                                 
                                                 C#             C       B    A  
  E    E   E                    E    H           S  S E  E  S S S S S S E  S S  
----------22-------------------22~---L--------|--------------------------------|
----------------------------------------------|--6--6-------6-6-5-5---x-4--x-2-|
----------------------------------------------|--6--6-------6-6-5-5---x-4--x-2-|
--5br--L--(5)------------------(5)~--L--------|--6--6-------6-6-5-5---x-4--x-2-|
----------------------------------------------|--4--4-------4-4-3-3---x-2--x---|
----------------------------------------------|--------------------------------|


  P.M. - - - - - - - - -                            
  F#5                             A     E5 F#5      
  E                      E  S S S S S S E  E   S S  
---------------------------------------------------|
----------------------------------2-L--------------|
----------------------------------2-L--------------|
--4----------------------4--4-2-4-2-L-x-2--4-------|
--4----------------------4--4-2-4-----x-2--4---x-x-|
--------------------------------------x-0--2---x-x-|


                                             slide up        long slide
  C#             C       B        C#                                   
  S  S E  E  S S S S S S E.  S    E  E  E  S S        Q      Q         
-------------------------------|--------------------------------------|
--6--6-------6-6-5-5---x-4---4-|--------------------------------------|
--6--6-------6-6-5-5---x-4---4-|--------------------------------------|
--6--6-------6-6-5-5---x-4---4-|--------------------------------------|
--4--4-------4-4-3-3---x-2---2-|--4--4--4--5-4--------L---------------|
-------------------------------|---------------------------(19)S------|


  C#             C       B    A  
  S  S E  E  S S S S S S E  S S  
--------------------------------|
--6--6-------6-6-5-5---x-4--x-2-|
--6--6-------6-6-5-5---x-4--x-2-|
--6--6-------6-6-5-5---x-4--x-2-|
--4--4-------4-4-3-3---x-2--x---|
--------------------------------|


  P.M. - - - - - - - - -                            
  F#5                             A     E5 F#5      
  E                      E  S S S S S S E  E   S S  
---------------------------------------------------|
----------------------------------2-L--------------|
----------------------------------2-L--------------|
--4----------------------4--4-2-4-2-L-x-2--4-------|
--4----------------------4--4-2-4-----x-2--4---x-x-|
--------------------------------------x-0--2---x-x-|


  C#             C       B        A5 F#5    E5 F#5           
  S  S E  E  S S S S S S E.  S    E  E   E  S  S   H         
-------------------------------|----------------------------|
--6--6-------6-6-5-5---x-4---4-|----------------------------|
--6--6-------6-6-5-5---x-4---4-|--2-------------------------|
--6--6-------6-6-5-5---x-4---4-|--2--4---4--2--4---L--------|
--4--4-------4-4-3-3---x-2---2-|--0--4---4--2--4---L--------|
-------------------------------|-----2---2--0--2---L--------|


  D5       E5     B5                        C#5      E5     A5  
  H        Q.     E     W                   H        Q.     E   
---------------------|-------------------|---------------------|
---------------------|-------------------|---------------------|
--7--------9---------|-------------------|--6--------9---------|
--7--------9------9--|--L----------------|--6--------9------7--|
--5--------7------9--|--L----------------|--4--------7------7--|
------------------7--|--L----------------|------------------5--|


                        D5         C#5           B5         A5   G# A5  
  H.           E  E     Q    E  E  Q    E  E     Q    E  E  Q    E  E   
---------------------|------------------------|------------------------|
---------------------|------------------------|------------------------|
---------------x--x--|--7----x--x--6----x--x--|--4----x--x--2-------2--|
--L------------x--x--|--7----x--x--6----x--x--|--4----x--x--2-------2--|
--L------------x--x--|--5----x--x--4----x--x--|--2----x--x--0-------0--|
--L------------------|------------------------|------------------4-----|


                                                D5       E5     B5  
  Q    Q    Q    Q       Q    Q    Q    Q       H        Q.     E   
----------------------|----------------------|---------------------|
----------------------|----------------------|---------------------|
--L----2----2----2----|--2----2----2---------|--7--------9---------|
--L----2----2----2----|--2----2----2---------|--7--------9------9--|
--L----0----0----0----|--0----0----0---------|--5--------7------9--|
----------------------|----------------------|------------------7--|


                      C#5      E5     A5                        
  W                   H        Q.     E     H.           E  E   
-------------------|---------------------|---------------------|
-------------------|---------------------|---------------------|
-------------------|--6--------9---------|---------------x--x--|
--L----------------|--6--------9------4--|--L------------x--x--|
--L----------------|--4--------7------4--|--L------------x--x--|
--L----------------|------------------2--|--L------------------|


  D5         C#5           B5         A5   G# A5                         
  Q    E  E  Q    E  E     Q    E  E  Q    E  E     Q    Q    Q    Q     
------------------------|------------------------|----------------------|
------------------------|------------------------|----------------------|
--7----x--x--6----x--x--|--4----x--x--2-------2--|----------------------|
--7----x--x--6----x--x--|--4----x--x--2-------2--|-------6----4----2----|
--5----x--x--4----x--x--|--2----x--x--0-------0--|----------------------|
------------------------|------------------4-----|----------------------|


                           G#5    A5    G#5    A5     
  Q    Q    Q    Q         E   E  E  E  E   E  E  E   
----------------------||-----------------------------|
----------------------||-----------------------------|
----------------------||*---------2--2---------2--2--|
--0-------------------||*---------2--2---------2--2--|
-------4----2----0----||----------0--0---------0--0--|
----------------------||---4b--L--------4b--L--------|


  G#5    A5       C5                                                       
                              |---3---|  |---3---|  |---3---|  |---3---|   
  E   E  E  E  E  Q.      4x  E   E   E  E   E   E  E   E   E  E   E   E   
--------------------------||----------------------------------------------|
--------------------------||----------------------------------------------|
---------2--2-----5------*||--4p--2p--0-------------4p--2p--0-------------|
---------2--2-----5------*||-------------4p--2p--0-------------4p--2p--0--|
---------0--0-----3-------||----------------------------------------------|
--4b--L-------------------||----------------------------------------------|


                             PO                                       
  |---3---|  |---3---|  |---3---|  |---3---|                          
  E   E   E  E   E   E  E    E  E  E   E   E     Q    Q    H          
----------------------------------------------|---------------------||
----------------------------------------------|---------------------||
--4p--2p--0-------------4br--L--2-------------|---------------------||
-------------4p--2p--0-------------4p--2p--0--|--2------------------||
----------------------------------------------|--0------------------||
----------------------------------------------|---------------------||










Guitar # 2 (Izzy): 


      tempo 72                                          
      Q           W                   W                 
D#||-----------|-------------------|-------------------|
A#||-----------|-------------------|-------------------|
F#||-----------|-------------------|-------------------|
C#||-----------|-------------------|-------------------|
G#||-----------|-------------------|-------------------|
D#||-----------|-------------------|-------------------|


  w/clean tone                                                      
  H            Q    Q       W                   H        Q    Q     
--9------------8----7----|--5----------------|--9--------8----7----|
-------------------------|-------------------|---------------------|
--9------------8----7----|--6----------------|--9--------8----7----|
-------------------------|-------------------|---------------------|
-------------------------|-------------------|---------------------|
-------------------------|-------------------|---------------------|


  Q    S S E  S S S S S S E     Q    S S E  S S S S S S S S  
--5----L-5-5--5-5-5-5-L-5-5--|--9----9-9-9--8-8-8-0-7-7-7-0-|
-----------------------------|------------------------------|
--6----L-6-6--6-6-6-6-L-6-6--|--9----9-9-9--8-8-8-0-7-7-7-0-|
-----------------------------|------------------------------|
-----------------------------|------------------------------|
-----------------------------|------------------------------|


                        distortion                
                        C#            C    B   A  
  W                     Q.         E  Q    E.  S  
--5----------------||----------------------------|
-------------------||---6----------6--5----4---2-|
--6----------------||*--6----------6--5----4---2-|
-------------------||*--6----------6--5----4---2-|
-------------------||---4----------4--3----2-----|
-------------------||----------------------------|


  F#5          A     E5 F#5          C#        C    B   A  
  E   E  S S S S S S E  E   S S      Q.     E  Q    E.  S  
---------------------------------||-----------------------|
---------------2-L-x-------------||--6------6--5----4---2-|
---------------2-L-x------------*||--6------6--5----4---2-|
--4---4--4-2-4-2-L-x-2--4-------*||--6------6--5----4---2-|
--4---4--4-2-4-------2--4---x-x--||--4------4--3----2-----|
---------------------0--2---x-x--||-----------------------|


  F#5          A     E5 F#5        C#        C    B   A    F#5               
  E   E  S S S S S S E  E   S S    Q.     E  Q    E.  S    W                 
--------------------------------|-----------------------|-------------------|
---------------2-L-x------------|--6------6--5----4---2-|-------------------|
---------------2-L-x------------|--6------6--5----4---2-|-------------------|
--4---4--4-2-4-2-L-x-2--4-------|--6------6--5----4---2-|--4----------------|
--4---4--4-2-4-------2--4---x-x-|--4------4--3----2-----|--4----------------|
---------------------0--2---x-x-|-----------------------|--2----------------|


  C#             C       B    A  
  S  S E  E  S S S S S S E  S S  
--------------------------------|
--6--6-------6-6-5-5---x-4--x-2-|
--6--6-------6-6-5-5---x-4--x-2-|
--6--6-------6-6-5-5---x-4--x-2-|
--4--4-------4-4-3-3---x-2--x---|
--------------------------------|


  P.M. - - - - - - - - -                            
  F#5                             A     E5 F#5      
  E                      E  S S S S S S E  E   S S  
---------------------------------------------------|
----------------------------------2-L--------------|
----------------------------------2-L--------------|
--4----------------------4--4-2-4-2-L-x-2--4-------|
--4----------------------4--4-2-4-----x-2--4---x-x-|
--------------------------------------x-0--2---x-x-|


                                             slide up        long slide
  C#             C       B        C#                                   
  S  S E  E  S S S S S S E.  S    E  E  E  S S        Q      Q         
-------------------------------|--------------------------------------|
--6--6-------6-6-5-5---x-4---4-|--------------------------------------|
--6--6-------6-6-5-5---x-4---4-|--------------------------------------|
--6--6-------6-6-5-5---x-4---4-|--------------------------------------|
--4--4-------4-4-3-3---x-2---2-|--4--4--4--5-4--------L---------------|
-------------------------------|---------------------------(19)S------|


  C#             C       B    A  
  S  S E  E  S S S S S S E  S S  
--------------------------------|
--6--6-------6-6-5-5---x-4--x-2-|
--6--6-------6-6-5-5---x-4--x-2-|
--6--6-------6-6-5-5---x-4--x-2-|
--4--4-------4-4-3-3---x-2--x---|
--------------------------------|


  P.M. - - - - - - - - -                            
  F#5                             A     E5 F#5      
  E                      E  S S S S S S E  E   S S  
---------------------------------------------------|
----------------------------------2-L--------------|
----------------------------------2-L--------------|
--4----------------------4--4-2-4-2-L-x-2--4-------|
--4----------------------4--4-2-4-----x-2--4---x-x-|
--------------------------------------x-0--2---x-x-|


  C#             C       B        A5 F#5    E5 F#5           
  S  S E  E  S S S S S S E.  S    E  E   E  S  S   H         
-------------------------------|----------------------------|
--6--6-------6-6-5-5---x-4---4-|----------------------------|
--6--6-------6-6-5-5---x-4---4-|--2-------------------------|
--6--6-------6-6-5-5---x-4---4-|--2--4---4--2--4---L--------|
--4--4-------4-4-3-3---x-2---2-|--0--4---4--2--4---L--------|
-------------------------------|-----2---2--0--2---L--------|


  D5       E5     B5                        C#5      E5     A5  
  H        Q.     E     W                   H        Q.     E   
---------------------|-------------------|---------------------|
---------------------|-------------------|---------------------|
--7--------9---------|-------------------|--6--------9---------|
--7--------9------9--|--L----------------|--6--------9------7--|
--5--------7------9--|--L----------------|--4--------7------7--|
------------------7--|--L----------------|------------------5--|


                        D5         C#5           B5         A5   G# A5  
  H.           E  E     Q    E  E  Q    E  E     Q    E  E  Q    E  E   
---------------------|------------------------|------------------------|
---------------------|------------------------|------------------------|
---------------x--x--|--7----x--x--6----x--x--|--4----x--x--2-------2--|
--L------------x--x--|--7----x--x--6----x--x--|--4----x--x--2-------2--|
--L------------x--x--|--5----x--x--4----x--x--|--2----x--x--0-------0--|
--L------------------|------------------------|------------------4-----|


                                            C#        C    B   A  
  W                   Q    Q    H           Q.     E  Q    E.  S  
-------------------|---------------------|-----------------------|
-------------------|---------------------|--6------6--5----4---2-|
--L----------------|--2------------------|--6------6--5----4---2-|
--L----------------|--2------------------|--6------6--5----4---2-|
--L----------------|--0------------------|--4------4--3----2-----|
-------------------|---------------------|-----------------------|


  F#5          A     E5 F#5        C#        C    B   A    F#5               
  E   E  S S S S S S E  E   S S    Q.     E  Q    E.  S    W                 
--------------------------------|-----------------------|-------------------|
---------------2-L-x------------|--6------6--5----4---2-|-------------------|
---------------2-L-x------------|--6------6--5----4---2-|-------------------|
--4---4--4-2-4-2-L-x-2--4-------|--6------6--5----4---2-|--4----------------|
--4---4--4-2-4-------2--4---x-x-|--4------4--3----2-----|--4----------------|
---------------------0--2---x-x-|-----------------------|--2----------------|


  C#             C       B    A  
  S  S E  E  S S S S S S E  S S  
--------------------------------|
--6--6-------6-6-5-5---x-4--x-2-|
--6--6-------6-6-5-5---x-4--x-2-|
--6--6-------6-6-5-5---x-4--x-2-|
--4--4-------4-4-3-3---x-2--x---|
--------------------------------|


  P.M. - - - - - - - - -                            
  F#5                             A     E5 F#5      
  E                      E  S S S S S S E  E   S S  
---------------------------------------------------|
----------------------------------2-L--------------|
----------------------------------2-L--------------|
--4----------------------4--4-2-4-2-L-x-2--4-------|
--4----------------------4--4-2-4-----x-2--4---x-x-|
--------------------------------------x-0--2---x-x-|


                                             slide up        long slide
  C#             C       B        C#                                   
  S  S E  E  S S S S S S E.  S    E  E  E  S S        Q      Q         
-------------------------------|--------------------------------------|
--6--6-------6-6-5-5---x-4---4-|--------------------------------------|
--6--6-------6-6-5-5---x-4---4-|--------------------------------------|
--6--6-------6-6-5-5---x-4---4-|--------------------------------------|
--4--4-------4-4-3-3---x-2---2-|--4--4--4--5-4--------L---------------|
-------------------------------|---------------------------(19)S------|


  C#             C       B    A  
  S  S E  E  S S S S S S E  S S  
--------------------------------|
--6--6-------6-6-5-5---x-4--x-2-|
--6--6-------6-6-5-5---x-4--x-2-|
--6--6-------6-6-5-5---x-4--x-2-|
--4--4-------4-4-3-3---x-2--x---|
--------------------------------|


  P.M. - - - - - - - - -                            
  F#5                             A     E5 F#5      
  E                      E  S S S S S S E  E   S S  
---------------------------------------------------|
----------------------------------2-L--------------|
----------------------------------2-L--------------|
--4----------------------4--4-2-4-2-L-x-2--4-------|
--4----------------------4--4-2-4-----x-2--4---x-x-|
--------------------------------------x-0--2---x-x-|


  C#             C       B        A5 F#5    E5 F#5           
  S  S E  E  S S S S S S E.  S    E  E   E  S  S   H         
-------------------------------|----------------------------|
--6--6-------6-6-5-5---x-4---4-|----------------------------|
--6--6-------6-6-5-5---x-4---4-|--2-------------------------|
--6--6-------6-6-5-5---x-4---4-|--2--4---4--2--4---L--------|
--4--4-------4-4-3-3---x-2---2-|--0--4---4--2--4---L--------|
-------------------------------|-----2---2--0--2---L--------|


  D5       E5     B5                        C#5      E5     A5  
  H        Q.     E     W                   H        Q.     E   
---------------------|-------------------|---------------------|
---------------------|-------------------|---------------------|
--7--------9---------|-------------------|--6--------9---------|
--7--------9------9--|--L----------------|--6--------9------7--|
--5--------7------9--|--L----------------|--4--------7------7--|
------------------7--|--L----------------|------------------5--|


                        D5         C#5           B5         A5   G# A5  
  H.           E  E     Q    E  E  Q    E  E     Q    E  E  Q    E  E   
---------------------|------------------------|------------------------|
---------------------|------------------------|------------------------|
---------------x--x--|--7----x--x--6----x--x--|--4----x--x--2-------2--|
--L------------x--x--|--7----x--x--6----x--x--|--4----x--x--2-------2--|
--L------------x--x--|--5----x--x--4----x--x--|--2----x--x--0-------0--|
--L------------------|------------------------|------------------4-----|


                                                D5       E5     B5  
  Q    Q    Q    Q       Q    Q    Q    Q       H        Q.     E   
----------------------|----------------------|---------------------|
----------------------|----------------------|---------------------|
--L----2----2----2----|--2----2----2---------|--7--------9---------|
--L----2----2----2----|--2----2----2---------|--7--------9------9--|
--L----0----0----0----|--0----0----0---------|--5--------7------9--|
----------------------|----------------------|------------------7--|


                      C#5      E5     A5                        
  W                   H        Q.     E     H.           E  E   
-------------------|---------------------|---------------------|
-------------------|---------------------|---------------------|
-------------------|--6--------9---------|---------------x--x--|
--L----------------|--6--------9------4--|--L------------x--x--|
--L----------------|--4--------7------4--|--L------------x--x--|
--L----------------|------------------2--|--L------------------|


  D5         C#5           B5         A5   G# A5                         
  Q    E  E  Q    E  E     Q    E  E  Q    E  E     Q    Q    Q    Q     
------------------------|------------------------|----------------------|
------------------------|------------------------|----------------------|
--7----x--x--6----x--x--|--4----x--x--2-------2--|--L----2----2----2----|
--7----x--x--6----x--x--|--4----x--x--2-------2--|--L----2----2----2----|
--5----x--x--4----x--x--|--2----x--x--0-------0--|--L----0----0----0----|
------------------------|------------------4-----|----------------------|


                         E5       D5     A5                       
  Q    Q    Q    Q       H        Q.     E     Q    H.            
----------------------|---------------------|-------5------------|
----------------------|---------------------|-------5------------|
--2----2----2----2----|--9--------7---------|--------------------|
--2----2----2----2----|--9--------7------7--|--L----L------------|
--0----0----0----0----|--7--------5------7--|--L----L------------|
----------------------|------------------5--|--L----L------------|


  B5        G        E5                         E5       D5     A5  
  Q    Q    Q     E  E     Q    H.              H        Q.     E   
------------------------|-------0------------|---------------------|
------------------------|-------0------------|---------------------|
--4----4----------------|--------------------|--9--------7---------|
--4----4-------------2--|--L----L------------|--9--------7------7--|
--2----2-------------2--|--L----L------------|--7--------5------7--|
------------3b----L--0--|--L----L------------|------------------5--|


                       B5                                                  
  Q    H.              E  E  E  E  E  E  E  E     E  E  E  E  E  E  E  E   
-------5------------|--------------------------|--------------------------|
-------5------------|--------------------------|--------------------------|
--------------------|--------------------------|-----------------------4--|
--L----L------------|--4--4--6-----4--4--6--4--|--L--4--6-----4--4--6--4--|
--L----L------------|--2--2--2-----2--2--2--2--|--L--2--2-----2--2--2-----|
--L----L------------|--------------------------|--------------------------|


  E5       D5     A5                         B5        G        E5  
  H        Q.     E     Q    H.              Q    Q    Q     E  E   
---------------------|-------5------------|------------------------|
---------------------|-------5------------|------------------------|
--9--------7---------|--------------------|--4----4----------------|
--9--------7------7--|--L----L------------|--4----4-------------2--|
--7--------5------7--|--L----L------------|--2----2-------------2--|
------------------5--|--L----L------------|------------3b----L--0--|


                       E5       D5     A5                       
  Q    H.              H        Q.     E     Q    H.            
-------0------------|---------------------|-------5------------|
-------0------------|---------------------|-------5------------|
--------------------|--9--------7---------|--------------------|
--L----L------------|--9--------7------7--|--L----L------------|
--L----L------------|--7--------5------7--|--L----L------------|
--L----L------------|------------------5--|--L----L------------|


  B5                                                    C#          C    B   A  
  E  E  E  E  E  E  E  E     E  E  E  E  E  E  E  E     E.   S Q    Q    E.  S  
--------------------------|--------------------------|-------------------------|
--------------------------|--------------------------|--6S---x------5----4---2-|
--4--4--4--4--4--4--4--4--|--4--4--4--4--4--4--4--4--|--6S---x------5----4---2-|
--4--4--4--4--4--4--4--4--|--4--4--4--4--4--4--4--4--|--6S---x------5----4---2-|
--2--2--2--2--2--2--2--2--|--2--2--2--2--2--2--2--2--|--4S---x------3----2-----|
--------------------------|--------------------------|-------------------------|


  F#5          A     E5 F#5        C#            C    B       F#5               
  E   E  S S S S S S E  E   S S    E.   S E  S S Q    Q       W                 
--------------------------------|--------------------------|-------------------|
---------------2-L-x------------|--6S---x----6-6-5----4----|-------------------|
---------------2-L-x------------|--6S---x----6-6-5----4----|-------------------|
--4---4--4-2-4-2-L-x-2--4-------|--6S---x----6-6-5----4----|--4----------------|
--4---4--4-2-4-------2--4---x-x-|--4S---x----4-4-3----2----|--4----------------|
---------------------0--2---x-x-|--------------------------|--2----------------|


  B5                         
  E  E  S S S S  E  E  Q     
----------------------------|
----------------------------|
--------------7~-L----------|
--9--9--9-7-9-7~-L--7--9----|
--9--9--9-7-9-------7--9----|
----------------------------|


  P.M. - - - - - - - - - - - - - - - - - - - -                        
  G5                                                             A5   
  E                                             E  E  E  E  E  S E.   
---------------------------------------------------------------------|
---------------------------------------------------------------------|
---------------------------------------------------------------------|
--5---------------------------------------------5--5--5--5--5--5-7---|
--5---------------------------------------------5--5--5--5--5--5-7---|
--3---------------------------------------------3--3--3--3--3--3-5---|


  B5                         
  E  E  S S S S  E  E  Q     
----------------------------|
----------------------------|
--------------7~-L----------|
--9--9--9-7-9-7~-L--7--9----|
--9--9--9-7-9-------7--9----|
----------------------------|


  P.M. - - - - - - - - - - - - - - - - - - - -                        
  G5                                                             A5   
  E                                             E  E  E  E  E  S E.   
---------------------------------------------------------------------|
---------------------------------------------------------------------|
---------------------------------------------------------------------|
--5---------------------------------------------5--5--5--5--5--5-7---|
--5---------------------------------------------5--5--5--5--5--5-7---|
--3---------------------------------------------3--3--3--3--3--3-5---|


  B5                         
  E  E  S S S S  E  E  Q     
----------------------------|
----------------------------|
--------------7~-L----------|
--9--9--9-7-9-7~-L--7--9----|
--9--9--9-7-9-------7--9----|
----------------------------|


  P.M. - - - - - - - - - - - - - - - - - - - -                        
  G5                                                             A5   
  E                                             E  E  E  E  E  S E.   
---------------------------------------------------------------------|
---------------------------------------------------------------------|
---------------------------------------------------------------------|
--5---------------------------------------------5--5--5--5--5--5-7---|
--5---------------------------------------------5--5--5--5--5--5-7---|
--3---------------------------------------------3--3--3--3--3--3-5---|


  B5                         
  E  E  S S S S  E  E  Q     
----------------------------|
----------------------------|
--------------7~-L----------|
--9--9--9-7-9-7~-L--7--9----|
--9--9--9-7-9-------7--9----|
----------------------------|


  P.M. - - - - - - - - - - - - - - - - - - - -                        
  G5                                                             A5   
  E                                             E  E  E  E  E  S E.   
---------------------------------------------------------------------|
---------------------------------------------------------------------|
---------------------------------------------------------------------|
--5---------------------------------------------5--5--5--5--5--5-7---|
--5---------------------------------------------5--5--5--5--5--5-7---|
--3---------------------------------------------3--3--3--3--3--3-5---|


  C#             C       B    A  
  S  S E  E  S S S S S S E  S S  
--------------------------------|
--6--6-------6-6-5-5---x-4--x-2-|
--6--6-------6-6-5-5---x-4--x-2-|
--6--6-------6-6-5-5---x-4--x-2-|
--4--4-------4-4-3-3---x-2--x---|
--------------------------------|


  P.M. - - - - - - - - -                            
  F#5                             A     E5 F#5      
  E                      E  S S S S S S E  E   S S  
---------------------------------------------------|
----------------------------------2-L--------------|
----------------------------------2-L--------------|
--4----------------------4--4-2-4-2-L-x-2--4-------|
--4----------------------4--4-2-4-----x-2--4---x-x-|
--------------------------------------x-0--2---x-x-|


                                             slide up        long slide
  C#             C       B        C#                                   
  S  S E  E  S S S S S S E.  S    E  E  E  S S        Q      Q         
-------------------------------|--------------------------------------|
--6--6-------6-6-5-5---x-4---4-|--------------------------------------|
--6--6-------6-6-5-5---x-4---4-|--------------------------------------|
--6--6-------6-6-5-5---x-4---4-|--------------------------------------|
--4--4-------4-4-3-3---x-2---2-|--4--4--4--5-4--------L---------------|
-------------------------------|---------------------------(19)S------|


  C#             C       B    A  
  S  S E  E  S S S S S S E  S S  
--------------------------------|
--6--6-------6-6-5-5---x-4--x-2-|
--6--6-------6-6-5-5---x-4--x-2-|
--6--6-------6-6-5-5---x-4--x-2-|
--4--4-------4-4-3-3---x-2--x---|
--------------------------------|


  P.M. - - - - - - - - -                            
  F#5                             A     E5 F#5      
  E                      E  S S S S S S E  E   S S  
---------------------------------------------------|
----------------------------------2-L--------------|
----------------------------------2-L--------------|
--4----------------------4--4-2-4-2-L-x-2--4-------|
--4----------------------4--4-2-4-----x-2--4---x-x-|
--------------------------------------x-0--2---x-x-|


  C#             C       B        A5 F#5    E5 F#5           
  S  S E  E  S S S S S S E.  S    E  E   E  S  S   H         
-------------------------------|----------------------------|
--6--6-------6-6-5-5---x-4---4-|----------------------------|
--6--6-------6-6-5-5---x-4---4-|--2-------------------------|
--6--6-------6-6-5-5---x-4---4-|--2--4---4--2--4---L--------|
--4--4-------4-4-3-3---x-2---2-|--0--4---4--2--4---L--------|
-------------------------------|-----2---2--0--2---L--------|


  D5       E5     B5                        C#5      E5     A5  
  H        Q.     E     W                   H        Q.     E   
---------------------|-------------------|---------------------|
---------------------|-------------------|---------------------|
--7--------9---------|-------------------|--6--------9---------|
--7--------9------9--|--L----------------|--6--------9------7--|
--5--------7------9--|--L----------------|--4--------7------7--|
------------------7--|--L----------------|------------------5--|


                        D5         C#5           B5         A5   G# A5  
  H.           E  E     Q    E  E  Q    E  E     Q    E  E  Q    E  E   
---------------------|------------------------|------------------------|
---------------------|------------------------|------------------------|
---------------x--x--|--7----x--x--6----x--x--|--4----x--x--2-------2--|
--L------------x--x--|--7----x--x--6----x--x--|--4----x--x--2-------2--|
--L------------x--x--|--5----x--x--4----x--x--|--2----x--x--0-------0--|
--L------------------|------------------------|------------------4-----|


                                                D5       E5     B5  
  Q    Q    Q    Q       Q    Q    Q    Q       H        Q.     E   
----------------------|----------------------|---------------------|
----------------------|----------------------|---------------------|
--L----2----2----2----|--2----2----2---------|--7--------9---------|
--L----2----2----2----|--2----2----2---------|--7--------9------9--|
--L----0----0----0----|--0----0----0---------|--5--------7------9--|
----------------------|----------------------|------------------7--|


                      C#5      E5     A5                        
  W                   H        Q.     E     H.           E  E   
-------------------|---------------------|---------------------|
-------------------|---------------------|---------------------|
-------------------|--6--------9---------|---------------x--x--|
--L----------------|--6--------9------4--|--L------------x--x--|
--L----------------|--4--------7------4--|--L------------x--x--|
--L----------------|------------------2--|--L------------------|


  D5         C#5           B5         A5   G# A5                         
  Q    E  E  Q    E  E     Q    E  E  Q    E  E     Q    Q    Q    Q     
------------------------|------------------------|----------------------|
------------------------|------------------------|----------------------|
--7----x--x--6----x--x--|--4----x--x--2-------2--|--L----2----2----2----|
--7----x--x--6----x--x--|--4----x--x--2-------2--|--L----2----2----2----|
--5----x--x--4----x--x--|--2----x--x--0-------0--|--L----0----0----0----|
------------------------|------------------4-----|----------------------|


                           G#5 A5       G#5 A5        
  Q    Q    Q    Q         E   E  E  E  E   E  E  E   
----------------------||-----------------------------|
----------------------||-----------------------------|
--2----2----2----2----||*----------------------------|
--2----2----2----2----||*--6S--7--7--7--6S--7--7--7--|
--0----0----0----0----||---6S--7--7--7--6S--7--7--7--|
----------------------||---4S--5--5--5--4S--5--5--5--|


  G#5 A5          C5                                                
  E   E  E  E  E  Q.      4x  W                   W                 
--------------------------||-------------------|-------------------|
--------------------------||-------------------|-------------------|
------------------5------*||-------------------|-------------------|
--6S--7--7--7-----5------*||-------------------|-------------------|
--6S--7--7--7-----3-------||-------------------|-------------------|
--4S--5--5--5-------------||-------------------|-------------------|


  Q    Q    H          
---------------------||
---------------------||
--2------------------||
--2------------------||
--0------------------||
---------------------||










Guitar # 3 (Slash):


      Q       W                   W                   W                 
D#||-------|-------------------|-------------------|-------------------|
A#||-------|-------------------|-------------------|-------------------|
F#||-------|-------------------|-------------------|-------------------|
C#||-------|-------------------|-------------------|-------------------|
G#||-------|-------------------|-------------------|-------------------|
D#||-------|-------------------|-------------------|-------------------|


                                                           w/clean tone     
  W                   W                   H        Q    E  S            S   
-------------------|-------------------|-----------------------------------|
-------------------|-------------------|-----------------------------------|
-------------------|-------------------|-------------------2h-----------4b-|
-------------------|-------------------|-----------------------------------|
-------------------|-------------------|-----------------------------------|
-------------------|-------------------|-----------------------------------|


  H        S E.  S    S S S    W                      W                 
----------------------------|--------------------||--------------------|
----------------------------|--5b----------------||--------------------|
--L--------L-L---4pbr-L-2-4-|--------------------||*-------------------|
----------------------------|--------------------||*-------------------|
----------------------------|--------------------||--------------------|
----------------------------|--------------------||--------------------|


                        distortion         P.M. - - - - -        
                        C#            C    B                  A  
  W                     Q.         E  Q    S              S S S  
--------------------||------------------------------------------|
--------------------||------------------------------------------|
-------------------*||------------------------------------------|
-------------------*||------------------------------------------|
--------------------||--8----------8--7----6--------------7-6-4-|
--------------------||------------------------------------------|


                                                P.M. - - - -        
  F#5          A      E5 F#5     C#        C    B                A  
  E   E  S S S S  S S E  Q       Q.     E  Q    S            S S S  
------------------------------|------------------------------------|
------------------------------|------------------------------------|
------------------------------|------------------------------------|
------------------------------|------------------------------------|
---------------4~-L-4---------|--8------8--7----6------------7-6-4-|
--6---6--6-4-6--------5--6----|------------------------------------|


  F#5                                                          
  H          H           W                   W                 
----------------------|-------------------|-------------------|
----------------------|-------------------|-------------------|
----------------------|-------------------|-------------------|
--4br--------L--------|-------------------|-------------------|
----------------------|-------------------|-------------------|
----------------------|-------------------|-------------------|


  W                   W                   W                   W                 
-------------------|-------------------|-------------------|-------------------|
-------------------|-------------------|-------------------|-------------------|
-------------------|-------------------|-------------------|-------------------|
-------------------|-------------------|-------------------|-------------------|
-------------------|-------------------|-------------------|-------------------|
-------------------|-------------------|-------------------|-------------------|


  W                   W                   W                   W                 
-------------------|-------------------|-------------------|-------------------|
-------------------|-------------------|-------------------|-------------------|
-------------------|-------------------|-------------------|-------------------|
-------------------|-------------------|-------------------|-------------------|
-------------------|-------------------|-------------------|-------------------|
-------------------|-------------------|-------------------|-------------------|


  W                   W                   W                   W                 
-------------------|-------------------|-------------------|-------------------|
-------------------|-------------------|-------------------|-------------------|
-------------------|-------------------|-------------------|-------------------|
-------------------|-------------------|-------------------|-------------------|
-------------------|-------------------|-------------------|-------------------|
-------------------|-------------------|-------------------|-------------------|


  W                   W                   W                   W                 
-------------------|-------------------|-------------------|-------------------|
-------------------|-------------------|-------------------|-------------------|
-------------------|-------------------|-------------------|-------------------|
-------------------|-------------------|-------------------|-------------------|
-------------------|-------------------|-------------------|-------------------|
-------------------|-------------------|-------------------|-------------------|


                 P.M. - - - - -        
  C#        C    B                  A  
  Q.     E  Q    S              S S S  
--------------------------------------|
--------------------------------------|
--------------------------------------|
--------------------------------------|
--8------8--7----6--------------7-6-4-|
--------------------------------------|


  bends and rebends                           don't hit                     
  F#5                                                                       
  S                 S S S S S S S S S S S E   E           W                 
-------------------------------------------------------|-------------------|
--4brb--------------L-L-L-L-L-L-L-L-L-L-L-L--(4)S------|-------------------|
--4b----------------L-L-L-L-L-L-L-L-L-L-L-L--(4)S------|-------------------|
-------------------------------------------------------|-------------------|
-------------------------------------------------------|-------------------|
-------------------------------------------------------|-------------------|


  W                   W                   W                   W                 
-------------------|-------------------|-------------------|-------------------|
-------------------|-------------------|-------------------|-------------------|
-------------------|-------------------|-------------------|-------------------|
-------------------|-------------------|-------------------|-------------------|
-------------------|-------------------|-------------------|-------------------|
-------------------|-------------------|-------------------|-------------------|


  W                   W                   W                   W                 
-------------------|-------------------|-------------------|-------------------|
-------------------|-------------------|-------------------|-------------------|
-------------------|-------------------|-------------------|-------------------|
-------------------|-------------------|-------------------|-------------------|
-------------------|-------------------|-------------------|-------------------|
-------------------|-------------------|-------------------|-------------------|


  W                   W                   W                   W                 
-------------------|-------------------|-------------------|-------------------|
-------------------|-------------------|-------------------|-------------------|
-------------------|-------------------|-------------------|-------------------|
-------------------|-------------------|-------------------|-------------------|
-------------------|-------------------|-------------------|-------------------|
-------------------|-------------------|-------------------|-------------------|


  H        Q    E  E      E  E  E  E  E   E  E  E   
-----------------------|--------5---------5--------|
-----------------------|-----5-----5--8b-----8--5--|
-------------------7b--|--L------------------------|
-----------------------|---------------------------|
-----------------------|---------------------------|
-----------------------|---------------------------|


       PO                                                             
  |---3---|                                                           
  E    E  E  E  E  H            W                   W                 
-----------------------------|-------------------|-------------------|
-----------------------------|-------------------|-------------------|
--7br--L--5--7--5------------|-------------------|-------------------|
-------------------7~--------|-------------------|-------------------|
-----------------------------|-------------------|-------------------|
-----------------------------|-------------------|-------------------|


  W                   W                   W                   W                 
-------------------|-------------------|-------------------|-------------------|
-------------------|-------------------|-------------------|-------------------|
-------------------|-------------------|-------------------|-------------------|
-------------------|-------------------|-------------------|-------------------|
-------------------|-------------------|-------------------|-------------------|
-------------------|-------------------|-------------------|-------------------|


  W                   W                   W                   W                 
-------------------|-------------------|-------------------|-------------------|
-------------------|-------------------|-------------------|-------------------|
-------------------|-------------------|-------------------|-------------------|
-------------------|-------------------|-------------------|-------------------|
-------------------|-------------------|-------------------|-------------------|
-------------------|-------------------|-------------------|-------------------|


  W                   W                   W                   W                 
-------------------|-------------------|-------------------|-------------------|
-------------------|-------------------|-------------------|-------------------|
-------------------|-------------------|-------------------|-------------------|
-------------------|-------------------|-------------------|-------------------|
-------------------|-------------------|-------------------|-------------------|
-------------------|-------------------|-------------------|-------------------|


  W                   W                   W                   W                 
-------------------|-------------------|-------------------|-------------------|
-------------------|-------------------|-------------------|-------------------|
-------------------|-------------------|-------------------|-------------------|
-------------------|-------------------|-------------------|-------------------|
-------------------|-------------------|-------------------|-------------------|
-------------------|-------------------|-------------------|-------------------|


  W                   W                   W                   W                 
-------------------|-------------------|-------------------|-------------------|
-------------------|-------------------|-------------------|-------------------|
-------------------|-------------------|-------------------|-------------------|
-------------------|-------------------|-------------------|-------------------|
-------------------|-------------------|-------------------|-------------------|
-------------------|-------------------|-------------------|-------------------|


  W                   W                   W                   W                 
-------------------|-------------------|-------------------|-------------------|
-------------------|-------------------|-------------------|-------------------|
-------------------|-------------------|-------------------|-------------------|
-------------------|-------------------|-------------------|-------------------|
-------------------|-------------------|-------------------|-------------------|
-------------------|-------------------|-------------------|-------------------|


  W                   W                   W                   W                 
-------------------|-------------------|-------------------|-------------------|
-------------------|-------------------|-------------------|-------------------|
-------------------|-------------------|-------------------|-------------------|
-------------------|-------------------|-------------------|-------------------|
-------------------|-------------------|-------------------|-------------------|
-------------------|-------------------|-------------------|-------------------|


  W                   W                   W                   W                 
-------------------|-------------------|-------------------|-------------------|
-------------------|-------------------|-------------------|-------------------|
-------------------|-------------------|-------------------|-------------------|
-------------------|-------------------|-------------------|-------------------|
-------------------|-------------------|-------------------|-------------------|
-------------------|-------------------|-------------------|-------------------|


  W                   W                   W                   W                 
-------------------|-------------------|-------------------|-------------------|
-------------------|-------------------|-------------------|-------------------|
-------------------|-------------------|-------------------|-------------------|
-------------------|-------------------|-------------------|-------------------|
-------------------|-------------------|-------------------|-------------------|
-------------------|-------------------|-------------------|-------------------|


  W                   W                   W                   W                 
-------------------|-------------------|-------------------|-------------------|
-------------------|-------------------|-------------------|-------------------|
-------------------|-------------------|-------------------|-------------------|
-------------------|-------------------|-------------------|-------------------|
-------------------|-------------------|-------------------|-------------------|
-------------------|-------------------|-------------------|-------------------|


  W                   W                   W                   W                 
-------------------|-------------------|-------------------|-------------------|
-------------------|-------------------|-------------------|-------------------|
-------------------|-------------------|-------------------|-------------------|
-------------------|-------------------|-------------------|-------------------|
-------------------|-------------------|-------------------|-------------------|
-------------------|-------------------|-------------------|-------------------|


  W                   W                   W                 
-------------------|-------------------|-------------------|
-------------------|-------------------|-------------------|
-------------------|-------------------|-------------------|
-------------------|-------------------|-------------------|
-------------------|-------------------|-------------------|
-------------------|-------------------|-------------------|


  H        Q    E  E      E  E  E  E  E   E  E  E   
-----------------------|--------5---------5--------|
-----------------------|-----5-----5--8b-----8--5--|
-------------------7b--|--L------------------------|
-----------------------|---------------------------|
-----------------------|---------------------------|
-----------------------|---------------------------|


       PO                                                             
  |---3---|                                                           
  E    E  E  E  E  H            W                   W                 
-------------------5~--------|-------------------|-------------------|
-----------------------------|-------------------|-------------------|
--7br--L--5--7--5------------|-------------------|-------------------|
-----------------------------|-------------------|-------------------|
-----------------------------|-------------------|-------------------|
-----------------------------|-------------------|-------------------|


  W                   W                   W                   W                 
-------------------|-------------------|-------------------|-------------------|
-------------------|-------------------|-------------------|-------------------|
-------------------|-------------------|-------------------|-------------------|
-------------------|-------------------|-------------------|-------------------|
-------------------|-------------------|-------------------|-------------------|
-------------------|-------------------|-------------------|-------------------|


  W                   W                     W                 
-------------------|-------------------||--------------------|
-------------------|-------------------||--------------------|
-------------------|-------------------||*-------------------|
-------------------|-------------------||*-------------------|
-------------------|-------------------||--------------------|
-------------------|-------------------||--------------------|


  W                 4x  W                   W                 
--------------------||-------------------|-------------------|
--------------------||-------------------|-------------------|
-------------------*||-------------------|-------------------|
-------------------*||-------------------|-------------------|
--------------------||-------------------|-------------------|
--------------------||-------------------|-------------------|


  W                  
-------------------||
-------------------||
-------------------||
-------------------||
-------------------||
-------------------||






Duration Legend
---------------
W - whole
H - half
Q - quarter
E - 8th
S - 16th
T - 32nd
X - 64th
. - note dotted
|-n-|  - n-tuplets


Tablature Legend
----------------
L - tied note
x - dead note
g - grace note
(n) - ghost note
> - accentuded note
NH - natural harmonic
AH - artificial harmonic
TH - tapped harmonic
SH - semi harmonic
PH - pitch harmonic
h - hammer on
p - pull off
b - bend
br - bendRelease
pb - preBend
pbr - preBendRelease
brb - bendReleaseBend
\n/ - tremolo bar dip
\n - tremolo bar dive
-/n - tremolo bar Release up
/n\ - tremolo bar inverted dip
/n - tremolo bar return
-\n - tremolo bar Release down
S - shift slide
s - legato slide
/ -  slide into from below or out of upwards
\ -  slide into from above or out of downwards
~ - vibrato
W - wide vibrato
tr - trill
TP - tremolo picking
T - tapping
S - slap
P - pop
< - fade in
^ - brush up
v - brush down
comments
print report bad tab
1 comment total.
0 reply
aaciseric wrote on July 5 2008, 07:19 am

This is the same as the last version.

I want to post or [tab]
guest
You may want to rate the tab now too:
select rating
Please do not post tabs as comments. Select "correction" instead!