Oops, an error
Loading. Please wait.

Nightrain Tab

ver3
ver3
More versions @911Tabs.com
8,747 views 15 this week
7 commentsread comments
1 2 3 4 5
accurate
x 10
Autoscroll
+/-
esc
set tempo
stop
Contributor
WARNING: You are trying to view
                                    content from Ultimate-Guitar.com
                                    in an unauthorized application,
                                    which is prohibited.

                                    Please use an official Ultimate
                                    Guitar Tabs application for iPhone,
                                    iPad or Android to access legitimate
                                    chords, guitar, bass, and drum tabs
                                    from Ultimate-Guitar.com database.

                                    Type "ultimate guitar tabs" in Apple
                                    App Store's or Android Market's
                                    search to find the application.
                                NIGHTRAIN
                       As recorded by Guns'N'Roses


Written By Paul Bell


 

 

Gtr I (D# G# C# F# A# D#) - 'Gtr. 1'
Gtr II (D# G# C# F# A# D#) - 'Gtr. 2'


  Q=148
 4/4
  Gtr II
  W          W          +H.         E E   +E  E Q   Q   Q
|----------|----------|-----------------|-------------------|
|----------|----------|---------------8-|-(8)-8-7---7---5---|
|----------|----------|---------------9-|-(9)-9-7---7---5---|
|----------|-7--------|-(7)-----------7-|-(7)-7-7---7---5---|
|----------|-7--------|-(7)---------0---|-------------------|
|----------|-5--------|-(5)-------------|-------------------|
|
| Gtr I
| W          W          +H     +Q   E E   +E  E E E E E Q
|----------|----------|-------------x-3-|-(3)-3-2p0-----0---|
|----------|----------|-----------------|---------0-7s5-5---|
|----------|-2--------|-(2)----(2)------|-------------------|
|----------|-2--------|-(2)----(2)------|-------------------|
|----------|-0--------|-(0)----(0)------|-------------------|
|----------|----------|-----------------|-------------------|


   H.      E E   +E  E Q  Q   E E   H.      E E   +E  E Q  Q  Q
|--------------|----------------1-|-1---------3-|-(3)------------|
|--5-------x-5-|-(5)-5-3--3-----1-|-1---------3-|-(3)-3-3--3--3--|
|--5-------x-5-|-(5)-5-4--4-----2-|-2---------0-|-(0)-0-4--5--4--|
|--5-------x-5-|-(5)-5-5--5---3---|---------3s5-|-(5)-5-5--5--5--|
|--------------|------------------|-------------|----------------|
|--------------|------------------|-------------|----------------|
|
| +H.      E E   +E  E Q  E E Q     H.      E E   +E  E Q  Q  Q
|-(0)--------0-|-(0)-0-0--0-------|-------------|----------------|
|-(5)------3s5-|-(5)-5-3--3s1-1---|-1-------x-3-|-(3)-3s1--1--0--|
|--------------|------------------|-------------|----------------|
|--------------|------------------|-------------|----------------|
|--------------|------------------|-------------|----------------|
|--------------|------------------|-------------|----------------|


  Q  Q  Q  E E   +W           +H     +E  E E E   +E  E Q   Q   Q
|--------------|------------|------------------|------------------|
|-3--3---------|------------|----------------8-|-(8)-8-7---7---5--|
|-5--4--2--0-2-|-(2)--------|-(2)----(2)-2-x-9-|-(9)-9-7---7---5--|
|-5--5--2--0-2-|-(2)--------|-(2)----(2)-2-x-7-|-(7)-7-7---7---5--|
|------------0-|-(0)--------|-(0)----(0)-0-x---|------------------|
|--------------|------------|------------------|------------------|
|
| Q  Q  Q  E E   +W           +H.          E E   +E  E E E E E Q
|--------------|------------|------------------|-----3-2p0-----0--|
|-1--0---------|------------|--------------x-8-|-(8)-----0-7s5-5--|
|-------2--0-2-|-(2)--------|-(2)--------------|------------------|
|--------------|------------|------------------|------------------|
|--------------|------------|------------------|------------------|
|--------------|------------|------------------|------------------|


   H.      E E   +E  E Q  Q   E E   H.      E E   +E  E Q  Q  Q
|--------------|----------------1-|-1---------3-|-(3)------------|
|--5-------x-5-|-(5)-5-3--3-----1-|-1---------3-|-(3)-3-3--3--3--|
|--5-------x-5-|-(5)-5-4--4-----2-|-2---------0-|-(0)-0-4--5--4--|
|--5-------x-5-|-(5)-5-5--5---3---|---------3s5-|-(5)-5-5--5--5--|
|--------------|------------------|-------------|----------------|
|--------------|------------------|-------------|----------------|
|
| +H.      E E   +E  E Q  E E Q     H.      E E   +E  E Q  Q  Q
|-(0)--------0-|-(0)-0-0--0-------|-------------|----------------|
|-(5)------3s5-|-(5)-5-3--3s1-1---|-1-------x-3-|-(3)-3s1--1--0--|
|--------------|------------------|-------------|----------------|
|--------------|------------------|-------------|----------------|
|--------------|------------------|-------------|----------------|
|--------------|------------------|-------------|----------------|


  Q  Q  Q  E E   +W           +H     +E  E E E   +Q    Q   E E E E
|--------------|------------|------------------|-------------------|
|-3--3---------|------------|------------------|-------------------|
|-5--4--2--0-2-|-(2)--------|-(2)----(2)-2---2-|-(2)---2---2-----2-|
|-5--5--2--0-2-|-(2)--------|-(2)----(2)-2---2-|-(2)---2---2-----2-|
|------------0-|-(0)--------|-(0)----(0)-0---0-|-(0)---0---0-----0-|
|--------------|------------|--------------3---|-------------0-3---|
|
| Q  Q  Q  E E    W            W                  E  E E E E E E E
|--------------|------------|------------------|-------------------|
|-1--0---------|------------|------------------|-------------------|
|-------2--0-2-|--2---------|------------------|-----x-2---2-2-2-2-|
|--------------|------------|------------------|-----x-2---2-2-2-2-|
|--------------|------------|------------------|-----x-0---0-0-0-0-|
|--------------|------------|------------------|-------------------|


  +Q    Q   E E E E      +E  +E   E E E E E E
|----------------------|----------------------|
|----------------------|----------------------|
|-(2)---2---2----------|----------------2---2-|
|-(2)---2---2----------|----------------2---2-|
|-(0)---0---0-----3b4==|=(3)-(3)r-0-----0---0-|
|-------------0-3------|------------0-3---3---|
|
| +E  E E E E E E E      +E   E   E E E E E E
|----------------------|----------------------|
|----------------------|----------------------|
|-(2)-x-2---2-2-2-2----|-(2)--x---2---2-2-2-2-|
|-(2)-x-2---2-2-2-2----|-(2)--x---2---2-2-2-2-|
|-(0)-x-0---0-0-0-0----|-(0)--x---0---0-0-0-0-|
|----------------------|----------------------|


  +Q    Q   E E E E   +Q    Q   E E E E
|-------------------|-------------------|
|-------------------|-------------------|
|-(2)---2---2-----2-|-(2)---2---2-----2-|
|-(2)---2---2-----2-|-(2)---2---2-----2-|
|-(0)---0---0-----0-|-(0)---0---0-----0-|
|-------------0-3---|-------------0-3---|
|
| +E  E E E E E E E   +E  E E E E E E E
|-------------------|-------------------|
|-------------------|-------------------|
|-(2)-x-2---2-2-2-2-|-(2)-x-2---2-2-2-2-|
|-(2)-x-2---2-2-2-2-|-(2)-x-2---2-2-2-2-|
|-(0)-x-0---0-0-0-0-|-(0)-x-0---0-0-0-0-|
|-------------------|-------------------|


  +Q    Q   E E E E      +E.   +S   E E E E E E
|----------------------|------------------------|
|----------------------|------------------------|
|-(2)---2---2----------|------------2-----2---2-|
|-(2)---2---2----------|------------2-----2---2-|
|-(0)---0---0-----3b4==|=(3)---(3)r-0-----0---0-|
|-------------0-3------|--------------0-3---3---|
|
| +E  E E E E E E E      +E  E      E E E E E E
|----------------------|------------------------|
|----------------------|------------------------|
|-(2)-x-2---2-2-2-2----|-(2)-x------2---2-2-2-2-|
|-(2)-x-2---2-2-2-2----|-(2)-x------2---2-2-2-2-|
|-(0)-x-0---0-0-0-0----|-(0)-x------0---0-0-0-0-|
|----------------------|------------------------|


  +H        S   +S  E E E   +Q    Q   E E E E
|-------------------------|-------------------|
|-------------------------|-------------------|
|-(2)-------7b9r(7)-7-5-2-|-(2)---2---2-----2-|
|-(2)-------------------2-|-(2)---2---2-----2-|
|-(0)-------------------0-|-(0)---0---0-----0-|
|-------------------------|-------------0-3---|
|
| +E  E E E E       E E E   +E  E E E E E E E
|-------------------------|-------------------|
|-------------------------|-------------------|
|-(2)-x-2---2-------2-2-2-|-(2)-x-2---2-2-2-2-|
|-(2)-x-2---2-------2-2-2-|-(2)-x-2---2-2-2-2-|
|-(0)-x-0---0-------0-0-0-|-(0)-x-0---0-0-0-0-|
|-------------------------|-------------------|


  +Q    Q   E E E E      +E   E Q   E E E E
|----------------------|--------------------|
|----------------------|--------------------|
|-(2)---2---2----------|--------2---2-----2-|
|-(2)---2---2----------|--------2---2-----2-|
|-(0)---0---0-----3b4==|=(3)r-0-0---0-----0-|
|-------------0-3------|--------------3-0---|
|
| +E  E E E E E E E      +E   E E E E E E E
|----------------------|--------------------|
|----------------------|--------------------|
|-(2)-x-2---2-2-2-2----|-(2)--x-2---2-2-2-2-|
|-(2)-x-2---2-2-2-2----|-(2)--x-2---2-2-2-2-|
|-(0)-x-0---0-0-0-0----|-(0)--x-0---0-0-0-0-|
|----------------------|--------------------|


  +Q    Q   E E E E   +Q    Q   E E E E
|-------------------|----------------------|
|-------------------|----------------------|
|-(2)---2---2-----2-|-(2)---2---2----------|
|-(2)---2---2-----2-|-(2)---2---2----------|
|-(0)---0---0-----0-|-(0)---0---0-----3b4==|
|-------------0-3---|-------------0-3------|
|
| +E  E E E E E E E   +E  E E E E E E E
|-------------------|----------------------|
|-------------------|----------------------|
|-(2)-x-2---2-2-2-2-|-(2)-x-2---2-2-2-2----|
|-(2)-x-2---2-2-2-2-|-(2)-x-2---2-2-2-2----|
|-(0)-x-0---0-0-0-0-|-(0)-x-0---0-0-0-0----|
|-------------------|----------------------|


  +E   E Q   E E E E   +W           +H     E E Q     +Q   Q   E E E E
|------------------2-|-(2)--------|-(2)--------0---|-(0)--0-------0---|
|------------------3-|-(3)--------|-(3)------7s8---|-(8)--7---7s5-5s3-|
|--------2---2-----2-|-(2)--------|-(2)------------|------------------|
|--------2---2-----0-|-(0)--------|-(0)------------|------------------|
|-(3)r-0-0---0-------|------------|----------------|------------------|
|--------------3-0---|------------|----------------|------------------|
|
| +E   E E E E E E E   +W           +H     Q   E E   +Q   E E E E E E
|------------------2-|-(2)--------|-(2)------------|------------------|
|------------------3-|-(3)--------|-(3)----------8-|-(8)--7p5-7s5-5p3-|
|-(2)--x-2---2-2-2-2-|-(2)--------|-(2)----------9-|-(9)--7p5-7s5-5p4-|
|-(2)--x-2---2-2-2-0-|-(0)--------|-(0)----------7-|-(7)--------------|
|-(0)--x-0---0-0-0---|------------|----------------|------------------|
|--------------------|------------|----------------|------------------|


  Q  E E E E E E   +W
|-0--0---0-------|-----------------------|
|-5--3s1-1-------|-----------------------|
|----------2-0-2-|-(2)-------------------|
|----------2-0-2-|-(2)-------------------|
|--------------0-|-(0)-------------------|
|----------------|-----------------------|
|
|              ~~~~~~~~
| Q  Q   E E E E   +Q    Q    +E    Q.
|----------------|-----------------------|
|-1--0-----------|-----------------------|
|-2--0---2-0---2-|-(2)--[2]--([2])-[2]---|
|------------2---|-----------------------|
|----------------|-----------------------|
|----------------|-----------------------|


  +Q   E  E   +Q     E  E   +Q    Q   E E E E
|-------------------------|-------------------|
|-------------------------|-------------------|
|-(2)--x-14--(14)----x--2-|-(2)---2---2-----2-|
|-(2)--x-14--(14)----x--2-|-(2)---2---2-----2-|
|-(0)--x-12--(12)----x--0-|-(0)---0---0-----0-|
|-------------------------|-------------0-3---|
|
|  Q.    +E    Q    +E  E   +E  E E E E E E E
|-------------------------|-------------------|
|-------------------------|-------------------|
|--2-----(2)---2b7r=(2)---|-----x-2---2-2-2-2-|
|-----------------------7-|-(7)-x-2---2-2-2-2-|
|-----------------------7-|-(7)-x-0---0-0-0-0-|
|-----------------------5-|-(5)---------------|


  +Q    Q   E E E E      +E  +E   E E E E E E
|----------------------|----------------------|
|----------------------|----------------------|
|-(2)---2---2----------|----------------2---2-|
|-(2)---2---2----------|----------------2---2-|
|-(0)---0---0-----3b4==|=(3)-(3)r-0-----0---0-|
|-------------0-3------|------------0-3---3---|
|
| +E  E E E E E E E      +E   E   E E E E E E
|----------------------|----------------------|
|----------------------|----------------------|
|-(2)-x-2---2-2-2-2----|-(2)--x---2---2-2-2-2-|
|-(2)-x-2---2-2-2-2----|-(2)--x---2---2-2-2-2-|
|-(0)-x-0---0-0-0-0----|-(0)--x---0---0-0-0-0-|
|----------------------|----------------------|


  +Q    Q   E E E E   +Q    Q   E E E E
|-------------------|-------------------|
|-------------------|-------------------|
|-(2)---2---2-----2-|-(2)---2---2-----2-|
|-(2)---2---2-----2-|-(2)---2---2-----2-|
|-(0)---0---0-----0-|-(0)---0---0-----0-|
|-------------0-3---|-------------0-3---|
|
| +E  E E E E E E E   +E  E E E E E E E
|-------------------|-------------------|
|-------------------|-------------------|
|-(2)-x-2---2-2-2-2-|-(2)-x-2---2-2-2-2-|
|-(2)-x-2---2-2-2-2-|-(2)-x-2---2-2-2-2-|
|-(0)-x-0---0-0-0-0-|-(0)-x-0---0-0-0-0-|
|-------------------|-------------------|


  +E  E Q   E E E E   +W           +H.       E  E   +E  E Q   Q   Q
|-----------------2-|-(2)--------|-(2)------------|------------------|
|-----------------3-|-(3)--------|-(3)----------8-|-(8)-8-7---7---5--|
|-(2)---2---2-----2-|-(2)--------|-(2)----------9-|-(9)-9-7---7---5--|
|-(2)---2---2-----0-|-(0)--------|-(0)----------7-|-(7)-7-7---7---5--|
|-(0)-0-0---0-------|------------|----------------|------------------|
|-------------3-0---|------------|----------------|------------------|
|
| +E  E E E E E E E   +W           +H.      +E  E   +E  E E E E E Q
|-----------------2-|-(2)--------|-(2)------(2)-3-|-(3)-3-2p0-----0--|
|-----------------3-|-(3)--------|-(3)------(3)---|---------0-7s5-5--|
|-(2)-x-2---2-2-2-2-|-(2)--------|-(2)------(2)---|------------------|
|-(2)-x-2---2-2-2-0-|-(0)--------|-(0)------(0)---|------------------|
|-(0)-x-0---0-0-0---|------------|----------------|------------------|
|-------------------|------------|----------------|------------------|


   H.      E E   +E  E Q  Q   E E   H.      E E   +E  E Q  Q  Q
|--------------|----------------1-|-1---------3-|-(3)------------|
|--5-------x-5-|-(5)-5-3--3-----1-|-1---------3-|-(3)-3-3--3--3--|
|--5-------x-5-|-(5)-5-4--4-----2-|-2---------0-|-(0)-0-4--5--4--|
|--5-------x-5-|-(5)-5-5--5---3---|---------3s5-|-(5)-5-5--5--5--|
|--------------|------------------|-------------|----------------|
|--------------|------------------|-------------|----------------|
|
| +H.      E E   +E  E Q  E E Q     H.      E E   +E  E Q  Q  Q
|-(0)--------0-|-(0)-0-0--0-------|-------------|----------------|
|-(5)------3s5-|-(5)-5-3--3s1-1---|-1-------x-3-|-(3)-3s1--1--0--|
|--------------|------------------|-------------|----------------|
|--------------|------------------|-------------|----------------|
|--------------|------------------|-------------|----------------|
|--------------|------------------|-------------|----------------|


  Q  Q  Q  E E   E E E E E E E E   E E E E E E E E   +E  E E     E E     E E E
|--------------|-----------------|-----------------|---------------------------|
|-3--3---------|-----------------|-----------------|---------------------------|
|-5--4--2--0-2-|-----------------|---------------2-|-(2)---------------------2-|
|-5--5--2--0-2-|-5-5-5-5-5-5-5-5-|-5-5-5-5-5-2-5-2-|-(2)---------2-------2---2-|
|------------0-|-5-5-5-5-5-5-5-5-|-5-5-5-5-5-2-5-0-|-(0)-0-3b3.5-0-3b3.5-0---0-|
|--------------|-3-3-3-3-3-3-3-3-|-3-3-3-3-3-0-3---|-----------------------3---|
|
| Q  Q  Q  E E   E E E E E E E E   E E E E E E E E   +E  E E     E E     E E E
|--------------|-----------------|-----------------|---------------------------|
|-1--0---------|-----------------|-----------------|---------------------------|
|-------2--0-2-|-----------------|-----------------|-------------------------2-|
|--------------|-5-5-5-5-5-5-5-5-|-5-5-5-5-5-2-5-7-|-(7)---------2-------2---2-|
|--------------|-5-5-5-5-5-5-5-5-|-5-5-5-5-5-2-5-7-|-(7)-0-3b3.5-0-3b3.5-0---0-|
|--------------|-3-3-3-3-3-3-3-3-|-3-3-3-3-3-0-3-5-|-(5)-------------------3---|


  Gtrs I, II
  +E  E E     E E     E E E   +E  E E     E E     E E E
|---------------------------|---------------------------|
|---------------------------|---------------------------|
|-(2)---------------------2-|-(2)---------------------2-|
|-(2)---------2-------2---2-|-(2)---------2-------2---2-|
|-(0)-0-3b3.5-0-3b3.5-0---0-|-(0)-0-3b3.5-0-3b3.5-0---0-|
|-----------------------3---|-----------------------3---|


  +E  E E     E E     E E E   +E  E E     E E     E E E
|---------------------------|---------------------------|
|---------------------------|---------------------------|
|-(2)---------------------2-|-(2)---------------------2-|
|-(2)---------2-------2---2-|-(2)---------2-------2---2-|
|-(0)-0-3b3.5-0-3b3.5-0---0-|-(0)-0-3b3.5-0-3b3.5-0---0-|
|-----------------------3---|-----------------------3---|


                          ~~~~~~~~            ~~~
  +E  E E     E E     E E E   +E  E E E E E E E
|---------------------------|-------------------|
|---------------------------|-------------------|
|-(2)-----------------------|-------------------|
|-(2)---------2-------------|-------------------|
|-(0)-0-3b3.5-0-3b3.5-0-----|-------3-2-3-2-0---|
|-----------------------3-1-|-(1)-1-----------3-|


 ~~~~~
  +E  E E E E E E E   +E  E E     E E     E E E
|-------------------|---------------------------|
|-------------------|---------------------------|
|-----------------2-|-(2)---------------------2-|
|-----------------2-|-(2)---------2-------2---2-|
|-------3-2-3-2---0-|-(0)-0-3b3.5-0-3b3.5-0---0-|
|-(3)-3---------3---|-----------------------3---|


  +E  E E     E E     E E E   +E  E E     E E     E E E
|---------------------------|---------------------------|
|---------------------------|---------------------------|
|-(2)---------------------2-|-(2)---------------------2-|
|-(2)---------2-------2---2-|-(2)---------2-------2---2-|
|-(0)-0-3b3.5-0-3b3.5-0---0-|-(0)-0-3b3.5-0-3b3.5-0---0-|
|-----------------------3---|-----------------------3---|


  +E  E E     E E     E E E   +E  E E     E E     E E E
|---------------------------|---------------------------|
|---------------------------|---------------------------|
|-(2)---------------------2-|-(2)---------------------2-|
|-(2)---------2-------2---2-|-(2)---------2-------2---2-|
|-(0)-0-3b3.5-0-3b3.5-0---0-|-(0)-0-3b3.5-0-3b3.5-0---0-|
|-----------------------3---|-----------------------3---|


  Gtr II
  +E  E E     E E     E E E   +W
|---------------------------|------------|
|-------------------------3-|-(3)--------|
|-(2)---------------------2-|-(2)--------|
|-(2)---------2-------2---0-|-(0)--------|
|-(0)-0-3b3.5-0-3b3.5-0-----|------------|
|-----------------------3---|------------|
|
| Gtr I
| +E  E E     E E     E E E   +W
|---------------------------|------------|
|-------------------------3-|-(3)--------|
|-(2)---------------------2-|-(2)--------|
|-(2)---------2-------2---0-|-(0)--------|
|-(0)-0-3b3.5-0-3b3.5-0-----|------------|
|-----------------------3---|------------|


    H.      E E   +E  E E    E E    E E E
|---------------|-------------------------|
|-[12]----------|-------------------------|
|-[12]----------|-------------------------|
|-------------4-|-(4)-2-4----x-2----4-x-4-|
|-------------2-|-(2)-0-2----x-0----2-x-2-|
|---------------|-------------------------|
|
|   W              E  E E    E E    E E E
|---------------|---------------------7-7-|
|---------------|-----7------7------7-7-7-|
|---------------|-------9b13---9b13-------|
|---------------|-------------------------|
|---------------|-------------------------|
|---------------|-------------------------|


  +E    E E    E E    E E E      +E     E  E     E  E     E  E E
|------------------------------|---------------------------------|
|------------------------------|---------------------------------|
|------------------------------|---------------------------------|
|-(4)---2-4----x-4-------------|---------------------------------|
|-(2)---0-2----x-2----2-3-4----|-(4)----2--4-----x--2-----4--x-4-|
|---------------------0-1-2----|-(2)----0--2-----x--0-----2--x-2-|
|
|  E    E E    E E    E E E       E    +E  E    +E  E    +E  E E
|------------------------------|---------------------------------|
|-------7------7------7-7-9b10-|--9b10r(9)-9b10r(9)-9b10r(9)-7-9-|
|--9b13---9b13---9b13-----9b10-|--9b10r(9)-9b10r(9)-9b10r(9)-7-9-|
|------------------------------|---------------------------------|
|------------------------------|---------------------------------|
|------------------------------|---------------------------------|


  +E  E E E E E E  E    +E  E E  E E E E E
|--------------------|------------------------|
|--------------------|------------------------|
|--------------------|------------------------|
|------------------4-|--(4)-2-4--x-2-4-x-4----|
|-(4)-2-4---4------2-|--(2)-0-2--x-0-2-x-2----|
|-(2)-0-2---2--------|------------------------|
|
|       ~
|  E  E H       E  E    +E  E E  E E E E E
|-----------------10-|-(10)-9-7---------------|
|--7--9-7------------|----------10-9-7--------|
|--7--9-7------------|-----------------9-9b10-|
|--------------------|------------------------|
|--------------------|------------------------|
|--------------------|------------------------|


  +E     E    E E E E E E    +E  E E E E E E E
|--------------------------|-------------------|
|--------------------------|-------------------|
|--------------------------|-------------------|
|-(4)----2----4-x-4--------|-------------------|
|-(2)----0----2-x-2-2-3-4--|-(4)-2-4-x-2-4-x-4-|
|-------------------0-1-2--|-(2)-0-2-x-0-2-x-2-|
|
|  E    +S  S E E E E E E     E  E E E E E E E
|--------------------------|-------------------|
|--------------------------|-------------------|
|--9b10r(9)-7-7-9-7--------|-------------------|
|-------------------9-7-9\-|--7--7s5-5s4-4s2-2-|
|--------------------------|-------------------|
|--------------------------|-------------------|


  E E E E E E E E    H            E     Q      E
|-----------------|-----------------------------------|
|-----------------|-----------------------------------|
|-----------------|--7------------7-----7------7------|
|---4---5---6---7-|--7------------7-----7------7------|
|---4---5---6---7-|--5------------5-----5------5------|
|---2---3---4---5-|-----------------------------------|
|
| E E E E E Q   E    Q     Q      E    +E   E  E
|-----------------|-10------------------------10------|
|-----------------|-10-----------10--------10-10------|
|-----------------|--9b11--9b11---9b11r(9)--7--9b11===|
|-0-4---5---6s==7-|-----------------------------------|
|---4---5---6s==7-|-----------------------------------|
|---2---3---4s==5-|-----------------------------------|


    H            E     Q      E    +H                   E Q     E
|-------------------------------|---------------------------------|
|-------------------------------|---------------------------------|
|---7------------7-----7--------|---------------------------------|
|---7------------7-----7------4-|--(4)------------------4-4-----4-|
|---5------------5-----5------4-|--(4)------------------4-4-----4-|
|-----------------------------2-|--(2)------------------2-2-----2-|
|
|  +Q     Q      E    +E   E  E    +E   E E  S     +S   Q    E  E
|-(10)---10---------------------|---------9-12b13r(12)------------|
|-(10)---10-----10--------10----|------10--------------12---10-12-|
|--(9)r---9b11---9b11r(9)--7s11-|-(11)----------------------------|
|-------------------------------|---------------------------------|
|-------------------------------|---------------------------------|
|-------------------------------|---------------------------------|


  +H                    E   Q     E     H            E  Q   E
|-----------------------------------|--------------------------|
|-----------------------------------|--------------------------|
|---------------------------------7-|---7------------7--7---7--|
|-(4)-------------------4---4-----7-|---7------------7--7---7--|
|-(4)-------------------4---4-----5-|---5------------5--5---5--|
|-(2)-------------------2---2-------|--------------------------|
|
|  E     S  S  E  +E   +E   E  E  E    +E   E  E  E  E  Q   E
|--------------------------------10-|-(10)-10----------10--13/-|
|-12b14-12p10--------------------10-|-(10)-10----------10--12/-|
|-------------11-(11)-(11)-11-------|---------12-10h11---------|
|-----------------------------12----|--------------------------|
|-----------------------------------|--------------------------|
|-----------------------------------|--------------------------|


   H                   E  Q       E
|---------------------------------------|
|---------------------------------------|
|--7-------------------7--7-------------|
|--7-------------------7--7-------4-----|
|--5-------------------5--5-------4-----|
|---------------------------------2-----|
|
|  E  E  E     +S   S  E  S  S E  E
|-14-10---------------------------------|
|-13-10--------------------------17b19==|
|-------12b14r(12)-10-12-10h11-x--------|
|---------------------------------------|
|---------------------------------------|
|---------------------------------------|


   +H                              E     Q           E    +H           E     Q   E
|------------------------------------------------------|---------------------------|
|------------------------------------------------------|---------------------------|
|------------------------------------------------------|-------------------------7-|
|--(4)-----------------------------4-----4-----------4-|--(4)----------4-----4---7-|
|--(4)-----------------------------4-----4-----------4-|--(4)----------4-----4---5-|
|--(2)-----------------------------2-----2-----------2-|--(2)----------2-----2-----|
|
|  +S    S  S  S  S     +S   S  S  S  S  S  S  S  S  E    +Q.    S  S  S  S  Q.
|-------14---------------------------------------------|---------------------------|
|-(17)r----17p14---------------------------------------|---------------------------|
|----------------16b18r(16)-14----16p14----------------|---------------------------|
|------------------------------16-------16-14----------|---------------------------|
|---------------------------------------------16-14s13-|-(13)---------13----12-----|
|------------------------------------------------------|--------14-14----14--------|


  H      E Q   E    H      E Q   E    +H      E Q  E   +H       E  Q  E
|-----------------|----------------|-----------------|------------------|
|-----------------|----------------|-----------------|------------------|
|-7------7-7---7--|-7------7-7-----|-----------------|----------------7-|
|-7------7-7---7--|-7------7-7---4-|--(4)-----4-4--4-|-(4)------4--4--7-|
|-5------5-5---5--|-5------5-5---4-|--(4)-----4-4--4-|-(4)------4--4--5-|
|-----------------|--------------2-|--(2)-----2-2--2-|-(2)------2--2----|
|
| Q  E E Q   E E    Q  E E E Q   E    +Q   Q  E Q  E   +E  E Q  Q.    E
|-----------------|----------------|-----------------|------------------|
|-7--7-6s7---7-6/-|-7--7---7s9s=10-|-(10)--9--9s7s=5-|-(5)-5s4s=2-------|
|-----------------|----------------|-----------------|----------------4-|
|-7--7-6s7---7-6/-|-7--7-0-7s9s=11-|-(11)--9--9s7s=6-|-(6)-6s4s=2-------|
|-----------------|----------------|-----------------|------------------|
|-----------------|----------------|-----------------|------------------|


  H        E    Q    E   +Q         Q   E   E   E E
|----------------------|-------------------------------|
|----------------------|-------------------------------|
|-7--------7----7----7-|-(7)--------7---7--------------|
|-7--------7----7----7-|-(7)--------7---7--------------|
|-5--------5----5----5-|-(5)--------5---5---2---3-4----|
|----------------------|--------------------0---1-2----|
|
| Q    E E E   +E  E E    E   +S  S E E E   S S E E
|------4-5-------------|-------------------------------|
|----------5b9r(5)-2-5-|-------------------------------|
|-4b8------------------|--4b8r(4)-2-4-2-4b6-4p2--------|
|----------------------|------------------------4-4b7==|
|----------------------|-------------------------------|
|----------------------|-------------------------------|


  +E   E E E E E   E E   +E  E E E  E  E E E
|--------2-------------|-------0-------------|
|--------2-------------|-------0-------------|
|----------------------|---------------------|
|----------------------|---------------------|
|-(4)--4---4-4-4---3-2-|-(2)-2---2--2--2-3-4-|
|-(2)--2---2-2-2---1-0-|-(0)-0---0--0--0-1-2-|
|
| +H         E Q.        +H        +E  E E E
|----------------------|---------------------|
|----------------------|---------------------|
|----------------------|---------------------|
|-(4)r-------4s2b4r====|=(2)-------(2)-------|
|----------------------|---------------------|
|----------------------|---------------0-1-2-|


  +E  E E E E E E E   +E  E E E  E  E E E   +E  E E E E E E E   +E  E H.
|-------2-----------|-------0-------------|-------2-----------|-------0-----|
|-------2-----------|-------0-------------|-------2-----------|-------0-----|
|-------------------|---------------------|-------------------|-------------|
|-------------------|---------------------|-------------------|-------------|
|-(4)-4---4-4-4-3-2-|-(2)-2---2--2--2-3-4-|-(4)-4---4-4-4-3-2-|-(2)-2-------|
|-(2)-2---2-2-2-1-0-|-(0)-0---0--0--0-1-2-|-(2)-2---2-2-2-1-0-|-(0)-0-------|
|
| +H        E E E E   +E  E Q   +E  E E E   +Q    Q   E E E E   +W
|-------------------|-------0---(0)-0-1-2-|-(2)---2---0-2-1-0-|-(0)---------|
|-------------------|-------0---(0)-0-1-2-|-(2)---2---0-2-1-0-|-(0)---------|
|-------------------|---------------------|-------------------|-------------|
|-------------------|---------------------|-------------------|-------------|
|-------------------|---------------------|-------------------|-------------|
|-(2)-------x-2-1-0-|-(0)-x---------------|-------------------|-------------|


  E  E E E E E E E    E  E E E E E  E E
|------------------|--------------------|
|------------------|--------------------|
|-7--7-7-7-7-7-7-7-|--7--7-7-7-7-5--2-2-|
|-7--7-7-7-7-7-7-7-|--7--7-7-7-7-5--2-2-|
|-5--5-5-5-5-5-5-5-|--5--5-5-5-5-3--0-0-|
|------------------|--------------------|
|
| W                   H.            E E
|------------------|--------------------|
|-7/---------------|-10------------14-8-|
|-7/---------------|-10------------14-9-|
|-7/---------------|-10------------14-7-|
|------------------|--------------------|
|------------------|--------------------|


  +Q    E E Q     E E   +Q   E E Q  E E
|---------------------|------------------|
|---------------------|------------------|
|-(2)---2-----------2-|-(2)--2-----------|
|-(2)---2-----------2-|-(2)--2--------3--|
|-(0)---0-----------0-|-(0)--0--------3--|
|---------------------|---------------1--|
|
|                   ~~~~~~~~
|  E  E E E E S S E E   +H.         E E
|---------------------|------------------|
|--8--8-7---7-x-x-7s5-|-(5)--------------|
|--9--9-7---7-x-x-7s5-|-(5)-----------5--|
|--7--7-7---7-x-x-7s5-|-(5)-----------7--|
|---------0-----------|------------------|
|---------------------|-------------0----|


  +Q   E E   Q       E  E    +Q   E E   Q   E   E
|-------------------------|-----------------------|
|-------------------------|-----------------------|
|-------------------------|-----------------------|
|-(3)--3----------------3-|--(3)--3-------------5-|
|-(3)--3----------------3-|--(3)--3-------------5-|
|-(1)--1----------------1-|--(1)--1-------------3-|
|
| +Q   E S S S S S S E  E    +H        +Q   S S E
|-------------------------|---------------------3-|
|-------------------------|---------------------3-|
|-(5)--4-x-x-4-x-x-x---10-|-(10)------(10)--x-x-0-|
|-(7)--5-x-x-5-x-x-x---10-|-(10)------(10)--x-x-0-|
|--------------------8--8-|--(8)-------(8)--------|
|-------------------------|---------------------3-|


  +Q   E E   Q   E E   +Q   E E Q  E  E
|--------------------|--------------------|
|--------------------|--------------------|
|--------------------|--------------------|
|-(5)--5-----------5-|-(5)--5---------7---|
|-(5)--5-----------5-|-(5)--5---------7---|
|-(3)--3-----------3-|-(3)--3---------5---|
|
|                               ~
| +Q   E S S E E E E   +Q   Q   Q  E  E
|-(3)----------------|--------------------|
|-(3)--5-----5-------|--------------------|
|-(0)--5-----5---4-5-|-(5)--4---2--0-[2]--|
|-(0)--5-----5---5-5-|-(5)--5---2--0------|
|--------x-x---------|--------------------|
|-(3)----x-x---3-----|--------------------|


   +Q    E E Q  E E   +H     E E E E   E E E E E E E E   +E  E E E E E E E
|-------------------|----------------|-----------------|-------------------|
|-------------------|----------------|-----------------|-------------------|
|-----------------5-|-(5)----5-------|-2-------------2-|-(2)---------------|
|--(7)---7--------5-|-(5)----5-2-5-7-|-2-------------2-|-(2)---------------|
|--(7)---7--------3-|-(3)----3-2-5-7-|-0-0-3-0-3-0---0-|-(0)-0-3-0-3-0-----|
|--(5)---5----------|----------0-3-5-|-------------3---|---------------3-1-|
|
|               ~~~~~~~~~~
|  +H.          Q     +H.        Q     E E E E E E E E   +E  E E E E E E E
|-------------------|----------------|-----------------|-------------------|
|-------------------|----------------|-----------------|-------------------|
|-([2])---------2---|-(2)------------|-2-------------2-|-(2)---------------|
|-------------------|----------------|-2-------------2-|-(2)---------------|
|-------------------|----------------|-0-0-3-0-3-0---0-|-(0)-0-3-0-3-0-----|
|-------------------|----------------|-------------3---|---------------3-1-|


  +E  E E E E E E E   +E  E E E E E E E
|-------------------|-------------------|
|-------------------|-------------------|
|-------------------|-------------------|
|-------------------|-------------------|
|-------3-2-3-2-0---|-------3-2-3-2-0---|
|-(1)-1-----------1-|-(1)-1-----------3-|
|
| +E  E E E E E E E   +E  E E E E E E E
|-------------------|-------------------|
|-------------------|-------------------|
|-------------------|-------------------|
|-------------------|-------------------|
|-------3-2-3-2-0---|-------3-2-3-2-0---|
|-(1)-1-----------1-|-(1)-1-----------3-|


  +E  E E E E E E E   +E  E E E E E E E
|-------------------|-------------------|
|-------------------|-------------------|
|-------------------|-------------------|
|-------------------|-------------------|
|-------3-2-3-2-0---|-------3-2-3-2-----|
|-(3)-3-----------3-|-(3)-3---------3-3-|
|
| +E  E E E E E E E   +E  E E E E E E E
|-------------------|-------------------|
|-------------------|-------------------|
|-------------------|-----------------2-|
|-------------------|-----------------2-|
|-------3-2-3-2-0---|-------3-2-3-2---0-|
|-(3)-3-----------3-|-(3)-3---------3---|


  +E   E E E  E  E E E   +E    E    E E   E E E E
|----------------------|--------------------------|
|----------------------|--------------------------|
|--------------------2-|-(2)--------------------2-|
|----------2---------2-|-(2)----------2---------2-|
|------0-3-0--3--0---0-|-(0)---0----3-0---3-0---0-|
|-(3)--------------3---|----------------------3---|
|
|                                         ~     ~~~
|  Q.      E +E  E E E    E   +S  S E E   Q   E E
|----------------------|--------------------------|
|----------------------|--------------------------|
|----------------------|------------------------2-|
|----------------------|--------------------------|
|------------------3-5-|--5b7r(5)-3-5-5b7-3---0---|
|--3b5-----5-(5)-5-----|--------------------------|


  +E  E E E E E E    E   +E   E E E E E E  E
|----------------------|-----------------------|
|----------------------|-----------------------|
|-(2)----------------2-|-(2)-------------------|
|-(2)----------------2-|-(2)-------------------|
|-(0)-0-3-0-3-0------0-|-(0)--0-3-0-3-0--------|
|---------------3------|----------------3--1---|
|
|~~~~~
| +Q    E E E E Q        +H.            E +E
|----------------------|-----------------------|
|----------------------|-----------------------|
|-(2)---2-2-2-2-2b5====|=(2)r-----------2-(2)--|
|----------------------|-----------------------|
|----------------------|-----------------------|
|----------------------|-----------------------|


  +E  E  E  E E E E    E   +E   E E E  E  E E E
|------------------------|----------------------|
|------------------------|----------------------|
|------------------------|----------------------|
|------------------------|----------------------|
|--------3--2-3-2-0------|--------3-2--3--2-0---|
|-(1)-1----------------1-|-(1)--1-------------3-|
|
|                                 ~~~~~~~~    ~~~
| +Q     Q    E E Q        +Q     Q   +E  E E E
|------------------------|----------------------|
|------------------------|----------------------|
|-(2)---[2]---2-2-2b5====|=(2)r---2---(2)-5-5-4-|
|------------------------|----------------------|
|------------------------|----------------------|
|------------------------|----------------------|


  +E  E E E E E E E   +E  E E E E E E E
|-------------------|-----------------------|
|-------------------|-----------------------|
|-------------------|-----------------2-----|
|-------------------|-----------------2-----|
|-------3-2-3-2-0---|-------3-2-3-2---0-----|
|-(3)-3-----------3-|-(3)-3---------3-------|
|
|~~~~~            ~~~~~~~~            ~~~~~
| +Q    E E E E E E   +Q    Q   E E E E
|-------------------|-----------------------|
|-------------------|-----------------------|
|-(4)---4-4-4-4-4s7-|-(7)---7---7s5-5s9b12==|
|-------------------|-----------------------|
|-------------------|-----------------------|
|-------------------|-----------------------|


  +E   E E E      E   E    E    E      +E      E      E  E   E  E E E
|------------------------------------|-----------------------------------|
|------------------------------------|-----------------------------------|
|-(2)---------------------------2----|-(2)--------------------------2----|
|-(2)------2--------------------2----|-(2)---------------2----------2----|
|-(0)--0-3-0------3---0---------0----|-(0)-----0------3--0---3--0---0----|
|--------------------------3---------|----------------------------3------|
|
|  ~~~~
| +Q.      E     +E   S  S S  S S  S    S   S  S  S  +Q     +Q    E E
|------------------------------------|-----------------------------------|
|------------------------------------|-----------------------------------|
|-(9)r-----9b12==(9)r-9----9-11p9----|--9---------------------------7b9==|
|-----------------------12--------12-|-----12p10-------------------------|
|------------------------------------|-----------12-(12)---(12)----------|
|------------------------------------|-----------------------------------|


  +E   E E E   E  E  E E       +E  E E E  E   E E E
|----------------------------|--------------------------|
|----------------------------|--------------------------|
|-(2)------------------2-----|-(2)----------------------|
|-(2)------------------2-----|-(2)----------------------|
|-(0)--0-3-0---3--0----0-----|-(0)-0-3-0--3---0---------|
|--------------------3-------|------------------3-1-----|
|
| +Q     E Q     +E  E E       +H        +Q.      E
|----------------------------|--------------------------|
|----------------------8b10==|=(8)-------(8)r-----------|
|-(7)r---7-7b9r==(7)-5-------|--------------------7b9===|
|----------------------------|--------------------------|
|----------------------------|--------------------------|
|----------------------------|--------------------------|


  +E   E E E E E E E       +E   E E      E   E   E E E
|------------------------|--------------------------------|
|------------------------|--------------------------------|
|------------------------|--------------------------------|
|------------------------|--------------------------------|
|--------3-2-3-2-0-------|--------3------2---3---2-0------|
|-(1)--1-----------1-----|-(1)--1--------------------3----|
|
|            ~                    ~~~~~~~~~~~~~~~
| +Q     Q   Q   E E       +E   E E     +E  +Q     E E
|------------------------|------8------------------8------|
|------------------8b10==|=(8)r---8b10==(8)-(8)r----------|
|-(7)r---7---7---5-------|---------------------------7b9==|
|------------------------|--------------------------------|
|------------------------|--------------------------------|
|------------------------|--------------------------------|


  +E   E E E E E E  E        +E    E E E E   E   E  E
|-------------------------|-----------------------------|
|-------------------------|-----------------------------|
|-------------------------|-------------------------2---|
|-------------------------|-------------------------2---|
|--------3-2-3-2-0--------|----------3-2-3---2------0---|
|-(3)--3------------3-----|--(3)---3-------------3------|
|
|            ~
| +Q     Q   Q   E  E        +E    E E E E   S S E  E
|-------------------------|--------5--------------------|
|------------------[5]b7==|=([5])r---8-5----------------|
|-(7)r---7---7---5--------|--------------7b9-7p5--------|
|-------------------------|----------------------7-[7]--|
|-------------------------|-----------------------------|
|-------------------------|-----------------------------|


   +E   E E E E E E E   +E   E   E E     E   E E  E
|---------------------|---------------------------------|
|---------------------|---------------------------------|
|--(2)--------------2-|-(2)-----------------------2-----|
|--(2)------2-------2-|-(2)--------2--------------2-----|
|--(0)--0-3-0-3-0---0-|-(0)--0---3-0-----3---0----0-----|
|-----------------3---|------------------------3--------|
|
|  +E   E E E E E E E    E   S S E E    +Q     E  E
|---------------------|---------------------------------|
|---------------------|---------------------------------|
|---------------------|--------------------------[7]b8==|
|-([7])-5-------------|---------------------------------|
|---------7-6-5-3-5-3-|--5b7-5p3---5b7==(5)r------------|
|---------------------|----------5----------------------|


   +E     E     E  E  E   E  E E       +E  E E E  E   E   E      E
|------------------------------------|------------------------------|
|------------------------------------|------------------------------|
|--(2)-------------------------2-----|-(2)--------------------------|
|--(2)-------------------------2-----|-(2)--------------------------|
|--(0)----0-----3--0--3---0----0-----|-(0)-0-3-0--3---0-------------|
|----------------------------3-------|--------------------3------1--|
|
|  +E    +E     Q     E   E  E E       +H        +E   S S E     +E
|------------------------------------|----------------5-8-----------|
|------------------------------8b10==|=(8)-------(8)r-----8b10==(8)-|
|-([7])-([7])r-[7]---[7]-[7]-5-------|------------------------------|
|------------------------------------|------------------------------|
|------------------------------------|------------------------------|
|------------------------------------|------------------------------|


  +E  E      E    E   E     E  E  E        +E  E   E   E E E  E E
|---------------------------------------|-------------------------|
|---------------------------------------|-------------------------|
|---------------------------------------|-------------------------|
|---------------------------------------|-------------------------|
|------------3----2---3-----2--0--------|----------3---2-3-2--0---|
|-(1)-1---------------------------1-----|--(1)-1----------------3-|
|
| +E.   +S   E.     S E    +E  E  E        +Q     +E   E Q    Q
|-------------------8-------------------|--------------x-8---10---|
|-(8)---(8)r-8b10-----8b10r(8)-5-10b13==|=(10)---(10)r------------|
|---------------------------------------|-------------------------|
|---------------------------------------|-------------------------|
|---------------------------------------|-------------------------|
|---------------------------------------|-------------------------|


  +E    E  E    E  E      E  E  E        +E   E          E   E  E  E  E  E
|-------------------------------------|--------------------------------------------|
|-------------------------------------|--------------------------------------------|
|-------------------------------------|----------------------------------2---------|
|-------------------------------------|----------------------------------2---------|
|----------3----2--3------2--0--------|------------------3---2--3--2-----0---------|
|-(3)---3-----------------------3-----|--(3)--3-----------------------3------------|
|
|                                                                        |--3--|
|  Q       Q       E     +E  E  E        +E.     S      +Q      E  E  E  S  S  S
|-------------------------------------|--------------------------------------------|
|-10b12---10b12---10b12r(10)-8-13b15==|=(13)r---13b15==(13)r---13-12-13-12h13p12p==|
|-------------------------------------|--------------------------------------------|
|-------------------------------------|--------------------------------------------|
|-------------------------------------|--------------------------------------------|
|-------------------------------------|--------------------------------------------|


  +E      E     E        E     E     E    E         E
|---------------------------------------------------------|
|---------------------------------------------------------|
|-(2)-----------------------------------------------2-----|
|-(2)--------------------2--------------------------2-----|
|-(0)-----0-----3--------0-----3-----0--------------0-----|
|-----------------------------------------3---------------|
|
|               |--3--|
|  S   S  S  S  S  S  S  S  S  E     S  S S  S     +S   S
|---------------------------------------------------------|
|-10-----12----10h12p10----10-------10--------------------|
|-----12----12----------12----12b14----12-9---------------|
|-------------------------------------------12b14r(12)-10-|
|---------------------------------------------------------|
|---------------------------------------------------------|


  +E      E     E     E     E E E  E        +E   E E    E      E  E E E
|----------------------------------------|------------------------------|
|----------------------------------------|------------------------------|
|-(2)------------------------------2-----|--(2)-----------------------2-|
|-(2)-----------------2------------2-----|--(2)-----------------------2-|
|-(0)-----0-----3-----0-----3-0----0-----|--(0)--0-3----0------3--0---0-|
|-------------------------------3--------|--------------------------3---|
|
|                                                              ~~
|  S   S  S  S  S  S  S  S  E Q    E        +E   E E.     +S   Q.     E
|----------------------------------------|------------------------------|
|----------------------------------------|------------------------------|
|----------------------------------------|------------------------------|
|-----12----10---------------------------|------------------------------|
|-12-----12----12p10----10---------------|------------------------------|
|--------------------12----10s8---10b11==|=(10)r-8-3b4====(3)r-5------5-|


  +E   E   E E E E E E   +E  E E  E E    E   E    E
|----------------------|------------------------------|
|----------------------|------------------------------|
|-(2)------------------|------------------------------|
|-(2)------------------|------------------------------|
|-(0)--0---3-0-3-0-----|-------3--2-3----2---0--------|
|------------------3-1-|-(1)-1--------------------1---|
|
|                    ~~~~~~~~
|                                            |--3---|
|  E   S S E E E E E E   +Q    E  E S  S S S E  E   E
|----------------------|------------------------------|
|----------------------|------------------------------|
|----------------------|---------------------7------9-|
|----------------------|-------7-10-9h10p9p7---10-----|
|--5b7-5p3-5-5-3-5---8-|-(8)--------------------------|
|----------------------|------------------------------|


  +E    E    E    E    E    E    E    E
|-------------------------------------------|
|-------------------------------------------|
|-------------------------------------------|
|-------------------------------------------|
|------------3----2----3----2----0----------|
|-(1)---1-----------------------------3-----|
|
|  |--3---|  |--3---|            |---3---|
|  E  E   E  E  E   E  S S  S S  E  E    E
|-------------------------------------------|
|---------------------------------------10h=|
|-----7---9-10s12---9h10p9----9-10-12-------|
|-10-----------------------12---------------|
|-------------------------------------------|
|-------------------------------------------|


  +E     E     E    E     E    E     E    E
|----------------------------------------------|
|----------------------------------------------|
|----------------------------------------------|
|----------------------------------------------|
|--------------3----2-----3----2-----0---------|
|-(3)----3--------------------------------3----|
|
|              |---3---|  |---3---|  |---3---|
|  S  S  S  S  E  E    E  E  E    E  E  E    E
|---------------------10----12------10-12---13-|
|-12p10----10-12-13------13------13------------|
|-------12-------------------------------------|
|----------------------------------------------|
|----------------------------------------------|
|----------------------------------------------|


  +E     E     E    E       E      E          E    E   +E   E  E     E     E E  E  E
|----------------------------------------------------|---------------------------------|
|----------------------------------------------------|---------------------------------|
|--------------------------------------------------2-|-(2)-------------------------2---|
|--------------------------------------------------2-|-(2)-----------2-------------2---|
|--------------3----2-------3------2---------------0-|-(0)--0--3-----0-----3-0-----0---|
|-(3)----3------------------------------------3------|--------------------------3------|
|
|                                                                          ~~
|  S  S  S  S  S  E    E       +E     S      +E    E    E   E  S  S  S  S  Q    E  E
|-12h13p12p10----10---13b15r==(13)---13b15==(13)r-13-|-12--13-12h13p12p10-12---10-13---|
|-------------13-------------------------------------|---------------------------------|
|----------------------------------------------------|---------------------------------|
|----------------------------------------------------|---------------------------------|
|----------------------------------------------------|---------------------------------|
|----------------------------------------------------|---------------------------------|


  +E        E     E       E    E    E   E    E
|--------------------------------------------------|
|--------------------------------------------------|
|-(2)----------------------------------------2-----|
|-(2)---------------------2------------------2-----|
|-(0)-------0-----3-------0----3----0--------0-----|
|---------------------------------------3----------|
|
|  |--3--|        |-3--|
|  S  S  S  S  S  S S  S  S  S S S  S S S S  E
|-12h13p12p10-12s10p8----10----7h8h10p8p7-8--------|
|---------------------10----10--------------12b14==|
|--------------------------------------------------|
|--------------------------------------------------|
|--------------------------------------------------|
|--------------------------------------------------|


   +E    E    E E  E E  E  E    +E  E  E  E       E   E  E        E
|----------------------------|------------------------------------------|
|----------------------------|------------------------------------------|
|--(2)---------------------2-|--(2)-------------------------------------|
|--(2)---------------------2-|--(2)-------------------------------------|
|--(0)---0----3-0--3-0-----0-|--(0)-0--3--0-------3---0-----------------|
|-----------------------3----|---------------------------3--------1-----|
|
|             ~~~~~~~      ~~~~~~~~~
|                                                        |--3--|
|  +E   +E    Q    Q    E  E    +Q     E  E      +Q      S  S  S  E
|----------------------------|--------------------------10--------------|
|-(12)-(12)r-12---12---10-10-|-(10)---10-13b15==(13)r------13p10h13b17==|
|----------------------------|------------------------------------------|
|----------------------------|------------------------------------------|
|----------------------------|------------------------------------------|
|----------------------------|------------------------------------------|


   +E   E E E  E E    E    E   +E     E     E  E    E   E   E   E
|----------------------------|------------------------------------|
|----------------------------|------------------------------------|
|----------------------------|------------------------------------|
|----------------------------|------------------------------------|
|---------3-2--3-2----0------|--------------3--2----3---2---0-----|
|--(1)--1------------------1-|-(1)----1-------------------------3-|
|
|                                                               ~~~
|              |----3----|
|  +H          Q    Q    Q      E     S  S  E  Q       +E   E   E
|-------------12---15---15---|---------------------------------15-|
|-(13)r----------------------|-15b17-15p13-15-12b13r==(12)-10/----|
|----------------------------|------------------------------------|
|----------------------------|------------------------------------|
|----------------------------|------------------------------------|
|----------------------------|------------------------------------|


   +E  E E  E   E  E    E    E
|-------------------------------|
|-------------------------------|
|-------------------------------|
|-------------------------------|
|--------3--2---3--2----0-------|
|--(3)-3---------------------3--|
|
|~~~~~~
|               |----3-----|
|  +Q.      E  +Q     Q    Q
|-(15)-----12-(12)--------------|
|--------------------16---15----|
|-------------------------------|
|-------------------------------|
|-------------------------------|
|-------------------------------|


  +E     E     E        E     E     E        E        E
|----------------------------------------------------------|
|----------------------------------------------------------|
|-----------------------------------------------------2----|
|-----------------------------------------------------2----|
|--------------3--------2-----3-----2-----------------0----|
|-(3)----3-----------------------------------3-------------|
|
|              |--3--|              |--3--|  |--3--|
|  E     S  S  S  S  S  S  S  S  S  S  S  S  S  S  S  S  S
|-------12-15-13h15p13p12----13----12h13p12----12-------12-|
|-15b17-------------------15----15----------15----13-15----|
|----------------------------------------------------------|
|----------------------------------------------------------|
|----------------------------------------------------------|
|----------------------------------------------------------|


  +E     E     E     E     E     E     E     E
|-----------------------------------------------------|
|-----------------------------------------------------|
|-(2)----------------------------------------2--------|
|-(2)----------------2-----------------------2--------|
|-(0)----0-----3-----0-----3-----0-----------0--------|
|--------------------------------------3--------------|
|
|  S  S  S  S  S  S  S  S  S  S  S  S  S  S  S  S
|-----------------------------------------------------|
|-15p13-15p13-12----13----12h13p12----12-13-15-15b17==|
|----------------14----14----------14-----------------|
|-----------------------------------------------------|
|-----------------------------------------------------|
|-----------------------------------------------------|


   +E   E  E  E       E   E E E   +W           W          W
|-------------------------------|------------|----------|------|
|-------------------------------|------------|----------|------|
|--(2)------------------------2-|-(2)--------|----------|------|
|--(2)--------2---------------2-|-(2)--------|----------|------|
|--(0)--0--3--0-------3---0---0-|-(0)--------|----------|------|
|---------------------------3---|------------|----------|------|
|
|  +Q      E  E      +H            W           W          W
|---------15--------------------|------------|----------|------|
|-(15)r------15b17==(15)r-------|------------|----------|------|
|-------------------------------|------------|----------|------|
|-------------------------------|------------|----------|------|
|-------------------------------|------------|----------|------|
|-------------------------------|------------|----------|------|


  Gtrs I, II
   Q  Q  H
|-------------*|
|-13----------*|
|-12----------*|
|-11----------*|
|-12----------*|
|-------------*|




--------------------------------------------------------------------------------


Duration Legend
---------------
W - whole; H - half; Q - quarter; E - 8th; S - 16th; T - 32nd; X - 64th; a - acciaccatura
+ - note tied to previous; . - note dotted; .. - note double dotted
Uncapitalized letters represent notes that are staccato (1/2 duration)
Irregular groupings are notated above the duration line
Duration letters will always appear directly above the note/fret number it represents the
duration for.  Duration letters with no fret number below them represent rests.  Multi-
bar rests are notated in the form Wxn, where n is the number of bars to rest for.  Low
melody durations appear below the staff

Tablature Legend
----------------
 h   - hammer-on
 p   - pull-off
 b   - bend
 pb  - pre-bend
 r   - bend release (if no number after the r, then release immediately)
 /\  - slide into or out of (from/to "nowhere")
 s   - legato slide
 S   - shift slide
<n> - natural harmonic
[n]  - artificial harmonic
n(n) - tapped harmonic
 ~   - vibrato
 tr  - trill
 T   - tap
 TP  - trem. picking
 PM  - palm muting
\n/  - tremolo bar dip; n = amount to dip
 \n  - tremolo bar down
 n/  - tremolo bar up
/n\  - tremolo bar inverted dip
 =   - hold bend; also acts as connecting device for hammers/pulls
 <> - volume swell (louder/softer)
 x   - on rhythm slash represents muted slash
 o   - on rhythm slash represents single note slash

Misc Legend
-----------
 |  - bar
||  - double bar
||o - repeat start
o|| - repeat end
*|  - double bar (ending)
 :  - bar (freetime)
 $  - Segno
 &  - Coda
Tempo markers - <E/E./Q/Q./H/H.> = BPM(8/16=s8/s16), where s8 = swing 8ths, s16 = swing 16ths
comments
print report bad tab
7 comments total. Showing first comments.
+1 reply
shadow51t wrote on February 28 2005, 12:00 am

um last i checked it wasnt in drop D, its Eb Ab Db Gb Bb Eb..well im like 99% positive it is

+1 reply
BlkMetal8753 wrote on March 27 2006, 11:49 am

yea, thats exactly what he said Eb = D#, same thing

+1 reply
BlkMetal8753 wrote on March 27 2006, 11:49 am

and yes its down a half step

I want to post or [tab]
guest
You may want to rate the tab now too:
select rating
Please do not post tabs as comments. Select "correction" instead!