Oops, an error
Loading. Please wait.

Nightrain Tab

ver5
ver5

Intro

Video

More versions @911Tabs.com
41,833 views 33 this week
no commentswrite comment
1 2 3 4 5
excellent!
x 6
Autoscroll
+/-
esc
set tempo
stop
Contributor
Tuning
D# G# C# F# A# D#
WARNING: You are trying to view
                                    content from Ultimate-Guitar.com
                                    in an unauthorized application,
                                    which is prohibited.

                                    Please use an official Ultimate
                                    Guitar Tabs application for iPhone,
                                    iPad or Android to access legitimate
                                    chords, guitar, bass, and drum tabs
                                    from Ultimate-Guitar.com database.

                                    Type "ultimate guitar tabs" in Apple
                                    App Store's or Android Market's
                                    search to find the application.
#----------------------------------PLEASE NOTE---------------------------------#
#This file is the author's own work and represents their interpretation of the #
#song. You may only use this file for private study, scholarship, or research. #
#------------------------------------------------------------------------------#

NIGHTRAIN
As recorded by Guns N' Roses
(From the 1987 Album APPETITE FOR DESTRUCTION)

Transcribed by JimmyRocks
	

Words and Music by Guns N' Roses

A5V
5 7 7 x x x
	
D5
x 5 7 7 x x
	
G5
3 x 0 0 x x
	
A5
x 0 2 2 x x

E5
0 2 2 x x x
	
B5
x 2 4 4 x x
	
F5
1 3 3 x x x
	
F#5
2 4 4 x x x

G5(type 2)
3 5 5 x x x
	
G#5
4 6 6 x x x
	
D
x 5 7 7 7 x
	
C5
x 3 5 5 x x

Gtr I (Eb Ab Db Gb Bb Eb) - 'Untitled'
Gtr II (Eb Ab Db Gb Bb Eb) - 'Untitled'

 Intro
  Fast Rock Q=148
 4/4
  Gtr I          Gtr I
  Q  Q  Q  Q     W          +H     +Q    E E
|-------------||----------|--------------x-3-|
|-------------||----------|------------------|
|-------------||-2--------|-(2)----(2)/------|
|-x--x--x--x--||-2--------|-(2)----(2)/------|
|-------------||-0--------|-(0)----(0)/------|
|-------------||----------|------------------|
|
|                Gtr II
|                                        PM
| W              W          +H.          E E
|-------------||----------|------------------|
|-------------||----------|----------------8-|
|-------------||----------|----------------9-|
|-------------||-7--------|-(7)------------7-|
|-------------||-7--------|-(7)----------0---|
|-------------||-5--------|-(5)--------------|


  +E  E E E E E Q    +H..        a  E
|-(3)-3-2p0-----0--|-(0)------------0--|
|---------0-7s5-5--|-(5)--------(3)s5--|
|------------------|-------------------|
|------------------|-------------------|
|------------------|-------------------|
|------------------|-------------------|
|
| +E  E Q   Q   Q    +H..           E
|------------------|-------------------|
|-(8)-8-7---7---5--|-(5)------------5--|
|-(9)-9-7---7---5--|-(5)------------5--|
|-(7)-7-7---7---5--|-(5)------------5--|
|------------------|-------------------|
|------------------|-------------------|


  +E  E Q  E  E  Q     +H..         E   +E  E Q  Q  Q
|-(0)-0-0--0-(0)-----|----------------|----------------|
|-(5)-5-3--3s=1--1---|-(1)---------/3-|-(3)-3s1--1--0--|
|--------------------|----------------|----------------|
|--------------------|----------------|----------------|
|--------------------|----------------|----------------|
|--------------------|----------------|----------------|
|
| +E  E Q  Q     E E   +H.       E  E   +E  E Q  Q  Q
|------------------1-|-(1)----------3-|-(3)------------|
|-(5)-5-3--3-------1-|-(1)----------3-|-(3)-3-3--3--3--|
|-(5)-5-4--4-------2-|-(2)----------0-|-(0)-0-4--5--4--|
|-(5)-5-5--5-----3---|-----------3s=5-|-(5)-5-5--5--5--|
|--------------------|----------------|----------------|
|--------------------|----------------|----------------|


  Q  Q  Q  E E   +W           +H.          E E
|--------------|------------|----------------3--||
|-1--0---------|------------|--------------x----||
|-------2--0-2-|-(2)--------|-(2)---------------||
|--------------|------------|-------------------||
|--------------|------------|-------------------||
|--------------|------------|-------------------||
|
| Q  Q  Q  E E   +W           +H     +E  E E E
|--------------|------------|-------------------||
|-3--3---------|------------|----------------8--||
|-5--4--2--0-2-|-(2)--------|-(2)----(2)-2-x-9--||
|-5--5--2--0-2-|-(2)--------|-(2)----(2)-2-x-7--||
|------------0-|-(0)--------|-(0)----(0)-0-x----||
|--------------|------------|-------------------||


  +E  E E E E E Q    +H..        a  E    E  E Q  E  E  Q     +H..         E
|-(3)-3-2p0-----0--|-(0)------------0-|--0--0-0--0-(0)-----|-----------------|
|---------0-7s5-5--|-(5)--------(3)s5-|--5--5-3--3s=1--1---|-(1)---------/3--|
|------------------|------------------|--------------------|-----------------|
|------------------|------------------|--------------------|-----------------|
|------------------|------------------|--------------------|-----------------|
|------------------|------------------|--------------------|-----------------|
|
| +E  E Q   Q   Q    +H..           E   +E  E Q  Q     E E   +H.       E  E
|------------------|------------------|------------------1-|-(1)----------3--|
|-(8)-8-7---7---5--|-(5)------------5-|-(5)-5-3--3-------1-|-(1)----------3--|
|-(9)-9-7---7---5--|-(5)------------5-|-(5)-5-4--4-------2-|-(2)----------0--|
|-(7)-7-7---7---5--|-(5)------------5-|-(5)-5-5--5-----3---|-----------3s=5--|
|------------------|------------------|--------------------|-----------------|
|------------------|------------------|--------------------|-----------------|


  +E  E Q  Q  Q    Q  Q  Q  E E   +W            H      Q    E E
|----------------|--------------|------------|------------------||
|-(3)-3s1--1--0--|-1--0---------|------------|------------------||
|----------------|-------2--0-2-|-(2)--------|----------------7-||
|----------------|--------------|------------|----------------7-||
|----------------|--------------|------------|----------------5-||
|----------------|--------------|------------|------------------||
|
| +E  E Q  Q  Q    Q  Q  Q  E E   +W           +H     +E  E E E
|-(3)------------|--------------|------------|------------------||
|-(3)-3-3--3--3--|-3--3---------|------------|------------------||
|-(0)-0-4--5--4--|-5--4--2--0-2-|-(2)--------|-(2)----(2)-2---2-||
|-(5)-5-5--5--5--|-5--5--2--0-2-|-(2)--------|-(2)----(2)-2---2-||
|----------------|------------0-|-(0)--------|-(0)----(0)-0---0-||
|----------------|--------------|------------|--------------3---||


 1st Verse
      A5V
  Gtr I
   E  E E E E E E E   +E  E E E E E E E
   |  | |   | | | |    |  | |   | | | |
   /  x /   / / / /    /  x /   / / / /

  Gtr II
              PM|                 PM|
  +Q    Q   E E E E   +Q    Q   E E E E
|-------------------|-------------------|
|-------------------|-------------------|
|-(2)---2---2-----2-|-(2)---2---2-------|
|-(2)---2---2-----2-|-(2)---2---2-------|
|-(0)---0---0-----0-|-(0)---0---0-----3-|
|-------------0-3---|-------------0-3---|


  +E     E  E E E E E E   +E  E E E E E E E
   |     |  |   | | | |    |  | |   | | | |
   /     x  /   / / / /    /  x /   / / / /

            PM--|                     PM|
  +E    +E  E E E E E E   +Q    Q   E E E E
|-----------------------|-------------------|
|-----------------------|-------------------|
|-----------------2---2-|-(2)---2---2-----2-|
|-----------------2---2-|-(2)---2---2-----2-|
|-(3)b4-(3)-0-----0---0-|-(0)---0---0-----0-|
|-------------0-3---3---|-------------0-3---|


  +E E E E E E E E   +E  E E E E E E E
   | | |   | | | |    |  | |   | | | |
   / x /   / / / /    /  x /   / / / /

             PM|                 PM|
   Q   Q   E E E E   +Q    Q   E E E E
|------------------|-------------------|
|------------------|-------------------|
|--2---2---2-----2-|-(2)---2---2-------|
|--2---2---2-----2-|-(2)---2---2-------|
|--0---0---0-----0-|-(0)---0---0-----3-|
|------------0-3---|-------------0-3---|


  +E    E     E E E E E E   +E  E E E E    E  E E
   |    |     |   | | | |    |  | |   |    |  | |
   /    x     /   / / / /    /  x /   /    /  / /

                PM|
  +E.     +S  E E E E E E   +H        E   +E  E E
|-------------------------|------------------------||
|-------------------------|------------------------||
|-------------2-----2---2-|-(2)-------7b9r(7)-5-2--||
|-------------2-----2---2-|-(2)-----------------2--||
|-(3)b4---(3)-0-----0---0-|-(0)-----------------0--||
|---------------0-3---3---|------------------------||


   2nd & 3rd Verses
    A5V
    +E  E E E E E E E   +E  E E E E E E E
     |  | |   | | | |    |  | |   | | | |
     /  x /   / / / /    /  x /   / / / /

                PM|                 PM|
    +Q    Q   E E E E   +Q    Q   E E E E
||--------------------|-------------------|
||o-------------------|-------------------|
||--(2)---2---2-----2-|-(2)---2---2-------|
||--(2)---2---2-----2-|-(2)---2---2-------|
||o-(0)---0---0-----0-|-(0)---0---0-----3-|
||--------------0-3---|-------------0-3---|


  +E     E  E E E E E E   +E  E E E E E E E
   |     |  |   | | | |    |  | |   | | | |
   /     x  /   / / / /    /  x /   / / / /

            PM--|                     PM|
  +E    +E  E E E E E E   +Q    Q   E E E E
|-----------------------|--------------------|
|-----------------------|--------------------|
|-----------------2---2-|-(2)---2---2-----2--|
|-----------------2---2-|-(2)---2---2-----2--|
|-(3)b4-(3)-0-----0---0-|-(0)---0---0-----0--|
|-------------0-3---3---|-------------0-3----|


                                        1.
                                     D5
  +E E E E E E E E   +E  E E E E E E E   +W
   | | |   | | | |    |  | |   | | | |    |
   / x /   / / / /    /  x /   / / / /    /

             PM|         PM
   Q   Q   E E E E   +E  E Q   E E E E   +W
|------------------|-----------------2-|-(2)----|
|------------------|-----------------3-|-(3)----|
|--2---2---2-----2-|-(2)---2---2-----2-|-(2)----|
|--2---2---2-----2-|-(2)---2---2-----0-|-(0)----|
|--0---0---0-----0-|-(0)-0-0---0-------|--------|
|------------0-3---|-------------3-0---|--------|


  +H..          E    W
   |
   /

  Gtr II
  +H..          E   +Q   Q   E  E  E  E
|-(2)-----------0-|-(0)--0---0-(0)-0-(0)-|
|-(3)----------/8-|-(8)--7---7s=5--5s=3--|
|-(2)-------------|----------------------|
|-(0)-------------|----------------------|
|-----------------|----------------------|
|-----------------|----------------------|
|
| Gtr I
|  H      Q  E  E   +Q   E E E  E  E  E
|-----------------|----------------------|
|---------------8-|-(8)--7p5-7s=5--5p=3--|
|---------------9-|-(9)--7p5-7s=5--5p=4--|
|---------------7-|-(7)------------------|
|-----------------|----------------------|
|-----------------|----------------------|


  W                     W
  Q  E  E  E E E  E    +W
|-0--0-(0)-0---------|--------------------|
|-5--3s=1--1---------|--------------------|
|------------2-0--2--|-(2)----------------|
|------------2-0--2--|-(2)----------------|
|-----------------0--|-(0)----------------|
|--------------------|--------------------|
|
|                 ~~~~~~~~~~~~~      ~~
| Q  Q     E E E  E    +E   Q   +Q   Q.
|--------------------|--------------------|
|-1--0---------------|--------------------|
|-2--0-----2-0---[2]-|-(2)-[2]--(2)--2----|
|--------------2-----|--------------------|
|--------------------|--------------------|
|--------------------|--------------------|


                                  2.
   Q   E   E      +Q   E     E      W
|-------------------------------||-(2)--------|
|------------------------------o||-(3)--------|
|--2---x-/14-----(14)\-x-----2--||-(2)--------|
|--2---x-/14-----(14)\-x-----2--||-(0)--------|
|-(0)--x-/12-----(12)\-x-----0-o||------------|
|-------------------------------||------------|
|
|  Q.     +E      +Q.     a  E      W
|-------------------------------||-(2)--------|
|------------------------------o||-(3)--------|
|-[2]-----(2)b7===(2)r===(2)----||-(2)--------|
|----------------------------7--||-(0)--------|
|----------------------------7-o||------------|
|----------------------------5--||------------|


  +H..       E   +E  E Q   Q   Q
|-(2)----------|-------------------|
|-(3)--------8-|-(8)-8-7---7---5---|
|-(2)--------9-|-(9)-9-7---7---5---|
|-(0)--------7-|-(7)-7-7---7---5---|
|--------------|-------------------|
|--------------|-------------------|
|
| +H..       E   +E  E E E E E Q
|-(2)--------3-|-(3)-3-2p0-----0---|
|-(3)----------|---------0-7s5-5---|
|-(2)----------|-------------------|
|-(0)----------|-------------------|
|--------------|-------------------|
|--------------|-------------------|


  +H..           E   +E  E Q  Q     E E
|------------------|------------------1-|
|-(5)------------5-|-(5)-5-3--3-------1-|
|-(5)------------5-|-(5)-5-4--4-------2-|
|-(5)------------5-|-(5)-5-5--5-----3---|
|------------------|--------------------|
|------------------|--------------------|
|
| +H..        a  E   +E  E Q  E  E  Q
|-(0)------------0-|-(0)-0-0--0-(0)-----|
|-(5)--------(3)s5-|-(5)-5-3--3s=1--1---|
|------------------|--------------------|
|------------------|--------------------|
|------------------|--------------------|
|------------------|--------------------|


  +H.       E  E   +E  E Q  Q  Q    Q  Q  Q  E E
|-(1)----------3-|-(3)------------|----------------|
|-(1)----------3-|-(3)-3-3--3--3--|-3--3-----------|
|-(2)----------0-|-(0)-0-4--5--4--|-5--4--2--0-----|
|-----------3s=5-|-(5)-5-5--5--5--|-5--5--2--0-5---|
|----------------|----------------|------------5---|
|----------------|----------------|------------3---|
|
| +H..         E   +E  E Q  Q  Q    Q  Q  Q  E E
|----------------|----------------|----------------|
|-(1)---------/3-|-(3)-3s1--1--0--|-1--0-----------|
|----------------|----------------|-------2--0-----|
|----------------|----------------|------------5---|
|----------------|----------------|------------5---|
|----------------|----------------|------------3---|


  Gtrs I, II
   PM-----------------------|
  +E  E E E E E E E   E E E E E E E E
|-------------------|-----------------||
|-------------------|-----------------||
|-------------------|---------------2-||
|-(5)-5-5-5-5-5-5-5-|-5-5-5-5-5-2-5-2-||
|-(5)-5-5-5-5-5-5-5-|-5-5-5-5-5-2-5-0-||
|-(3)-3-3-3-3-3-3-3-|-3-3-3-3-3-0-3---||


 Chorus
  +E  E E     E E     E E E   +E  E E     E E     E E E
|---------------------------|---------------------------|
|---------------------------|---------------------------|
|-(2)---------------------2-|-(2)---------------------2-|
|-(2)---------2-------2---2-|-(2)---------2-------2---2-|
|-(0)-0-3b3.5-0-3b3.5-0---0-|-(0)-0-3b3.5-0-3b3.5-0---0-|
|-----------------------3---|-----------------------3---|


  +E  E E     E E     E E E   +E  E E     E E     E E E
|---------------------------|---------------------------|
|---------------------------|---------------------------|
|-(2)---------------------2-|-(2)---------------------2-|
|-(2)---------2-------2---2-|-(2)---------2-------2---2-|
|-(0)-0-3b3.5-0-3b3.5-0---0-|-(0)-0-3b3.5-0-3b3.5-0---0-|
|-----------------------3---|-----------------------3---|


                                                      ~
  +E  E E     E E     E E E   +E  E E     E E     E E E
|---------------------------|---------------------------|
|---------------------------|---------------------------|
|-(2)---------------------2-|-(2)-----------------------|
|-(2)---------2-------2---2-|-(2)---------2-------------|
|-(0)-0-3b3.5-0-3b3.5-0---0-|-(0)-0-3b3.5-0-3b3.5-0-----|
|-----------------------3---|-----------------------3-1-|


                   G5                   A5
                   Gtr I
   H..             E   +H..             E
                   |    |               |
                   /    /               /

                   Gtr II
   ~~~~            ~
  +E   E E E E E E E   +E   E E E E E E E
|--------------------|--------------------||
|--------------------|--------------------||
|--------------------|------------------2-||
|--------------------|------------------2-||
|--------3-2-3-2-0---|--------3-2-3-2---0-||
|-(1)--1-----------3-|-(3)--3---------3---||


   W                           W
  Gtrs I, II
  +E  E E     E E     E E E   +E  E E     E E     E E E
|---------------------------|---------------------------|
|---------------------------|---------------------------|
|-(2)---------------------2-|-(2)---------------------2-|
|-(2)---------2-------2---2-|-(2)---------2-------2---2-|
|-(0)-0-3b3.5-0-3b3.5-0---0-|-(0)-0-3b3.5-0-3b3.5-0---0-|
|-----------------------3---|-----------------------3---|


  E E E     E E     E E E   +E  E E     E E     E E E
|-------------------------|---------------------------|
|-------------------------|---------------------------|
|-2---------------------2-|-(2)---------------------2-|
|-2---------2-------2---2-|-(2)---------2-------2---2-|
|-0-0-3b3.5-0-3b3.5-0---0-|-(0)-0-3b3.5-0-3b3.5-0---0-|
|---------------------3---|-----------------------3---|


  +E  E E     E E     E E E
|---------------------------|
|---------------------------|
|-(2)---------------------2-|
|-(2)---------2-------2---2-|
|-(0)-0-3b3.5-0-3b3.5-0---0-|
|-----------------------3---|


                       E5D5                           B5
                       Gtr II
  H.                   E E   +W           +H..        E
                       | |    |            |          |
                       / /    /            /          /

                       Gtr I
                                           TP
  E  E E     E E     E E E   +W            H.       Q
|--------------------------|------------|---------------||
|------------------------3-|-(3)--------|--x\-----------||
|-2----------------------2-|-(2)--------|--x\-----------||
|-2----------2-------2---0-|-(0)--------|---------------||
|-0--0-3b3.5-0-3b3.5-0-----|------------|---------------||
|----------------------3---|------------|---------------||


 Guitar Solo
     A5B5   A5V    B5            A5B5          E5F5F#5
  +E E E    E E    E E E   +E    E E    E E    E E E
   | | |    | |    | | |    |    | |    | |    | | |
   / / /    x /    / x /    /    / /    x /    / / /

   E E E    E E    E E E    E    E E    E E    E E E
|--------------------7-7-|-------------------------------|
|----7------7------7-7-7-|-------7------7------7-7-9b10==|
|------9b11---9b11-------|--9b11---9b11---9b11-----9b10==|
|------------------------|-------------------------------|
|------------------------|-------------------------------|
|------------------------|-------------------------------|


      E5  F#5  E5       F#5          E5F#5       B5
  +E   E  E     E  E     E  E E   +E E E E E E E  E
   |   |  |     |  |     |  | |    | | |   |      |
   /   /  /     x  /     /  x /    / / /   /      /

                                       ~
  +E  +E  E    +E  E    +E  E E    E E H       E  E
|-------------------------------|----------------10--|
|-(9)r(9)-9b10r(9)-9b10r(9)-7-9-|--7-9-7-------------|
|-(9)-(9)-9b10r(9)-9b10r(9)-7-9-|--7-9-7-------------|
|-------------------------------|--------------------|
|-------------------------------|--------------------|
|-------------------------------|--------------------|


       A5B5   A5B5              A5V   B5    E5F5F#5
   +E  E E  E E E E E       +E   E    E E E E E E
    |  | |  | | | | |        |   |    | | | | | |
    /  / /  x / / x /        /   /    / x / / / /

   +E  E E  E E E E E       +E  +S  S E E E E E E
|-(10)-9-7----------------|-----------------------|
|----------10-9-7---------|-----------------------|
|-----------------9-9b10==|=(9)r(9)p7-7-9-7-------|
|-------------------------|-----------------9-7-9s|
|-------------------------|-----------------------|
|-------------------------|-----------------------|


     E5F#E5  F#5           G5(tG#5 A5V
  +E E E E E E E E   E E E E E E E E
   | | | | | | | |     |   |   |   |
   / / / x / / x /     /   /   /   /

                     PM|   PM
   E E E E E E E E   E E E E E Q   E
|------------------|-----------------||
|------------------|-----------------||
|------------------|-----------------||
|--7-7s5-5s4-4s2-2-|-0-4---5---6s==7-||
|------------------|---4---5---6S==7-||
|------------------|---2---3---4s==5-||


  D                                                           F#5
   H            E     Q      E       +H           E     Q       E
   |            |     |      |        |           |     |       |
   /            /     /      /        /           /     /       /

                                                                ~~~
   W                                  W
|-10------------------------10----|-(10)--10----------------------|
|-10-----------10--------10-10----|-(10)--10-----10--------10-----|
|--9b11--9b11---9b11r(9)--7--9b11-|--(9)---9b11---9b11r(9)--7-/11-|
|---------------------------------|-------------------------------|
|---------------------------------|-------------------------------|
|---------------------------------|-------------------------------|
   Q     Q      E    +E   E  E       +Q    Q      E    +E   E   E


                                                                      D
   +H               E       Q      E   +H                    E   Q     E
    |               |       |      |    |                    |   |     |
    /               /       /      /    /                    /   /     /

    ~~~~                                                 ~~~~~~~ PM|
    W                                   W
|---------9-12b14==12r====(12)-------|--------------------------------10-|
|------10----------12pb13r(12)-10-12-|-12b14r(12)p10------------------10-|
|-(11)-------------------------------|---------------11-11-(11)-11-------|
|------------------------------------|-----------------------------12----|
|------------------------------------|-----------------------------------|
|------------------------------------|-----------------------------------|
   +E   E E  E      E      +E   E  E    E     +S   S  E  E  +E   E  E  E


                                                             F#5
   +Q      Q     E  Q   E   +Q     Q             E  Q         E
    |      |     |  |   |    |     |             |  |         |
    /      /     /  /   /    /     /             /  /         /

    W                        W
|-(10)-10----------10--13s|=14-10----------------------------------|
|-(10)-10----------10--12s|=13-10----------------------------17b19-|
|---------12-10h11--------|-------12b14r(12)p10-12-10h11p=0--------|
|-------------------------|------------------------------(0)-------|
|-------------------------|----------------------------------------|
|-------------------------|----------------------------------------|
   +E   E  E  E  E  Q   E    E  E  E     +S   S  E  S  S  E   E


   +Q            Q                E     Q           E
    |            |                |     |           |
    /            /                /     /           /

                                                    ~~
    W
|------14----------------------------------------------|
|-(17)----17p14----------------------------------------|
|---------------16b18r(16)p14----16p14-----------------|
|-----------------------------16-------16-14-----------|
|--------------------------------------------16-14s13--|
|------------------------------------------------------|
   +S   S  S  S  S     +S   S  S  S  S  S  S  S  S  E


                          D                                      F#5
   +Q   Q        E     Q    E     +Q  Q   E Q   E   +Q  Q   E Q    E
    |   |        |     |    |      |  |   | |   |    |  |   | |    |
    /   /        /     /    /      /  /   / /   /    /  /   / /    /

    ~~~~   PM------|   ~~~~~~~~~   ~~     ~          ~~   PM       ~~~
    W                              W                 W
|-------------------------------|-----------------|------------------|
|-------------------------------|--7--7-6s7---7-6s|==7--7---7s9--/10-|
|-------------------------------|-----------------|------------------|
|-------------------------------|--7--7-6s7---7-6s|==7--7-0-7s9--/11-|
|-(13)----------13----12--(12)\-|-----------------|------------------|
|---------14-14----14-----------|-----------------|------------------|
   +Q.     S  S  S  S  Q   +E      Q  E E Q   E E    Q  E E E Q    E


                                    D
   +Q   Q  E Q   E   +Q    Q  E  Q  E   +Q        Q   E    Q    E
    |   |  | |   |    |    |  |  |  |    |        |   |    |    |
    /   /  / /   /    /    /  /  /  /    /        /   /    /    /

    ~~~~         ~~   ~~~     ~~
    W                 W                  W
|------------------|------------------|-----------4-5-------------|
|-(10)--9--9s7--/5-|-(5)-5s4s=2-------|---------------5b7r(5)-2-5-|
|------------------|----------------4-|-(4)b6-(4)-----------------|
|-(11)--9--9s7--/6-|-(6)-6s4s=2-------|---------------------------|
|------------------|------------------|---------------------------|
|------------------|------------------|---------------------------|
   +Q   Q  E Q   E   +E  E Q  Q.    E   +E    +E  E E E   +E  E E


  +Q         Q   E   Q.
   |         |   |
   /         /   /

   E   +S  S E E E   S S E  E
|---------------------------------|
|---------------------------------|
|--4b6r(4)p2-4-2-4b6-4p2----------|
|------------------------4-[4]b7==|
|---------------------------------|
|---------------------------------|
|
|                    Gtr II
|                    PM--|
|  H             E   E   E  E
|---------------------------------|
|---------------------------------|
|---------------------------------|
|---------------------------------|
|--------------------2---3--4-----|
|--------------------0---1--2-----|


   W                         W
                       ~~~~~~~~~          PM| ~
  +H        +E  Q     +E    +H        +E  E E E
|-------------------------|---------------------|
|-------------------------|---------------------|
|-------------------------|---------------------|
|-(4)r======(4)s2b4r==(2)-|-(2)-------(2)-------|
|-------------------------|---------------------|
|-------------------------|---------------0-1-2-|
|
|     PM  PM--------|           PM  PM------|
| +E  E E E  E  E   E  E    +E  E E E  E  E E E
|-------2-----------------|-------0-------------|
|-------2-----------------|-------0-------------|
|-------------------------|---------------------|
|-------------------------|---------------------|
|-(4)-4---4--4--4---3--2--|-(2)-2---2--2--2-3-4-|
|-(2)-2---2--2--2---1--0--|-(0)-0---0--0--0-1-2-|


   ~~~        PM|
  +H        E E E E   +E  E Q   +E  E E E   +Q    Q   E E E E   +W
|-------------------|-------0---(0)-0-1-2-|-(2)---2---0-2-1-0-|-(0)---------|
|-------------------|-------0---(0)-0-1-2-|-(2)---2---0-2-1-0-|-(0)---------|
|-------------------|---------------------|-------------------|-------------|
|-------------------|---------------------|-------------------|-------------|
|-------------------|---------------------|-------------------|-------------|
|-(2)-------x-2-1-0-|-(0)-x---------------|-------------------|-------------|
|
|     PM  PM----|         PM  PM------|         PM  PM----|         PM
| +E  E E E E E E E   +E  E E E  E  E E E   +E  E E E E E E E   +E  E H.
|-------2-----------|-------0-------------|-------2-----------|-------0-----|
|-------2-----------|-------0-------------|-------2-----------|-------0-----|
|-------------------|---------------------|-------------------|-------------|
|-------------------|---------------------|-------------------|-------------|
|-(4)-4---4-4-4-3-2-|-(2)-2---2--2--2-3-4-|-(4)-4---4-4-4-3-2-|-(2)-2-------|
|-(2)-2---2-2-2-1-0-|-(0)-0---0--0--0-1-2-|-(2)-2---2-2-2-1-0-|-(0)-0-------|


  D5                             C5A5
  Gtr II
  E E E E E E E E     E  E E E E E  E E    +Q    E E Q     E E
  | | | | | | | |     |  | | | | |  | |     |    |           |
  / / / / / / / /     /  / / / / /  / /     /    /           /

  Gtr I
                                                   PM
  W                   H.            E E    +E  E E E E S S E E
|-----------------|---------------------||---------------------|
|-7s==============|=(10)s==========14-8-||-(8)-8-7---7-x-x-7s5-|
|-7S==============|=(10)S==========14-9-||-(9)-9-7---7-x-x-7S5-|
|-7s==============|=(10)s==========14-7-||-(7)-7-7---7-x-x-7s5-|
|-----------------|---------------------||---------0-----------|
|-----------------|---------------------||---------------------|


                F5                                                     G5
  +Q   E E Q  E E   +Q   E E   Q       E  E    +Q   E E   Q        E   E
   |   |        |    |   |                |     |   |                  |
   /   /        /    /   /                /     /   /                  /

   ~~~        PM
  +H.         E E   +Q   E S S S S S S E  E    +H        +E   +E   S S E
|-----------------|-------------------------|--------------------------3--|
|-(5)-------------|-------------------------|--------------------------3--|
|-(5)-----------5-|-(5)--4-x-x-4-x-x-x---10-|-(10)------(10)-(10)\-x-x-0--|
|-(5)-----------7-|-(7)--5-x-x-5-x-x-x---10-|-(10)------(10)-(10)\-x-x-0--|
|-----------------|--------------------8--8-|--(8)-------(8)--(8)\--------|
|-------------0---|-------------------------|--------------------------3--|


                                     A5                     C5
  +Q   E E   Q   E E   +Q   E E Q  E  E      +Q    E E Q  E  E
   |   |           |    |   |         |       |    |         |
   /   /           /    /   /         /       /    /         /

               PM               ~                            ~~~
  +Q   E S S E E E E   +Q   Q   Q  E  E      +H..           +E
|-(3)----------------|---------------------|--------------------|
|-(3)--5-----5-------|---------------------|--------------------|
|-(0)--5-----5---4-5-|-(5)--4---2--0-[2]b5-|-(2)------------(2)-|
|-(0)--5-----5---5-5-|-(5)--5---2--0-------|--------------------|
|--------x-x---------|---------------------|--------------------|
|-(3)----x-x---3-----|---------------------|--------------------|


                     Chorus
                 A5
  +H      +E E E E     W                   W
   |       | | | |
   /       / o o /

                      Gtrs I, II
   ~~~~
  +H..           E     E  E E E E E E E   +E  E E E E E E E
|------------------||-------------------|-------------------|
|------------------||-------------------|-------------------|
|-(2)--------------||-(2)-------------2-|-(2)---------------|
|------------------||-(2)-------------2-|-(2)---------------|
|------------------||-(0)-0-3-0-3-0---0-|-(0)-0-3-0-3-0-----|
|------------------||---------------3---|---------------3-1-|


  +E  E E E E E E E   +E  E E E E E E E   +E  E E E E E E E
|-------------------|-------------------|-------------------|
|-------------------|-------------------|-------------------|
|-------------------|-------------------|-------------------|
|-------------------|-------------------|-------------------|
|-------3-2-3-2-0---|-------3-2-3-2-0---|-------3-2-3-2-0---|
|-(1)-1-----------1-|-(1)-1-----------3-|-(3)-3-----------3-|


  Gtr I
                                ~~~~~~PM--|                    ~   PM~
   H        Q   E E   +Q.       E +E  E E E    E   +S  S E E   Q   E E
|-------------------|-----------------------|--------------------------||
|-------------------|-----------------------|--------------------------||
|-------------------|-----------------------|------------------------2-||
|-------------------|-----------------------|--------------------------||
|-------------------|-------------------3-5-|--5b7r(5)p3-5-5b7-3---0---||
|-----------------3-|-(3)b5-----5-(5)-5-----|--------------------------||
|
| Gtr II
| +E  E E E E E E E   +E    E E E  E  E E E   +E    E    E E   E E E E
|-------------------|-----------------------|--------------------------||
|-------------------|-----------------------|--------------------------||
|-----------------2-|-(2)-----------------2-|-(2)--------------------2-||
|-----------------2-|-(2)-------2---------2-|-(2)----------2---------2-||
|-------3-2-3-2---0-|-(0)---0-3-0--3--0---0-|-(0)---0----3-0---3-0---0-||
|-(3)-3---------3---|-------------------3---|----------------------3---||


 Out-Chorus
   ~~~  PM-----------|      ~~~
  +Q    E E E E E    +E    +H.           E +E
|------------------------|---------------------|
|------------------------|---------------------|
|-(2)---2-2-2-2-2b5==(2)-|-(2)-----------2r(2)-|
|------------------------|---------------------|
|------------------------|---------------------|
|------------------------|---------------------|
|
| +E  E E E E E E     E    +E  E E E E E E  E
|------------------------|---------------------|
|------------------------|---------------------|
|-(2)-----------------2--|-(2)-----------------|
|-(2)-----------------2--|-(2)-----------------|
|-(0)-0-3-0-3-0-------0--|-(0)-0-3-0-3-0-------|
|---------------3--------|---------------3--1--|


         ~~~  PM|                  ~~~~~~~~~    ~
  +Q     Q    E E E    +E    +Q    Q   +E   E E E
|--------------------------|-----------------------|
|--------------------------|-----------------------|
|-(2)---[2]---2-2-2b5==(2)-|-(2)---2---(2)r-5-5-4--|
|--------------------------|-----------------------|
|--------------------------|-----------------------|
|--------------------------|-----------------------|
|
| +E  E  E  E E E E     E    +E  E E E  E   E E E
|--------------------------|-----------------------|
|--------------------------|-----------------------|
|--------------------------|-----------------------|
|--------------------------|-----------------------|
|--------3--2-3-2-0--------|-------3-2--3---2-0----|
|-(1)-1-----------------1--|-(1)-1--------------3--|


   ~~~    PM--|   ~~~~~~~~            ~~~~~~
  +Q    E E E E E E   +Q    Q   E E E E
|-------------------|----------------------|
|-------------------|----------------------|
|-(4)---4-4-4-4-4s7-|-(7)---7---7s5-5S9b12-|
|-------------------|----------------------|
|-------------------|----------------------|
|-------------------|----------------------|
|
| +E  E E E E E E E   +E  E E E E E E E
|-------------------|----------------------|
|-------------------|----------------------|
|-------------------|-----------------2----|
|-------------------|-----------------2----|
|-------3-2-3-2-0---|-------3-2-3-2---0----|
|-(3)-3-----------3-|-(3)-3---------3------|


 ~~~~~             PM----------------------|
  +Q.     E    +E  S  S S  S S  S    S   S  S  S  +Q     +Q     E E
|---------------------------------|-----------------------------------||
|---------------------------------|-----------------------------------||
|-(9)-----9b12-(9)-9----9-11p9----|--9----------------------------7b9-||
|--------------------12--------12-|-----12p10-------------------------||
|---------------------------------|-----------12-(12)---(12)\---------||
|---------------------------------|-----------------------------------||
|
| +E  E E E     E  E    E    E      +E      E      E  E   E   E E E
|---------------------------------|-----------------------------------||
|---------------------------------|-----------------------------------||
|-(2)------------------------2----|-(2)---------------------------2---||
|-(2)-----2------------------2----|-(2)---------------2-----------2---||
|-(0)-0-3-0-----3--0---------0----|-(0)-----0------3--0---3---0---0---||
|-----------------------3---------|-----------------------------3-----||


                                   ~~~~
  +Q    E S    +S  +Q    E E      +H..             E
|-------------------------------|----------------------|
|--------------------------8b10-|-(8)------------------|
|-(7)---7-7b9==(7)r(7)---5------|------------------7b9-|
|-------------------------------|----------------------|
|-------------------------------|----------------------|
|-------------------------------|----------------------|
|
| +E  E E E         E  E E E      +E   E E E E E E E
|-------------------------------|----------------------|
|-------------------------------|----------------------|
|-(2)----------------------2----|-(2)------------------|
|-(2)----------------------2----|-(2)------------------|
|-(0)-0-3-0---------3--0---0----|-(0)--0-3-0-3-0-------|
|------------------------3------|----------------3-1---|


            ~                        ~~~~~~~
  +Q    Q   Q   E E      +E  E E    +E  +Q    E E
|----------------------|-----8----------------8-----|
|-----------------8b10-|-(8)---8b10-(8)-(8)---------|
|-(7)---7---7---5------|------------------------7b9-|
|----------------------|----------------------------|
|----------------------|----------------------------|
|----------------------|----------------------------|
|
| +E  E E E E E E E      +E  E E     E   E  E E E
|----------------------|----------------------------|
|----------------------|----------------------------|
|----------------------|----------------------------|
|----------------------|----------------------------|
|-------3-2-3-2-0------|-------3-----2---3--2-0-----|
|-(1)-1-----------1----|-(1)-1------------------3---|


            ~                                    ~~~~
  +Q    Q   Q   E  E      +E  E E E E   +S  S E  E
|-----------------------|-----5---------------------|
|-----------------[5]b7-|-(5)---8-5-----------------|
|-(7)---7---7---5-------|-----------7b9r(7)p5-------|
|-----------------------|---------------------7-[7]-|
|-----------------------|---------------------------|
|-----------------------|---------------------------|
|
| +E  E E E E E E  E      +E  E E E E    E    E  E
|-----------------------|---------------------------|
|-----------------------|---------------------------|
|-----------------------|------------------------2--|
|-----------------------|------------------------2--|
|-------3-2-3-2-0-------|-------3-2-3----2-------0--|
|-(3)-3------------3----|-(3)-3---------------3-----|


 ~~~~~
  +E  E E E E E E E    E   S S E E   +Q     E  E
|-------------------|----------------------------------||
|-------------------|----------------------------------||
|-------------------|-------------------------[7]pb8===||
|-(7)-5-------------|----------------------------------||
|-------7-6-5-3-5-3-|--5b7-5p3---5b7-(5)\--------------||
|-------------------|----------5-----------------------||
|
| +E  E E E E E E E   +E   E   E E    E   E E  E
|-------------------|----------------------------------||
|-------------------|----------------------------------||
|-(2)-------------2-|-(2)----------------------2-------||
|-(2)-----2-------2-|-(2)--------2-------------2-------||
|-(0)-0-3-0-3-0---0-|-(0)--0---3-0----3---0----0-------||
|---------------3---|-----------------------3----------||


               ~~~~~~~~~              ~~~
   +E    +E    Q     E   E  E E      +H        +E  S S E     +E
|----------------------------------|---------------5-8-----------|
|-----------------------------8b10-|-(8)-------(8)-----8b10==(8)-|
|-([7])r([7])-[7]---[7]-[7]-5------|-----------------------------|
|----------------------------------|-----------------------------|
|----------------------------------|-----------------------------|
|----------------------------------|-----------------------------|
|
|  +E     E    E  E  E   E  E E      +E  E E E  E  E   E      E
|----------------------------------|-----------------------------|
|----------------------------------|-----------------------------|
|--(2)------------------------2----|-(2)-------------------------|
|--(2)------------------------2----|-(2)-------------------------|
|--(0)----0----3--0--3---0----0----|-(0)-0-3-0--3--0-------------|
|---------------------------3------|-------------------3------1--|


                                            ~~~~~~~~~~~~~~
                                                       |-----3-----|
  +E.   +S     +E.   S E    +E  E  E       +H         +E  E   Q    Q
|--------------------8------------------|-----------------x---8---10-----|
|-(8)r==(8)b10-(8)-----8b10r(8)-5-10b13-|-(10)-------(10)----------------|
|---------------------------------------|--------------------------------|
|---------------------------------------|--------------------------------|
|---------------------------------------|--------------------------------|
|---------------------------------------|--------------------------------|
|
| +E  E         E  E   E     E  E  E       +E  E E E   E    E   E    E
|---------------------------------------|--------------------------------|
|---------------------------------------|--------------------------------|
|---------------------------------------|--------------------------------|
|---------------------------------------|--------------------------------|
|---------------3--2---3-----2--0-------|--------3-2---3----2---0--------|
|-(1)-1----------------------------1----|--(1)-1---------------------3---|


                                                                        |--3--|
   Q       Q       E     +E  E  E        +E.    +S      +Q     e  e  E  S  S  S
|-------------------------------------|-----------------------------------------|
|-10b12---10b12---10b12r(10)-8-13b15==|=(13)r==(13)b15-(13)---13-12-13-12h13p12p|
|-------------------------------------|-----------------------------------------|
|-------------------------------------|-----------------------------------------|
|-------------------------------------|-----------------------------------------|
|-------------------------------------|-----------------------------------------|
|
| +E    E  E    E  E      E  E  E        +E  E           E  E  E  E  E  E
|-------------------------------------|-----------------------------------------|
|-------------------------------------|-----------------------------------------|
|-------------------------------------|---------------------------------2-------|
|-------------------------------------|---------------------------------2-------|
|----------3----2--3------2--0--------|------------------3--2--3--2-----0-------|
|-(3)---3-----------------------3-----|--(3)-3-----------------------3----------|


                |--3--|
   S   S  S  S  S  S  S  S  S  E     S  S S  S     +S   S
|----------------------------------------------------------|
|-10-----12----10h12p10----10-------10---------------------|
|-----12----12----------12----12b14----12-9----------------|
|-------------------------------------------12b14r(12)-10--|
|----------------------------------------------------------|
|----------------------------------------------------------|
|
| +E      E     E        E     E     E    E         E
|----------------------------------------------------------|
|----------------------------------------------------------|
|-(2)-----------------------------------------------2------|
|-(2)--------------------2--------------------------2------|
|-(0)-----0-----3--------0-----3-----0--------------0------|
|-----------------------------------------3----------------|


                PM------------|                                   ~~     PM
   S   S  S  S  S  S  S  S  E Q    S      +S      +E  E E.    +S  Q.     E
|---------------------------------------------||---------------------------|
|---------------------------------------------||---------------------------|
|---------------------------------------------||---------------------------|
|-----12----10--------------------------------||---------------------------|
|-12-----12----12p10----10--------------------||---------------------------|
|--------------------12----10s8---10b11==(10)r||=(10)-8-3b4---(3)-5------5-|
|
| +E      E     E     E     E E E  E               E  E E   E     E  E E E
|---------------------------------------------||---------------------------|
|---------------------------------------------||---------------------------|
|-(2)------------------------------2----------||--(2)--------------------2-|
|-(2)-----------------2------------2----------||--(2)--------------------2-|
|-(0)-----0-----3-----0-----3-0----0----------||--(0)-0-3---0-----3--0---0-|
|-------------------------------3-------------||-----------------------3---|


             PM----|    ~~~~~~~~                PM-----|
                                                |--3---|
   E   +S  S E E E E E  E   +Q    E  E S  S S S e  e   e
|-------------------------|------------------------------|
|-------------------------|------------------------------|
|-------------------------|---------------------7------9-|
|-------------------------|-------7-10-9h10p9p7---10-----|
|--5b7r(5)p3-5-5-3-5---/8-|-(8)--------------------------|
|-------------------------|------------------------------|
|
| +E    E    E E E E E  E   +E  E E  E E    E   E    E
|-------------------------|------------------------------|
|-------------------------|------------------------------|
|-(2)---------------------|------------------------------|
|-(2)---------------------|------------------------------|
|-(0)---0----3-0-3-0------|-------3--2-3----2---0--------|
|--------------------3--1-|-(1)-1--------------------1---|


   PM-----|                     PM---|
   |--3---|  |--3---|  |---3----|  |---3---|                 |---3---|  |---3---|  |---3---|
   E  E   E  E  E   E  S S  E   e  e  e    E    S   S  S  S  E  E    E  E  E    E  E  E    E
|--------------------------------------------|----------------------10----12------10-12---13-|
|-----------------------------------------10h|=12p=10----10-12-13------13------13------------|
|-----7---9-10s12---9h10p9------9-10-12------|--------12-------------------------------------|
|-10-----------------------12----------------|-----------------------------------------------|
|--------------------------------------------|-----------------------------------------------|
|--------------------------------------------|-----------------------------------------------|
|
| +E    E    E    E    E      E    E    E      +E      E     E    E     E    E     E    E
|--------------------------------------------|-----------------------------------------------|
|--------------------------------------------|-----------------------------------------------|
|--------------------------------------------|-----------------------------------------------|
|--------------------------------------------|-----------------------------------------------|
|------------3----2----3------2----0---------|---------------3----2-----3----2-----0---------|
|-(1)---1-------------------------------3----|-(3)-----3--------------------------------3----|


   |------5-------|
   S   S  S    S  S  E  E      +E   +E      +E   E
|-12h=13p12p==10----10-13b15==(13)r(13)b15-(13)-13---|
|----------------13----------------------------------|
|----------------------------------------------------|
|----------------------------------------------------|
|----------------------------------------------------|
|----------------------------------------------------|
|
| +E        E        E  E       E    E       E   E
|----------------------------------------------------|
|----------------------------------------------------|
|------------------------------------------------2---|
|------------------------------------------------2---|
|--------------------3--2-------3----2-----------0---|
|-(3)-------3--------------------------------3-------|


                      ~~
   e   e  S  S  S  S  Q    e  e
|-12--13-12h13p12p10-12---10-13-|
|-------------------------------|
|-------------------------------|
|-------------------------------|
|-------------------------------|
|-------------------------------|
|
| +E   E  E     E     E E  E  E
|-------------------------------|
|-------------------------------|
|-(2)-------------------------2-|
|-(2)-----------2-------------2-|
|-(0)--0--3-----0-----3-0-----0-|
|--------------------------3----|


                                                                      ~~~~~~~
   |------5-------|  |-----5------|
   S   S  S    S  S  S S  S    S  S S S  S S S S  E         +E   +E   Q    Q    e  E
|-12h=13p12p==10-12s10p8------10----7h8h10p8p7-8--------||----------------------------|
|------------------------10------10--------------12b14==||=(12)r(12)-12---12---10-10--|
|-------------------------------------------------------||----------------------------|
|-------------------------------------------------------||----------------------------|
|-------------------------------------------------------||----------------------------|
|-------------------------------------------------------||----------------------------|
|
| +E        E        E      E       E    E   E    E         +E    E   E E  E E  E  E
|-------------------------------------------------------||----------------------------|
|-------------------------------------------------------||----------------------------|
|-(2)---------------------------------------------2-----||--(2)--------------------2--|
|-(2)-----------------------2---------------------2-----||--(2)--------------------2--|
|-(0)-------0--------3------0-------3----0--------0-----||--(0)---0---3-0--3-0-----0--|
|--------------------------------------------3----------||----------------------3-----|


    ~~~~
                          |--3--|                     |----3----|
   +Q     e  E     +Q     S  S  S  E       +H         q    q    q
|------------------------10-------------|------------12---15---15---|
|-(10)---10-13b15-(13)------13p10h13b17-|-(13)----------------------|
|---------------------------------------|---------------------------|
|---------------------------------------|---------------------------|
|---------------------------------------|---------------------------|
|---------------------------------------|---------------------------|
|
|  +E  E  E  E      E  E  E        E       +E  E E E  E E    E    E
|---------------------------------------|---------------------------|
|---------------------------------------|---------------------------|
|--(2)----------------------------------|---------------------------|
|--(2)----------------------------------|---------------------------|
|--(0)-0--3--0------3--0----------------|--------3-2--3-2----0------|
|-------------------------3--------1----|--(1)-1------------------1-|


                                                 ~~~~
                                                                  |----3-----|
   E      +S   S  E  E       +E   +E   E   E    +Q.       a   E  +Q     Q    Q
|----------------------------------------/15-|-(15)-----(15)s12-(12)-------------|
|-15pb17r(15)p13-15-12pb13==(12)r(12)-10-----|-------------------------16---15---|
|--------------------------------------------|-----------------------------------|
|--------------------------------------------|-----------------------------------|
|--------------------------------------------|-----------------------------------|
|--------------------------------------------|-----------------------------------|
|
| +E       E      E  E        E    E   E   E    +E  E E       E   E  E    E    E
|--------------------------------------------|-----------------------------------|
|--------------------------------------------|-----------------------------------|
|--------------------------------------------|-----------------------------------|
|--------------------------------------------|-----------------------------------|
|-----------------3--2--------3----2---0-----|--------3-------2---3--2----0------|
|-(1)------1-------------------------------3-|--(3)-3--------------------------3-|


               |------5------|        |--3--|
   E     S  S  S  S  S    S  S  S  S  T  T  T  S  S  S  S  S
|-------12-15-13h15p13p==12----13----12h13p12----12-------12-|
|-15b17---------------------15----15----------15----13-15----|
|------------------------------------------------------------|
|------------------------------------------------------------|
|------------------------------------------------------------|
|------------------------------------------------------------|
|
| +E     E     E       E        E     E           E     E
|------------------------------------------------------------|
|------------------------------------------------------------|
|-------------------------------------------------------2----|
|-------------------------------------------------------2----|
|--------------3-------2--------3-----2-----------------0----|
|-(3)----3----------------------------------------3----------|


   S   S  S  S  S  S  S  S  S  S  S  S  S  S  S  S       +Q     E  E     +H
|-----------------------------------------------------|--------15-------------------*|
|-15p=13-15p13-12----13----12h13p12----12-13-15-15b17-|-(15)------15b17-(15)--------*|
|-----------------14----14----------14----------------|-----------------------------*|
|-----------------------------------------------------|-----------------------------*|
|-----------------------------------------------------|-----------------------------*|
|-----------------------------------------------------|-----------------------------*|
|
| +E      E     E     E     E     E     E     E          +E  E  E  E      E  E E E
|-----------------------------------------------------|-----------------------------*|
|-----------------------------------------------------|-----------------------------*|
|-(2)-----------------------------------------2-------|--(2)---------------------2--*|
|-(2)-----------------2-----------------------2-------|--(2)-------2-------------2--*|
|-(0)-----0-----3-----0-----3-----0-----------0-------|--(0)-0--3--0------3--0---0--*|
|---------------------------------------3-------------|------------------------3----*|



Duration Legend
---------------
W - whole; H - half; Q - quarter; E - 8th; S - 16th; T - 32nd; X - 64th; a - acciaccatura
+ - note tied to previous; . - note dotted; .. - note double dotted
Uncapitalized letters represent notes that are staccato (1/2 duration)
Irregular groupings are notated above the duration line
Duration letters will always appear directly above the note/fret number it represents the
duration for.  Duration letters with no fret number below them represent rests.  Multi-
bar rests are notated in the form Wxn, where n is the number of bars to rest for.  Low
melody durations appear below the staff

Tablature Legend
----------------
 h   - hammer-on
 p   - pull-off
 b   - bend
 pb  - pre-bend
 r   - bend release (if no number after the r, then release immediately)
 /\  - slide into or out of (from/to "nowhere")
 s   - legato slide
 S   - shift slide
 - natural harmonic
[n]  - artificial harmonic
n(n) - tapped harmonic
 ~   - vibrato
 tr  - trill
 T   - tap
 TP  - trem. picking
 PM  - palm muting
\n/  - tremolo bar dip; n = amount to dip
 \n  - tremolo bar down
 n/  - tremolo bar up
/n\  - tremolo bar inverted dip
 =   - hold bend; also acts as connecting device for hammers/pulls
 <> - volume swell (louder/softer)
 x   - on rhythm slash represents muted slash
 o   - on rhythm slash represents single note slash

Misc Legend
-----------
 |  - bar
||  - double bar
||o - repeat start
o|| - repeat end
*|  - double bar (ending)
 :  - bar (freetime)
 $  - Segno
 &  - Coda
Tempo markers -  = BPM(8/16=s8/s16), where s8 = swing 8ths, s16 = swing 16ths

I want to post or [tab]
guest
You may want to rate the tab now too:
select rating
Please do not post tabs as comments. Select "correction" instead!