Oops, an error
Loading. Please wait.

Spaghetti Incident Tab

ver2
ver2

Album

More versions @911Tabs.com
7,482 views 9 this week
no commentswrite comment
1 2 3 4 5
accurate
x 6
Autoscroll
+/-
esc
set tempo
stop
Contributor
Difficulty
intermediate
Hey! There's an official Ultimate Guitar app which is ideal
for learning songs when you're away from computer. Get the app
WARNING: You are trying to view
                                    content from Ultimate-Guitar.com
                                    in an unauthorized application,
                                    which is prohibited.

                                    Please use an official Ultimate
                                    Guitar Tabs application for iPhone,
                                    iPad or Android to access legitimate
                                    chords, guitar, bass, and drum tabs
                                    from Ultimate-Guitar.com database.

                                    Type "ultimate guitar tabs" in Apple
                                    App Store's or Android Market's
                                    search to find the application.
Guns N' Roses - The Spaghetti Incident? Album

Year: 1993
Tracks: 12
Index:

++++++++++++++++++++++++++++++++++++++++++++++++
+ 01. Since I Don't Have You                   +
+ 02. New Rose                                 +
+ 03. Down on the Farm                         +
+ 04. Human Being                              +
+ 05. Raw Power                                +
+ 06. Ain't it Fun                             +
+ 07. Buick MacKane                            +
+ 08. Hair of the Dog                          +
+ 09. Attitude                                 +
+ 10. Black Leather                            +
+ 11. You Can't Put Your Arms Around A Memory  +
+ 12. I Don't Care About You                   +
++++++++++++++++++++++++++++++++++++++++++++++++

===========================================================================
===========================================================================
Duration Legend
---------------
W - whole; H - half; Q - quarter; E - 8th; S - 16th; T - 32nd; X - 64th; a - acciaccatura
+ - note tied to previous; . - note dotted; .. - note double dotted
Uncapitalized letters represent notes that are staccato (1/2 duration)
Irregular groupings are notated above the duration line
Duration letters will always appear directly above the note/fret number it represents the
duration for.  Duration letters with no fret number below them represent rests.  Multi-
bar rests are notated in the form Wxn, where n is the number of bars to rest for.  Low
melody durations appear below the staff

Tablature Legend
----------------
 h   - hammer-on
 p   - pull-off
 b   - bend
 pb  - pre-bend
 r   - bend release (if no number after the r, then release immediately)
 /\  - slide into or out of (from/to "nowhere")
 s   - legato slide
 S   - shift slide
 - natural harmonic
[n]  - artificial harmonic
n(n) - tapped harmonic
 ~   - vibrato
 tr  - trill
 T   - tap
 TP  - trem. picking
 PM  - palm muting
\n/  - tremolo bar dip; n = amount to dip
 \n  - tremolo bar down
 n/  - tremolo bar up
/n\  - tremolo bar inverted dip
 =   - hold bend; also acts as connecting device for hammers/pulls
 <> - volume swell (louder/softer)
 x   - on rhythm slash represents muted slash
 o   - on rhythm slash represents single note slash

Misc Legend
-----------
 |  - bar
||  - double bar
||o - repeat start
o|| - repeat end
*|  - double bar (ending)
 :  - bar (freetime)
 $  - Segno
 &  - Coda
Tempo markers -  = BPM(8/16=s8/s16), where s8 = swing 8ths, s16 = swing 16ths

===========================================================================
===========================================================================

1. Since I Don't Have You

Chords
   G  Am Cm D  Em
E|-3--0--x--2--0-|
B|-0--1--2--3--0-|
G|-0--2--0--2--0-|
D|-0--2--2--0--2-|
A|-2--0--3--x--2-|
E|-3--x--x--x--0-|

Intro:
e|---------------------------------------------------------|
B|------13b15---10br------10-----10h11p10------------------|
G|--------------------12-------------------8-7-------------|  x2
D|--12-----------------------------------------------------|
A|---------------------------------------------------------|
E|---------------------------------------------------------|
then
e|----14br--14--12h14p12-10--------------------------------|
B|----------------------------10br----10--10h11p10---------|
g|---------------------------------12---------------10-8---|
D|---------------------------------------------------------|
A|---------------------------------------------------------|
E|---------------------------------------------------------|

e|---------------------------------------|
B|---------------------------------------|
G|--/9-11-9--11--14--11--9---7------7h9--|
D|-----------------------------9---------|
A|---------------------------------------|
E|---------------------------------------|

G           Cm         D
I don't have plans and schemes,
    G          Cm          D
And I don't have hopes and dreams.
G          Cm
I don't have anything,
Am            D
Since I don't have you.
    G          Cm     D
And I don't have fond desires,
    G          Cm      D
and I don't have happy hours.
G          Cm
I don't have anything,
Am                 D
Since I don't have you.
D                D
Happiness, and I guess,
Am            G
I never will again.
Am
When you walked out on me,
G
In walked ol' misery,
Am                      D
And he's been here since then.

(Yeah, we're f****d!)

Solo:


e|-------------------------------------|--------------------------|
B|-------------------------------------|--------------------------|
G|-----19^-----------------------------|-----19^^-----------------|
D|---------21b--19-21--19h21p19p17\15~-|-----------21b--19-21-----|
A|--17---------------------------------|-17-----------------------|
E|-------------------------------------|--------------------------|

e|-------------------|--------------------------------------------|
B|-------------------|---19^^--19--17h19p17\15~-------------------|
G|-------------------|---------------------------17--15--19^^-----|
D|--19h21p19p17\15~--|--------------------------------------------|
A|-------------------|--------------------------------------------|
E|-------------------|--------------------------------------------|

e|-------------------|--------------------------------------------|
B|-------------------|--------------------------------------------|
G|--17h19p17p15\13~--|--------------------------------------------|
D|-------------------|----15--h17p15---15--17/19--21-21-21--------|
A|-------------------|--------------------------------------------|
E|-------------------|--------------------------------------------|

e|----------------------------------------------------------------|
B|----------------------------------------------------------------|
G|----------------------------------------------------------------|
D|---19-19-19---17b--15-------------------------------------------|
A|----------------------19--17------------------------------------|
E|----------------------------------------------------------------|

(Rhythym Guitar plays
G, Cm, D x2
G, Cm, Am, D
In background)

G          Cm        D
I don't have love to share,
    G           Cm       D
And I don't have one who cares.
G          Cm
I don't have anything,
Am                 D
Since I don't have you.

G   Em  Am  D
You You You Naaahaa
G   Em  Am  D
You You You naaahaa

========================================================================
========================================================================

2. New Rose

Is she really going out with him
Intro: (Riff 1)
         D   B   E   A
E|------------------------------------------|
B|------------------------------------------|
G|--X-X--7--4-4--9-9------------------------| Repeat
D|--X-X--7--4-4--9-9-7-7--------------------| 5X
A|--X-X--5--2-2--7-7-7-7--------------------|
E|-------------------5-5--------------------|

Riff 2
|---------------------------------------------------|
|---------------------------------------------------|
|---------------------------------------------------| Repeat
|-10/12\10-10-10--10-10-10\9/10-10-10-10\9/10-10-10-| 2x
|--8/10\8---8--8---8--8--8\7/8---8--8--8\7/8---8--8-|
|---------------------------------------------------|

D                             D\B
I've got a feeling inside of me

B                                     B/D
Its gotta stay its gotta some way stay

D                              D\B
I don't know why I don't know why

B                             B/D
Special things she's got for me

Riff 2
I've got a new rose I've got a gun

Riff 2
Yeah I knew that I always would

Riff 2
I cant stop to mess around

Riff 2
I've got a brand new rose in town

D                                D\B
See the sun see the sun n the sky

B                                   B/D
Forget the rose and the_______ rides

D                         D\B
Don't you run away that way

B                          B/D
I'm coming back another day

Riff 2
I've got a new rose I've got a gun

Riff 2
Yeah I knew that I always would

Riff 2
I cant stop to mess around

Riff 2
I've got a brand new rose in town

|------------------------------------------|
|------------------------------------------|
|--X-X--7--4-4--9-9------------------------| Repeat
|--X-X--7--4-4--9-9-7-7--------------------| 5X
|--X-X--5--2-2--7-7-7-7--------------------|
|-------------------5-5--------------------|

|---------------------------------------------------|
|---------------------------------------------------|
|---------------------------------------------------| Repeat
|-10/12\10-10-10--10-10-10\9/10-10-10-10\9/10-10-10-| 2x
|--8/10\8---8--8---8--8--8\7/8---8--8--8\7/8---8--8-|
|---------------------------------------------------|

In this next part play chord B, right after the lyrics end play what is
tabbed below the lyric line.......

B
I never thought this would happen to me
|---------------------------------------------------|
|---------------------------------------------------|
|--------------------------------------19B/\/\/\/\--|
|---------------------------------------------------|
|---------------------------------------------------|
|---------------------------------------------------|

B
On the same_______ machine
|-----------------------------------------|
|-----------------------------------------|
|-------------------------19B/\/\/\/\21---|
|-----------------------------------------|
|-----------------------------------------|
|-----------------------------------------|

B                            Repeat 2x [---------]
I never serve somebody in the same
|-----------------------------------------------------|
|------------------------------17B(17)-15-17-15-17-15-|
|-----------------------------------------------------|
|-----------------------------------------------------|
|-----------------------------------------------------|
|-----------------------------------------------------|

B
I never never never be too late
|------------------------------------------------------|
|------------------------------17B(17)-15-17-15-17-19B-|
|------------------------------------------------------|
|------------------------------------------------------|
|------------------------------------------------------|
|------------------------------------------------------|

|------------------------------------------|
|------------------------------------------|
|--X-X--7--4-4--9-9------------------------| Repeat
|--X-X--7--4-4--9-9-7-7--------------------| 5X
|--X-X--5--2-2--7-7-7-7--------------------|
|-------------------5-5--------------------|

D                             D\B
I've got a feeling inside of me

B                                     B/D
Its gotta stay its gotta some way stay

D                              D\B
I don't know why I don't know why

B                             B/D
Special things she's got for me

Riff 2
I've got a new rose I've got a gun

Riff 2
Yeah I knew that I always would

Riff 2
I cant stop to mess around

Riff 2
I've got a brand new rose in town

|---------------------------------------------------|
|---------------------------------------------------|
|---------------------------------------------------| Repeat
|-10/12\10-10-10--10-10-10\9/10-10-10-10\9/10-10-10-| Several times
|--8/10\8---8--8---8--8--8\7/8---8--8--8\7/8---8--8-|
|---------------------------------------------------|

|--------|
|--------|
|--------|
|-9-7-7--|
|-9-7-7--|
|-7-5-5--|

========================================================================
========================================================================

3. Down On The Farm

Intro :-
(1st Guitar repeats four times)
(2nd Guitar does short vertical pickslides on D string approx. 1" from pickup)
 |-----------------------|---------------------------------------------------|  |-----------------------|--|
|---------2--------4----|-2--------4-----------------------------------------------------------------------|
|--(2)(2)-2--4--2--2--2-|-2--4--2--2--2--------------------------------------------------------------------|
|--(2)(2)----2--2-----2-|----2--2-----2--------------------------------------------------------------------|
|-----------------------|----------------------------------------------------------------------------------|

(2nd Guitar repeat twice) (Enter at start of third repetition of 1st Guitar)
|-----------------------|---------------------------------------------------|
|-----------------------|---------------------------------------------------|
|------------2----------|-2-------------------------------------------------|
|--(2)(2)(2)-2--4--2----|-2--4--2-------------------------------------------|
|--(2)(2)(2)----2--2----|----2--2-------------------------------------------|
|-----------------------|---------------------------------------------------|

(1st Guitar pickslides)
(Both play) Riff before verse (Repeat twice) :-
|---------------------------------------------------------------------------|
|---------------------------------------------------------------------------|
|---------------------------------------------------------------------------|
|--2----------------5--3----------5--7--------------------------------------|
|--2------7--5------3--1----------3--5--------------------------------------|
|---------5--3--------------------------------------------------------------|

(Both play) Riff during verse (Repeat four times):-
|---------------------------------------------------------------------------|
|---------------------------------------------------------------------------|
|---------------------------------------------------------------------------|
|--2----------------5--7----------5-----------------------------------------|
|--2------7--5------3--5----------3--7--------------------------------------|
|---------5--3-----------------------5--------------------------------------|

(Both play) Riff before verse (Repeat twice):-
|---------------------------------------------------------------------------|
|---------------------------------------------------------------------------|
|---------------------------------------------------------------------------|
|--2----------------5--3----------5--7--------------------------------------|
|--2------7--5------3--1----------3--5--------------------------------------|
|---------5--3--------------------------------------------------------------|

(Both play) Riff during verse (Repeat four times):-
|---------------------------------------------------------------------------|
|---------------------------------------------------------------------------|
|---------------------------------------------------------------------------|
|--2----------------5--7----------5-----------------------------------------|
|--2------7--5------3--5----------3--7--------------------------------------|
|---------5--3-----------------------5--------------------------------------|

(1st Guitar) Riff during solo (Repeat four times):-
|---------------------------------------------------------------------------|
|---------------------------------------------------------------------------|
|---------------------------------------------------------------------------|
|--4--4----4--4----4--3------------7----------------------------------------|
|--2--2----2--2----2--1--7--5------5----------------------------------------|
|------------------------5--3-----------------------------------------------|

(Both play) Riff before verse (Repeat twice) :-
|---------------------------------------------------------------------------|
|---------------------------------------------------------------------------|
|---------------------------------------------------------------------------|
|--2----------------5--3----------5--7--------------------------------------|
|--2------7--5------3--1----------3--5--------------------------------------|
|---------5--3--------------------------------------------------------------|

(Both play) Riff during verse (Repeat nine times):-
|---------------------------------------------------------------------------|
|---------------------------------------------------------------------------|
|---------------------------------------------------------------------------|
|--2----------------5--7----------5-----------------------------------------|
|--2------7--5------3--5----------3--7--------------------------------------|
|---------5--3-----------------------5--------------------------------------|

(Both play) Final Riff :-
|---------------------------------------------------------------------------|
|---------------------------------------------------------------------------|
|---------------------------------------------------------------------------|
|--2----------------5--7-7-7-7-7-etc..--2-----------------------------------|
|--2------7--5------3--5-5-5-5-5-etc..--2-----------------------------------|
|---------5--3--------------------------------------------------------------|

(2nd Guitar) Solo in the middle of the song (b slight bend) (Repeat twice) :-
|---------------------------------------------------------------------------|
|------15-------15-------15-------------------------------------------------|
|--16b------16b------16b-----14--14h16-14-----------------------------------|
|---------------------------------------------------------------------------|
|---------------------------------------------------------------------------|
|---------------------------------------------------------------------------|

|---------------------------------------------------------------------------|
|---------------------------------------------------------------------------|
|------10-------10-------10-------------------------------------------------|
|--11b------11b------11b-----9---9h11---7-----------------------------------|
|---------------------------------------------------------------------------|
|---------------------------------------------------------------------------|

(1)
All I need is some inspiration,
Before I do somebody some harm.
I feel just like a vegetable,
Down here on the farm.
No body comes to see me,
No body here to turn me on.
I ain't even got a lover,
Down here on the Farm.

(2)
They told me to get healthy,
They told me to get some sun.
But boredom eats me like cancer,
Down here on the farm.
Drinking lemonade shandy,
Ain't nobody here to do me harm.
But I'm like a fish out of water.
Down here on the farm.

(3)
I write a thousand letters,
'til my fingers all go numb.
But I, never see no postman,
Down here on the farm.
I called my baby on the telephone,
I say 'come down and have some fun,
But she knows what the score is,
Down here on the farm.
I can't fall in love with the wheat field!
I can't fall in love with the barn!
When everything smells like horses%!#
Down here on the farm.
Blue skies and swimming pools,
Add so much charm,
But I'd rather be back in Soho,
Than down here on the farm.

On the f%&*!? farm!

Are you born in a f%&*!? barn or what?
Baaaa!

Hold still...

========================================================================
========================================================================

4. Human Being

|--------------------------------------|
|--------------------------------------|
|--------------------------------------|
|--------------------------------------|
|--------9---9---11--7--11-------------|
|--------7---7---7---9--9--------------|


|--------------------------------------|
|--------------------------------------|
|--------------------------------------|
|--------9---9---11--7--11-------------|
|--------7---7---7---9--9--------------|
|--------------------------------------|


fig 2

|------------4-------------------|--------------|
|------------4-------------------|--------------|
|----------------------6b8r-p4---|----4---------|
|--------------------------------|---4----------|
|------6-------------6-----------|---2----------|
|------4-------------4-----------|--------------|

========================================================================
========================================================================

5. Raw Power

Verse:
G|----------------------------------------|
D|----------------------------------------|
A|--1-2-333333333333-1-2-333333333333-1-2-|
E|-4----------------4----------------4----|

Chorus:
G|---------------------------------|
D|---------------------------------|
A|-----0001-----------333333333333-|
E|-1111----33333-0-1-3-------------|

Bridge/outro:
G|-----------------------------------------------|
D|-----------------------------------------------|
A|----------------1333333333333321---------------|
E|-444444444444434----------------44444444444444-|

========================================================================
========================================================================

6. Ain't it Fun

Intro
e --------------------------------|
B --------------------------------|
G --------------------------------|
D --------------------7--9~~~9~~~-|
A ---------------7--9-------------|
E –7~~~7—-9--10~------------------|

e -----------------7----7~-|
B -------------10----10----|
G ----7—9-7-9b-------------|
D -9-----------------------|
A -------------------------|
E -------------------------|

e -7-10-12-12b---12r-10-12-10~-10--7------7~~-|
B ------------------------------------10—-----|
G --------------------------------------------|
D --------------------------------------------|
A --------------------------------------------|
E --------------------------------------------|

e -----------------------7----------------------------|
B –10br-7-----------7-10---10-------------------------|
G --------9br-9-7-9-----------9br-9-9b---7--6---------|
D ---------------------------------------------7—-9~~-|
A ----------------------------------------------------|
E ----------------------------------------------------|

e ----------------------------------------|
B --------------------------7-7-----------|
G ----7-9-7-9b---9r-7-9-7-9-----9p7-9p7---|
D -9------------------------------------9-|
A ----------------------------------------|
E ----------------------------------------|

e --------10------------------------7------------|
B ------------------------------7-7---7----------|
G -7-9-9b----9r-7-9-7-----7-9-7---------9-9-7----|
D ---------------------9~---------------------9~-|
A -----------------------------------------------|
E -----------------------------------------------|

e ----------------------------------------------------------|
B ----------10-10--------------7----------------------------|
G ---7-9-9b-------9r--7--7-9-7---9-7-9--7-6-7--6---6---6----|
D -9---------------------------------------------9---7---9--|
A ----------------------------------------------------------|
E ----------------------------------------------------------|
                               ^-----------fast-------------|


Ain't it fun when you're always on the run
e -------------|
B -x-x---------|
G -x-x---------|
D -x-x-7-9-7-9-|
A -----7-9-7-9-|
E -------------|

Ain't it fun when your friends despise what you've become
e --------------|
B --------------|
G -----------7~-|
D -x-x-9-7-9-7~-|
A -----9-7-9----|
E --------------|

Ain't it fun when you get so high... that you just can't come
e ----------|
B ----------|
G --7-------|
D ----7-9~--|
A ----------|
E ----------|


Ain't it fun when you know that you gonna die young
e ---------------|
B ---------------|
G ---------------|
D ---------------| Riff 1
A -9/7/9/7/9/7/9-
E -7/5/7/5/7/5/7-

 Riff 2:
e ----------------------------------------------------------------|
B ----------------------------------------------------------------|
G ----------------------------------------------------------------|
D --5---5-5---5-5-5---7---7-7---7-7-7----9--7---9-7-9---9--7--9---|
A --5---5-5---5-5-5---7---7-7---7-7-7----9--7---9-7-9---9--7--9---|
E --3---3-3---3-3-3---5---5-5---5-5-5----7--5---7-5-7---7--5--7---|

             Such Fun! (10 times)
e --------------------------|
B ------10------------------|
G ---9b-----7-9-7---9---7---|
D –9~----------------9---9--|
A --------------------------|
E --------------------------|

Ain't it fun when you're taking care of number one
e ---------------|
B ---------------|
G ---7-9-7-9b----|
D ------------9~-|
A ---------------|
E ---------------|

Ain't it fun when you feel like you just gotta get a gun
e --------------------|
B -------------10-12~-|
G -7-9-11-7-11--------|
D --------------------|
A --------------------|
E --------------------|

Ain't it fun when you just can't seem to find your tongue
e -10-------|
B ----10h12-|
G ----------|
D ----------|
A ----------|
E ----------|

Cause you stuck it too deep into something that really stung
e -14-14p12p10-7-|
B ---------------|
G ---------------|
D ---------------|
A ---------------|
E ---------------|

It's such fun!
 Riff 2:
Then
 Riff 3:
e ------------------------------------------------------------------|
B ------------------------------------------------------------------|
G ------------------------------------------------------------------|
D -5--5-5--5-5-5--7--7-7--7-7-7--12--12-12--12-12-12--9--9-9--9-9-9-|
A -5--5-5--5-5-5--7--7-7--7-7-7--12--12-12--12-12-12--9--9-9--9-9-9-|
E -3--3-3--3-3-3--5--5-5--5-5-5--10--10-10--10-10-10--7--7-7--7-7-7-|

Well, so you come up to me to spit right in my face,
I didn't even feel it, it was such a disgrace

I punched my fist right through the glass
I didn't even feel it, it happened so fast!

       Play that 4
         times
      |            |
e -12b--(12)-(12)-(12)---(12)-12r-----------------|
B --------------------------------15-15b-b--12-12-|
G ------------------------------------------------|
D ------------------------------------------------|
A ------------------------------------------------|
E ------------------------------------------------|

e -------14-17b-14-17-----|
B -12-15--------------17b-|
G ------------------------|
D ------------------------|
A ------------------------|
E ------------------------|

e -----------------------------------|
B -17-15-15p14-15p14---12-14b-p12-12-|
G -----------------------------------|
D -----------------------------------|
A -----------------------------------|
E -----------------------------------|

Ain't it fun when you tell her she's just a cunt
e -7---------------------7-|
B ---10-7---------7-10-7---|
G --------9-9-9b-----------|
D -------------------------|
A -------------------------|
E -------------------------|

Ain't it fun when she splits you and leaves you on the run
e ------7-9-7--------------|
B -7-10--------10-12--12b--|
G -------------------------|
D -------------------------|
A -------------------------|
E -------------------------|

Well, Ain't it fun when you've broken up every band
that you ever begun
e -------------------------------------|
B -------------------------------------|
G -7-9b-7---7--------------------------|
D --------9---9--9-11-9-11-9-7h9-7-9-7-|
A -------------------------------------|
E -------------------------------------|

    Ain't it fun when you know that you're gonna die young
e ----------------------------------------------|
B ----------------------------------------------|
G ----------------------------------------------|
D -11-9-11b---11-9-11b---11-9-11-9-7-9- then?---|
A ----------------------------------------------|
E ----------------------------------------------|

It's such fun!


and then come two guitars:
e -------------------------
B –12~~~~~~~~~~~~~~~~~~~~~-
G --------------11~~~~~~~~-|
D -------------------------|
A -------------------------|
E -------------------------|

Finish:
e ----------10-9-----------------------------------------|
B ----10-12------12-10---------------------------12------|
G -11------------------11---7-9-7----------------11------|
D --------------------------------9-7-9-7--------9-------|
A ----------------------------------------9-7------------|
E -------------------------------------------------------|

========================================================================
========================================================================

7. Buick MacKane

Rift 1:
|---------------------------------------------|
|---------------------------------------------|
|---------------------------------------------|
|----------------------5-------------5--------|
|--5-7---5-7---5-7-5-7---7---5-7-5-7---7-5----|
|------------------------------------------7-5|

Rift 2:
|-----------------------------------------------------|
|-----------------------------------------------------|
|-----------------------------------------------------|
|----------------------5-------------5----------------|
|--5-7---5-7---5-7-5-7---7---5-7-5-7---7-5---------5-7|
|------------------------------------------7-5---5----|

Play Rift 1 Once Then Play Rift 2 As Many Times As
You Need To.

========================================================================
========================================================================

8. Hair Of The Dog

Intro/verse: (0:07)

|----------------------------------------|
|----------------------------------------|
|----------------------------------------|
|--------------2~~~---5b--2--0--2--------|x6
|------------2---------------------------|
|-0--0-3-4-------------------------------|

(0:29)
|----------------------------------------|
|----------------------------------------|
|--------------2~~~---5b--2--0--2--------|
|------------2---------------------------|
|-0--0-3-4-------------------------------|
|----------------------------------------|

|----------------------------------------|
|----------------------------------------|
|--------------2~~~---5b--2--0-----------|
|------------2------------------2--------|
|-0--0-3-4-------------------------------|
|----------------------------------------|

Pre-chorus: (0:37)
|----------------------------------------|
|----------------------------------------|
|----------------------------------------|
|--------------2~~~---5b--2--0--2--------|x2
|------------2---------------------------|
|-0--0-3-4-------------------------------|

Chorus: (0:44)
|---------------------------------------|
|---------------------------------------|
|--5----------7------7-7--9-9-----------|
|--7--5--7----7------7-7--9-9-----------|x2
|--7--5--7----5------5-5--7-7-----------|
|-----3--5------------------------------|

Now you're messin' with a... son of a b****


Chords During "Solo": (1:59)

|----------------------------------------|
|----------------------------------------|
|----------------------------------------|x2
|----------------------------------------|
|----------------------------------------|
|----------------------------------------|

|---------------------------------------|
|---------------------------------------|
|--7--------------7---------------------|
|--7--5-5--7-7----7---------------------|
|--5--5-5--7-7----5---------------------|
|-----3-3--5-5--------------------------|

|---------------------------------------|
|---------------------------------------|
|--7--------------7-----9--7--5---------|
|--7--5-5--7-7----7-----9--7--5---------|
|--5--5-5--7-7----5-----7--5--3---------|
|-----3-3--5-5--------------------------|

"Solo": (1:59)

|----------------------------------------|
|----------------------------------------|
|----------------------------------------|
|----------------------------------------|x10
|-7-7-7-7-7-5--------5~~~----------------|
|-------------7-5-3-5--------------------|

Outro: (2:36)
|----------------------------------------|
|----------------------------------------|
|----------------------------------------|
|--------------2~~~---5b--2--0--2--------|x2
|------------2---------------------------|
|-0--0-3-4-------------------------------|

|---------------------------------------|
|---------------------------------------|
|--5----------7------7-7--9-9-----------|
|--7--5--7----7------7-7--9-9-----------|Repeat "ad libitum"
|--7--5--7----5------5-5--7-7-----------|
|-----3--5------------------------------|

Now you're messin' with a... son of a b****

========================================================================
========================================================================

9. Attitude

Intro:

||-------------------------------------||
||o-----------------------------------o||
||---7-7-7-7-7-7-7-7-7-7-7-7-7-7-7-7---||  Slowly Release
||---7-7-7-7-7-7-7-7-7-7-7-7-7-7-7-7---||  Palm Mute on Repeat
||o--5-5-5-5-5-5-5-5-5-5-5-5-5-5-5-5--o||
||-------------------------------------||


Verse:

|--------------------------------|
|--------------------------------|
|--7----7-7--7-7-----------------|
|--7----7-7--7-7----5---5-5--5-5-|
|--5----5-5--5-5----5---5-5--5-5-|
|-----------------0-3---3-3--3-3-|


Chorus:

|-------------------------------------|
|-------------------------------------|
|-------------------------------------|  X2
|--4-4-4-4-4--44-4-4-4-4-4-5-5-7--7-5-|
|--4-4-4-4-4--44-4-4-4-4-4-5-5-7--7-5-|
|--2-2-2-2-2--22-2-2-2-2-2-3-3-5--5-3-|


|--------------------------------|
|--------------------------------|
|--7----7-7--7-7-----------------|
|--7----7-7--7-7----7---7-7--7-7-|  X2 (Also Play During Guitar Solo)
|--5----5-5--5-5----7---7-7--7-7-|
|-----------------0-5---5-5--5-5-|

Guitar Solo:

|-----------10-10----------10-10----------10-10----------10-10---|
|--------10-------------10-------------10-------------10---------|
|--12^14----------12^14----------12^14----------12^14------------|
|----------------------------------------------------------------|
|----------------------------------------------------------------|
|----------------------------------------------------------------|


|-----------10-10----------10-10----------10-10-----------------------------|
|--------10-------------10-------------10----------------------12----10-----|
|--12^14----------12^14----------12^14----------12^14^12p10----12----10-----|
|-----------------------------------------------------------12----12----12--|
|---------------------------------------------------------------------------|
|---------------------------------------------------------------------------|


|---------10-10---------------------------------------------|
|------10--------13p10-----10---------------------12--------|
|12^14------------------12----12---12^14^12p10----12--------|
|----------------------------------------------12----12-----|
|-----------------------------------------------------------|
|-----------------------------------------------------------|


During The Verse You Can Just Mess Around With The D Pentatonic


Song Order:

Intro
Verse
Chorus
Chorus
Solo
Verse
Verse
Intro

========================================================================
========================================================================

10. Black Leather

|-----------------------------------------------|
|-----------------------------------------------|
|----------------------3---------------------3--|
|--3---5-5-5-5---3-3---3---5---5-5-5---3-3---3--|
|--3---5-5-5-5---3-3-------5---5-5-5---3-3------|
|-----------------------------------------------|

|-----------------------------------------------|
|-----------------------------------------------|
|----------------------3------------------------|
|--3---5-5-5-5---3-3---3---5---5-5-5---3-3--5---|
|--3---5-5-5-5---3-3-------5---5-5-5---3-3--5---|
|-----------------------------------------------|

========================================================================
========================================================================

11. You Can't Put Your Arms Around A Memory

Its intro is:
|--2-------3-------2-------0------|
|--3-------3-------3-------3------|   Repeat
|--2-------2-------2-------2------|
|---------------------------------|
|---------------------------------|
|---------------------------------|

Verses:

D                       G               Bm                      D
It doesn't pay to try              all the smart boys know why...
                                   G                  Bm             D
It doesn't mean I didn't try                I just never know why...

etc.....

Chorus:

       G                   A                    D       A
You can't put your arms around a memory
repeat....

========================================================================
========================================================================

12. I Don't Care About You

Intro 2x
|-------------------------------|
|-------------------------------|
|---7-----2-----999999999-------|
|---7-----2-----999999999-------|
|---5-----0-----777777777-------|
|-------------------------------|

3x
|-------------------------|
|-------------------------|
|-------------2-2-2-------|
|-------------0-0-0-------|
|-0--0--0--0--------------|
|-------------------------|

then
|----------------|
|----------------|
|----------------|
|----------------|
|--0--0--0--0----|
|----------------|

2x
|-------------------------------|
|-------------------------------|
|---7-----2-----999999999-------|
|---7-----2-----999999999-------|
|---5-----0-----777777777-------|
|-------------------------------|

3x
|-------------------------|
|-------------------------|
|-------------2-2-2-------|
|-------------0-0-0-------|
|-0--0--0--0--------------|
|-------------------------|

then
|----------------|
|----------------|
|----------------|
|----------------|
|--0--0--0--0----|
|----------------|


2x
|-------------------------------|
|-------------------------------|
|---7-----2-----999999999-------|
|---7-----2-----999999999-------|
|---5-----0-----777777777-------|
|-------------------------------|

3x
|-------------------------|
|-------------------------|
|-------------2-2-2-------|
|-------------0-0-0-------|
|-0--0--0--0--------------|
|-------------------------|

then
|----------------|
|----------------|
|----------------|
|----------------|
|--0--0--0--0----|
|----------------|

2x
|-------------------------------|
|-------------------------------|
|---7-----2-----999999999-------|
|---7-----2-----999999999-------|
|---5-----0-----777777777-------|
|-------------------------------|

3x
|-------------------------|
|-------------------------|
|-------------2-2-2-------|
|-------------0-0-0-------|
|-0--0--0--0--------------|
|-------------------------|

then
|----------------|
|----------------|
|----------------|
|----------------|
|--0--0--0--0----|
|----------------|

3x
|-------------------------------|
|-------------------------------|
|---7-----2-----999999999-------|
|---7-----2-----999999999-------|
|---5-----0-----777777777-------|
|-------------------------------|

after that
|-----------------------------|
|-----------------------------|
|---7----2----2~--------------|
|---7----2----2~--------------|
|---5----0----0~--------------|
|-----------------------------|

outro               lead
|-2-1-4-3-6-5-8-7-10-9-12-11-15-14-17-16----------------|
|-------------------------------------------------------|
|-------------------------------------------------------|
|-------------------------------------------------------|
|-------------------------------------------------------|
|-------------------------------------------------------|

                    rythem
|-------------------------------------------------------|
|-222--555--777--999--121212--141414--------------------|
|-222--555--777--999--121212--141414--------------------|
|-000--333--555--777--101010--121212--------------------|
|-------------------------------------------------------|
|-------------------------------------------------------|

========================================================================
========================================================================

That's it, the end, hope you liked this album, unlike others I don't copy.. I just made 
all myself so any suggestions, corrections, etc... would be appreciated at: 
and please DO rate my tab, thanks.
comments
print report bad tab
I want to post or [tab]
guest
You may want to rate the tab now too:
select rating
Please do not post tabs as comments. Select "correction" instead!