Oops, an error
Loading. Please wait.

Use Your Illusion 1 Tab

57,774 views 39 this week
3 commentsread comments
1 2 3 4 5
accurate
x 16
add to favorites launch autoscroll
font size
0
reset
Autoscroll
+/-
esc
set tempo
stop
Contributor
WARNING: You are trying to view
                                    content from Ultimate-Guitar.com
                                    in an unauthorized application,
                                    which is prohibited.

                                    Please use an official Ultimate
                                    Guitar Tabs application for iPhone,
                                    iPad or Android to access legitimate
                                    chords, guitar, bass, and drum tabs
                                    from Ultimate-Guitar.com database.

                                    Type "ultimate guitar tabs" in Apple
                                    App Store's or Android Market's
                                    search to find the application.
Band- Guns N' Roses
Album- Use Your Illusion I

1.Right Next Door To Hell
2.Dust N' Bones
3.Live And Let Die
4.Don't Cry
5.Perfect Crime
6.You Ain't The First
7.Bad Obsession
8.Back Off B****
9.Double Talkin' Jive
10.November Rain
11.The Garden
12.Garden Of Eden
13.Don't Damn Me
14.Bad Apples
15.Dead Horse
16.Coma

1.RIGHT NEXT DOOR TO HELL

Riff A
E|-----------------|-------------------|-----------------|------------|
B|-----------------|-2^rp0--2^rp0--2p0-|-----------------|-2^rp0--2~~-|
G|-----------------|-2^rp0--2^rp0--2p0-|-----------------|-2^rp0--2~~-|
D|-------2-0-------|-------------------|------2-0--------|------------|
A|-----2-----------|-------------------|-----2-----------|------------|
E|-0-3-------0-3-0-|-------------------|-0-3-------0-3-0-|------------|

  Riff A1
E|--------------------------|-------------------------|------------|-------------|
B|--------------------------|-14^2p12--14^2p12--14p12-|------------|-14^r12-14~~-|
G|--------------------------|-14^2p12--14^2p12--14p12-|------------|-14^r12-14~~-|
D|----------------------2-0-|-------------------------|--------2-0-|-------------|
A|--------------------2-----|-------------------------|------2-----|-------------|
E|-12-(12)\--0-0--0-3-------|-------------------------|--0-3-------|-------------|
                                         (end riff A1)
E|--------------------------|------------|-------------|
B|--14^2p12--14^2p12--14p12-|------------|-14^r12-14---|
G|--14^2p12--14^2p12--14p12-|------------|-14^r12-14---|
D|--------------------------|--------2-0-|-------------|
A|--------------------------|------2-----|-------------|
E|--------------------------|--0-3-------|-------------|

[verse 1]
                B5            D5                     B5              A5            G5
1. i'll take a nicotine cafeine sugar fix jesus don't ya git tired of turning tricks
2. my mama never really said much to me she was much too young and scared ta be

A5             B5               D5                       B5                A5
but when your innocence dies you'll find the blues seems all our heroes were
hell "freud" might say that's what i need but all i really ever get is greed

          G5  A5   B5                      D5                     B5
born to lose just walkin' through time you believe this heat another empty house
an most my friends they feel the same hell we don't even have ourselves to blame

A5                   G5   A5   B5       D5                       B5
another dead end street gonna rest my bones sit for a spell this side of heaven
but times are hard and thrills are cheaper as your arms get shorter your pockets 

   A5     G5  A5 E5  D5                 A5    E5                            F#5 
this close to hell  right next door to hell  why don't ya write a letter to me
get deeper          right next door to hell  why don't ya write a letter to me

          D5                  A5
i said i'm right next door to hell
i said i'm right next door to hell

E5                   F#5       D5                 A5  E5                  F#5
an so many eyes are on me yeah right next door to hell got nowhere else to be
an so many eyes are on me yeah right next door to hell i never thought this is where i'd be

D5                   A5                E5                      F#5
right next door to hell feels like the walls are closing in on me.
but i'm right next door to hell thinkin'time'll stand still for me.

[play riff A(2x) then riff A1]

[verse 2]

GUITAR SOLO;
E|-2/----------12-12-------12-12-------12-------12-12-12-12-------12------12-12-12-12-|
B|-2/----------12-12-------12-12-------12-------12-12-12-12-------12------12-12-12-12-|
G|-2/-----14^---------14^---------14^------14^----------------14^-----14^-------------|
D|------------------------------------------------------------------------------------|
A|------------------------------------------------------------------------------------|
E|------------------------------------------------------------------------------------|

E|--------12-12------9-(9)--9-----11----12----11-----9----9-9-9-----11----12----11-----9-|
B|--------12-12------9-(9)--9--9---9--9--9--9--9--9--9----9-9-9--9---9--9--9--9--9--9--9-|
G|-14^-14--------14^-----------------------------------11--------------------------------|
D|---------------------------------------------------------------------------------------|
A|---------------------------------------------------------------------------------------|
E|---------------------------------------------------------------------------------------|

E|------12-12--------12-12-12-------12-12------12-12-12-12----12-12----12-12----12-12----|
B|------12-12--------12-12-12-------12-12------12-12-12-12----12-12----12-12----12-12----|
G|-14^---------14^-------------14^---------14^-------------14^------14^------14^-----14^-|
D|---------------------------------------------------------------------------------------|
A|---------------------------------------------------------------------------------------|
E|---------------------------------------------------------------------------------------|

E|-12-12-------9-(9)--9-----11----12----11-----9-----9-9-9-----11----12----11-----9-9-|
B|-12-12-------9-(9)--9--9---9--9--9--9--9--9--9--9--9-9-9--9---9--9--9--9--9--9--9-9-|
G|-------14\--------------------------------------------------------------------------|
D|------------------------------------------------------------------------------------|
A|------------------------------------------------------------------------------------|
E|------------------------------------------------------------------------------------|
                                 w/riff A(2x)
E|-9\7--7\5--5\4--4\2--4--5--7--(7)----------------------------------------|
B|-9\7--7\5--5\4--4\2--4--5--7--(7)--12~~~~~~~~~~~-5---6---7---(7)--6---7--|
G|-------------------------------------------------7^--8^--9^--(9)--8^--9^-|
D|-------------------------------------------------------------------------|
A|-------------------------------------------------------------------------|
E|-------------------------------------------------------------------------|

outro
   G5              A5                  E5
E|-------------------------------------------------------------------|
B|--8---------------10-----------------------------------------------|
G|-10^--------------12^--------------7h9-----9-----9-----9-------7h9-|
D|-------------------------------------------------------------------|
A|-------------------------------------------------------------------|
E|-------------------------------------------------------------------|
  not bad kids just stupid ones yeah thought we'd own the world an gettin'

  G5               A5                  E5
E|-------------------------------------------------------------------|
B|-------------------------------------------------------------------|
G|-------------------------------------8---------------10------------|
D|----9-7h9---9---9---9---9---9----9--10^--------------12^-----------|
A|-------------------------------------------------------------------|
E|-------------------------------------------------------------------|
   used was havin' fun i said we're not sad kids just lucid ones yeah

   E5                                         G5                      A5
E|--------------------------------------------------------------------------|
B|-17---------------17---------17-----------------8---------------------10--|
G|-19^--------------19^--------19^~~~~~~~--------10^--------------------12^-|
D|--------------------------------------------------------------------------|
A|--------------------------------------------------------------------------|
E|--------------------------------------------------------------------------|
  flowin' through life not collectin' anyone so much out there still so much

                E5                                                      G5
E|-----------------------------------------------------------------------------|
B|-------------------5------------------------------------------------------8--|
G|-------------------7^----------------------------------------------------10^-|
D|-----------------------------------------------------------------------------|
A|-----------------------------------------------------------------------------|
E|-----------------------------------------------------------------------------|
  to see time's too much to handle time's too much for me it drives me up the

                 A5                 E5
E|-----------------------------------------------------------------------------------|
B|---------------------------10------17---17--17--17--17---17---17---17---20---(20)^-|
G|---------------------------12^-----19^--19^-19^-19^-19^--19^--19^--19^-------------|
D|-----------------------------------------------------------------------------------|
A|-----------------------------------------------------------------------------------|
E|-----------------------------------------------------------------------------------|
  walls it drives me out of my mind can you tell me what this means huh?

Chords used:
B5 = x244xx      D5 = x577xx
A5 = x022xx      G5 = 355xxx
F#5 = 244xxx     G#5 = 466xxx
E5 = x799xx      D#5 = x688xx
C#5 = x466xx

2.DUST N' BONES

Intro:
E5                                                    A5   G    D/F#    E5
He lost his mind today he left it out back on the high - way on sixty five

E|-x\------0-----------3^-0-----0-(0)----------------------------------------------|
B|-x\------0---3^-3^-3-------3^-------0-0-0-0---------0-3----0---------------------|
G|---------------------------------------------2-0-2^-----2-----2^-2-0-2-0---0-----|
D|-------------------------------------------------------------------------2---2-0-|
A|---------------------------------------------------------------------------------|
E|----0----------------------------------------------------------------------------|

  1st verse:
E|-----------------------------------------------------------------0-----0----0-----0---------|
B|-----------------------------------------------------------------0--3^--------3^----0-------|
G|-------------------------------------------------------------------------2^-----------2^rp0-|
D|--7^r-5--7-5--5-------7^r-5--7-5-----5-7----7-5---5-----------------------------------------|
A|----------------7----------------5-7------------7------5^--5^-------------------------------|
E|------------------0--------------------------------------------0----------------------------|
  she loved him yesterday yesterday's over i said okay     that's alright
  time moves on that's the way we live an hope to see the next day that's alright

chorus:
D2   D2     D   Dsus4      D    D2  D2 
sometimes these things they are so easy (to Coda)

D2   D2     D   Dsus4      D    D2  Em
sometimes these things they are so cold

D2   D2     D   Dsus4      D    D2  C5               C5
sometimes these things just seem to rip you right in two 

B5 B5  B5  B5   B5   B5  B5 B5 B5
oh no man don't let 'em get ta you

E|------------|------0------------------------------------------------------|
B|------------|-2------2----------------2-----------------------------------|
G|----------o-|-2^-------r2---2p0-2-x-2-2^--2-0-2-0-2-0--2^--2-0-2-0--------|
D|-4--------o-|------------------------------------------------------2p0----|
A|-2-0--------|-----------------------------------------------------------2-|
E|-----3-2----|-------------------------------------------------------------|

2nd verse:
                                                                    
E|-----------------------------------------------------------------|
B|-----------------------------------------------------------------|
G|-----------------------------------------------------------------|
D|----7^r-5--7-5--5--------7^r-5--7-5-----5-7----7-5---5-----------|
A|------------------7-----------------5-7------------7------5^--5^-|
E|--------------------0--------------------------------------------|
 She loved him yesterday he laid her sister she said ok an that's...
 buried her things today way back out deep behind the drive way and...

 (Coda)
E|---0-----0----0-----0---------|
B|---0--3^--------3^----0-------|
G|-----------2^-----------2^rp0-|
D|------------------------------|
A|------------------------------|
E|-0----------------------------|
   alright
   that's alright

chorus:
D2   D2     D     Dsus4  D    D2  D2 

sometimes these   women are so easy (to Coda)
D2   D2     D   Dsus4  D    D2  Em

sometimes these women  are so cold
D2   D2     D   Dsus4   D   D2  C5               C5
sometimes these women  seem to rip you right in two 

B5 B5  B5  B5   B5   B5  B5  B5 B5
only   if you  let  'em  get ta you

bridge:
E                      *         *                       *

3.LIVE AND LET DIE

INTRO ( Guitar tuned 1/2 down )
 * Piano arr. for guitar
 
  (G)             (Bm)              (C)            (D)     D(b9)
 
 e-3------------------------------|--0--------------2--------2------\
 B-3----3----------------3--------|---------------------3----4------|
 G-4----4-------------22------2-0-|--------1--------------------2---|
 D-5----5----------4--------------|-----0--0--0-0-------------------|
 A-5---------5-----2--------------|--3-----2--------0---------------|
 E-3------------------------------|---------------------------------/
 
 
  (G)              (Bm)             (C)           (D)    D(b9)
 
e-3---3--------------------------|-------0--------2---------------------\
B-3-----------0----------3-------|-------------0--------3----4----------|
G-0--------0----------2--2----2--|----0-----0--------2-----2----2--2--0-|
D-0----------------4-----4-------|----------------0---------------------|
A------------------2-------------|--3-----------------------------------|
E-3------------------------------|--------------------------------------/ 

  (G)               (Bm)
 e-3------3---------------------2----------\
 B-3------3-------0-----------3---------0--|
 G-0------0----0-----------2---------2-----|
 D-0------0-----------4--------------------|
 A--------------------2--------------------|
 E-3------3--------------------------------/
 
  (C)                 (A)          (D)
 e--------0------------------0----|-2-------2------------\
 B--------1-------1-0-------------|-3-----3--------------|
 G----0-------0--------2--2-----2-|-2---2----------------|
 D---------------------2----------|-0-----------0--------|
 A-3-------------------0----------|----------------------|
 E--------------------------------|----------------------/
 
  (D) (E)(F)  ...End Intro
 e-0---0--1----0--0--1----\
 B-3-----------3----------|
 G-2-----------2----------|
 D-0-----------0----------|
 A------------------------|
 E------------------------/
 
                         WORDS AND MUSIC BY:
                 Paul McCartney and Linda McCartney
 
 
       (G)             (Bm)                (C)
         When you were young  and your heart__
       (C)        (D)        D(b9)
         __was  an o__pen book,___
       (G)          (Bm)                   (C)
         you used to say live and let live.__
       (C)            (D)          D(b9)
         You know you did, you know you did,
                          (G)
         ___you know you  did.__
       (G)          (Bm)
 
         But if this ev___er chan__in'  world._____
       (C)                      (A)
         _____in which we live in_____
       (A)            (D)              (D)(E)(F)
         makes you__give in and__cry,_____
 
 
 w/Distortion
                 (G5)      (C5)      G(b5)       (G5v)
 e-------------------------------------------------------------\
 B-------------------------------------------------------------|
 G---------------------------5---------6-----------7-----------|
 D-----------------5---------5---------5-----------5-----------|
 A--sl-----p-------5---x-x---3---x-x---4----x-x----5---x-x-----|
 E-20\----30------3---x-x---3---x-x---3----x-x----3---x-x-----/
 
                                 (G5)
         _______say, live and let die,____
 
         (C5) ...  G(b5) ... (G5v)
                                 (G5)
 
         ________  live and let   die.__
 
         (C5) ...  G(b5) ... (G5v)
 
  * Twice ................................
 e-------------------------|----------------\
 B--------15--(15)\--------|-10-------------|
 G--12-14-15--(15)\---7--9-|-10-------5-3-0-|
 D--12-14-15--(15)\---7--9-|-10-------5-3-0-|
 A-------------------------|----------------|
 E-------------------------|----------------/
  * Twice .................................
 e-------------------------|----------------\
 B--------15--(15)\--------|-10-------------|
 G--12-14-15--(15)\---7--9-|-10----5-----3--|
 D--12-14-15--(15)\---7--9-|-10----5-----3--|
 A-------------------------|----------------|
 E-------------------------|----------------/
 * Synth. sound effects....................
 
                 ** Half time Reggae feel **
 
  (C)..........................    (G).................... [P.M.]
 e-------------------------------|[P.M.]--------------3-3---3--3--\
 B-5-x-x-x-5-5-x---5---5---x-x-5-|-3-3-x-x-x-x-x-x----3-3---3--3--|
 G-5-x-x-x-5-5-x---5---5---x-x-5-|-4-4-x-x-x-x-x-x----------------|
 D-5-x-x-x-5-5-x---5---5---x-x-5-|-5-5-x-x-x-x-x-x----------------|
 A-------------------------------|--------------------------------|
 E-------------------------------|--------------------------------/
 
  (D).........................   (E5)...........   (F5).........
 e[P.M.]----10-[......P.M......]|---------------------------------\
 B-7-7--x-x-10--12--10----------|---------------------------------|
 G-7-7--x-x-----12--10----------|--9----------x--x--10------(10)--|
 D-7-7--x-x------------12---7-7-|--9----------x--x--10------(10)--|
 A------------------------------|--7----------x--x---8------( 8)--|
 E------------------------------|---------------------------------/
 
        ...... (Half time Reggea feel) ......
 
       (C)                               (G)
         What does it   mat - ter to ya,_____
       (G)
         When you got a job__ to do_____
                 (D)      (D)
         ya got to do it well.__________
                    (E5)                   (F5)
         You got to give the oth-er fel-la hell._____
 
 
 Fill w/harmonizer
 
 e-----------------------full-------|-----p----half---------------\
 B---half/full-----15---17-----(17)-|---1513-12-------full-------|
 G--14------------------------------|-----------------14-----(14)-|
 D----------------------------------|-----------------------------|
 A----------------------------------|-----------------------------|
 E----------------------------------|-----------------------------/
 
                   ...........Vibrato
 e-------------------------------\
 B-------------------------------|
 G-------------------------------|
 D--12-------------(12) ---------|
 A-------------------------------|
 E-------------------------------/
 
 
       (G)       (Bm)               (C)
         Used to say live and let live.__
       (C)            (D)             D(b9)
         You know you did, you know you did,
                          (G)
         ___you know you  did.__
       (G)          (Bm)
 
         But if this ev___er chan__in'  world._____
       (C)                      (A)
         _____in which we live in_____
       (A)            (D)              (D)(E)(F)
         makes you__give in and__cry,_____
 
 w/Distortion        ~~~~ vibrato
 e------------15-17-18---------|---~~~~-vibrato---------\
 B-----------------------15-17-|-18-------full----------|
 G-----------------------------|---------15--(15)--12---|
 D-----------------------------|------------------------|
 A-sl----p---------------------|------------------------|
 E-20\--30--------------------|------------------------/
 
          ~~~~ vibrato
 e-15-17-18------------|--------------------------------\
 B------------15-17-18-|--full---~~~-vibrato------------|
 G---------------------|-15-----15----------------------|
 D---------------------|--------------------------------|
 A---------------------|--------------------------------|
 E---------------------|--------------------------------/
 
          ~~~ vibrato
 e-15-17-18---------|--~~~~-vibrato---------------------\
 B------------15-17-|-18-------full---------------------|
 G------------------|---------15--(15)--12--------------|
 D------------------|-----------------------------------|
 A------------------|-----------------------------------|
 E------------------|-----------------------------------/
 
          ~~~~ vibrato      full ~~~~ vibrato  End......
 e-15-17-18-------------|--18---18-----------------------\
 B------------15-17-18--|--------------------------------|
 G----------------------|--------------------------------|
 D----------------------|--------------------------------|
 A----------------------|--------------------------------|
 E----------------------|--------------------------------/
 
#----------------------------------PLEASE NOTE---------------------------------#
#This file is the author's own work and represents their interpretation of the #
#song. You may only use this file for private study, scholarship, or research. #
#------------------------------------------------------------------------------#
#

Subject:         guns n' roses tabs
   Date:         Sun, 26 Oct 1997 17:59:35 -0500
   From:         "David W. Iggulden" 

Live and let die
Guns N' Roses (originally recorded by Paul McCartney)
Use your illusion I

Tabbed by:     Fernando Alpuche
               fam632@www.interacces.com.mx

Tuned half step down

Intro (Piano arr. for guitar):
    G               Bm                C              D      D(b9)
e:|-3------------------------------|--0--------------2--------2------|
B:|-3----3----------------3--------|---------------------3----4------|
G:|-4----4-------------22------2-0-|--------1--------------------2---|
D:|-5----5----------4--------------|-----0--0--0-0-------------------|
A:|-5---------5-----2--------------|--3-----2--------0---------------|
E:|-3------------------------------|---------------------------------|

    G                Bm               C             D     D(b9)
e:|-3---3--------------------------|-------0--------2---------------------|
B:|-3-----------0----------3-------|-------------0--------3----4----------|
G:|-0--------0----------2--2----2--|----0-----0--------2-----2----2--2--0-|
D:|-0----------------4-----4-------|----------------0---------------------|
A:|------------------2-------------|--3-----------------------------------|
E:|-3------------------------------|--------------------------------------|

    G                 Bm
e:|-3------3---------------------2----------|
B:|-3------3-------0-----------3---------0--|
G:|-0------0----0-----------2---------2-----|
D:|-0------0-----------4--------------------|
A:|--------------------2--------------------|
E:|-3------3--------------------------------|

    C                   A            D
e:|--------0------------------0----|-2-------2------------|
B:|--------1-------1-0-------------|-3-----3--------------|
G:|----0-------0--------2--2-----2-|-2---2----------------|
D:|---------------------2----------|-0-----------0--------|
A:|-3-------------------0----------|----------------------|
E:|--------------------------------|----------------------|

    D   E  F    ...End Intro
e:|-0---0--1----0--0--1----|
B:|-3-----------3----------|
G:|-2-----------2----------|
D:|-0-----------0----------|
A:|------------------------|
E:|------------------------|

 G               Bm                 C
When you were young  and your heart___

 C           D          D(b9)
___was  an o___pen book,_____

 G            Bm                  C
you used to say live and let live___

 C              D           D(b9)
You know you did, you know you did,

                     G
___you know you  did____

 G            Bm
But if this ev___er chan__in'  world._____

 C                     A
___in which we live in___

 A        D               D  E  F
makes you___give in and__cry,_____

   w/Distortion    G5        C5       G(b5)        G5v
e:|-------------------------------------------------------------|
B:|-------------------------------------------------------------|
G:|---------------------------5---------6-----------7-----------|
D:|-----------------5---------5---------5-----------5-----------|
A:|-----------------5---x-x---3---x-x---4----x-x----5---x-x-----|
E:|-20\----3p0------3---x-x---3---x-x---3----x-x----3---x-x-----|

                           G5
_______say, live and let die,____
 
C5  ...   G(b5) ...  G5v

                          G5
________  live and let   die.__
 
C5  ...   G(b5) ...  G5v

    * Twice ................................
e:|-------------------------|----------------|
B:|--------15--(15)\--------|-10-------------|
G:|--12-14-15--(15)\---7--9-|-10-------5-3-0-|
D:|--12-14-15--(15)\---7--9-|-10-------5-3-0-|
A:|-------------------------|----------------|
E:|-------------------------|----------------|

    * Twice ................................
e:|-------------------------|----------------|
B:|--------15--(15)\--------|-10-------------|
G:|--12-14-15--(15)\---7--9-|-10----5-----3--|
D:|--12-14-15--(15)\---7--9-|-10----5-----3--|
A:|-------------------------|----------------|
E:|-------------------------|----------------|
    * Synth. sound effects..................

** Half time Reggae feel **
    C...........................     G..................... [P.M.]
e:|-------------------------------|[P.M.]--------------3-3---3--3--|
B:|-5-x-x-x-5-5-x---5---5---x-x-5-|-3-3-x-x-x-x-x-x----3-3---3--3--|
G:|-5-x-x-x-5-5-x---5---5---x-x-5-|-4-4-x-x-x-x-x-x----------------|
D:|-5-x-x-x-5-5-x---5---5---x-x-5-|-5-5-x-x-x-x-x-x----------------|
A:|-------------------------------|--------------------------------|
E:|-------------------------------|--------------------------------|
 
    D..........................   (E5)...........   (F5).........
e:|[P.M.]----10-[......P.M......]|---------------------------------|
B:|-7-7--x-x-10--12--10----------|---------------------------------|
G:|-7-7--x-x-----12--10----------|--9----------x--x--10------(10)--|
D:|-7-7--x-x------------12---7-7-|--9----------x--x--10------(10)--|
A:|------------------------------|--7----------x--x---8------( 8)--|
E:|------------------------------|---------------------------------|
 
** Half time Reggae feel **

 C                                 G
What does it   mat - ter to ya,_____

 G
When you got a job__ to do_____

         D        D
ya got to do it well.__________

            E5                     F5
You got to give the oth-er fel-la hell._____

    Fill w/harmonizer
e:|----------------------------------|-----------------------------|
B:|-----------------15---17fb---(17)-|---15p13-12hb----------------|
G:|--14hb-fb-------------------------|-----------------14fb---(14)-|
D:|----------------------------------|-----------------------------|
A:|----------------------------------|-----------------------------|
E:|----------------------------------|-----------------------------|

e:|-------------------------------|
B:|-------------------------------|
G:|-------------------------------|
D:|--12-------------(12)~~~~~~----|
A:|-------------------------------|
E:|-------------------------------|

G         Bm                  C
Used to say live and let live___

 C              D              D(b9)
You know you did, you know you did,

                          G
___you know you  did.__

 G             Bm
But if this ev____er chan__in'  world._____

 C                     A
___in which we live in___

 A             D          D  E  F
makes you__give in and__cry,_____
 
  w/Distortion
e:|------------15-17-18~~-------|-------------------------|
B:|-----------------------15-17-|-18~~--------------------|
G:|-----------------------------|---------15fb-(15)--12---|
D:|-----------------------------|-------------------------|
A:|-----------------------------|-------------------------|
E:|-20\--3p0--------------------|-------------------------|

e:|-15-17-18~~-----------|--------------------------------|
B:|------------15-17-18--|--------------------------------|
G:|----------------------|-15fb---15~~--------------------|
D:|----------------------|--------------------------------|
A:|----------------------|--------------------------------|
E:|----------------------|--------------------------------|

e:|-15-17-18~~--------|-----------------------------------|
B:|------------15-17--|-18~~------------------------------|
G:|-------------------|--------15fb--(15)--12-------------|
D:|-------------------|-----------------------------------|
A:|-------------------|-----------------------------------|
E:|-------------------|-----------------------------------|

e:|-15-17-18~~-----------|--18fb---18~~-------------------|
B:|------------15-17-18--|--------------------------------|
G:|----------------------|----------------------The-------|
D:|----------------------|----------------------End.....--|
A:|----------------------|--------------------------------|
E:|----------------------|--------------------------------|

4.DON'T CRY

Intro: Clean Electric
         Am            Dm            G
|-----|--------0-------------1---------------3-----------------------|
|-----|----------1---------3---3---------------3---------------------|
|-----|------2-----2-----2-------2---------0-----0-------0-----0-----|
|-----|----2---------0-0-----------------0-------------0-----0-------|
|-----|--0-------------------------0---2-----------0-3-----2-----3-2-|
|--3--|------------------------------3-------------------------------|

  Am            Dm            G
|-------0-------------1--------------------------|
|---------1---------3---3------------------------|
|-----2-----2-----2-------2---------0------------|
|---2---------0-0-----------------0-----------2--|
|-0-------------------------0---2-------------0--|
|-----------------------------3---------2-3-4----|

Verse: Clean Electric
 Rhy. Fig. 1                                     End Rhy. Fig. 1
  Am            Dm            G                 *
|-------0-------------1---------------3-------|-----------------|
|---------1---------3---3---------------3-----|-----------------|
|-----2-----2-----2-------2---------0-----0---|-----0-----0-----|
|---2---------0-0-----------------0-----------|---0-----0-------|
|-0-------------------------0---2-----------0-|-3-----2-----3-2-|
|-----------------------------3---------------|-----------------|

* Last time before 2nd and 3rd chorus replace
  remainder of Rhy. Fig. 1 with Rhy. Fill 1.

 Rhy. Fill 1          End Rhy. Fill 1
  C       G/B     Am      G
|----------------------------------|
|-------1-------3-------1----------|
|-----0-------0-------2---------0--|
|---2-------0-------2---------0----|
|-3-------2-------0---------2------|
|-------------------------3--------|


 (w/Rhy. Fig. 1)
 Talk to me softly
 There's something in your eyes
 Don't hang your head in sorrow
 And please don't cry
 I know how you feel inside I've
 I've been there before
 Somethin's changin' inside you
 And Don't you know


Chorus: Clean Electric
   F                    G           Am
|----------------------------------------|------------------0--|--------------------|
|--1-------1-----1----------3-3----------|--------0-h-1--------|--1-----0-h-1-------|
|--0-h-2---0-h-2-0-h-2------0-0----------|------2-------2------|----2---------2-p-0-|
|--3-------3-----3--------0--------------|----2-----------2----|------2-------------|
|----------------------------------------|--0------------------|--------------------|
|-----------------------3----------------|---------------------|--------------------|

   F           G           Am                            F           G
|--------1--------------|------------0--0--------------|------1-----------3---|
|------1---1-------3----|------0----------3--3-1-------|----1---1-----3-3---3-|
|----2-------2---0------|----2-----2-------------2-----|--2-------2---0-------|
|--3-----------0-----0--|--------2-----------------2---|--3-----------0-------|
|-----------------------|--0---------------------------|----------------------|
|-----------------------|------------------------------|----------------------|

   C**     G/B     Am      G           F        G           Am
|-----------------------------------|------1--------3-------|--0-------|
|--------1-------1-------1----------|----1---1--3-3---3-----|--1-------|
|------0-------0-------2---------0--|--2--------0-----------|--2----2--|
|----2-------0-------2---------0----|--3--------0-----------|--2--2----|
|--3-------2-------0---------2------|-----------------------|--0-------|
|--------------------------3--------|-----------------------|----------|

Repeat Verse w/Additional Lyrics: Verse: 2
Repeat Chorus w/Rhy. Fill 2 at **

Rhy. Fill 2                  End Rhy. Fill 2
  C5   G5      A5   G5      F5   G5   A5
|-----------|------------|-----------------|
|-----------|------------|-----------------|
|--5--------|------------|-----------------|
|--5----5---|---7----5---|---3----5----7---|
|--3----5---|---7----5---|---3----5----7---|
|-------3---|---5----3---|---1----3----5---|

Chord progression over the solo:
 D5      F5      | G5      A5G5    | F5      G5      | A5            G5|
 / . / . / . / . | / . / . / . / . | / . / . / . / . | / . / . / . / . |

 F5      G5      | E5      F5      | F5      G5      | A5
 / . / . / . / . | / . / . / . / . | / . / . / . / . | /...............|

 Solo:
|---------------------------------------------------------------------|
|--------------------------------------------------8~~-----------8-8--|
|------------7^rp5--7-(7)~~~--r7p5--7^-------r7p5--7^-----r7----5^\/\-|
|-7~~~~~~~~~----------------------------------------------------------|
|---------------------------------------------------------------------|
|---------------------------------------------------------------------|

|---------------------------------------------------------------------|
|-----------------------------------------13^(2 steps)--13^(1/4 step)-|
|-7/9-9/10--------------------------12h14-----------------------------|
|--------------------------10h12-12/14--------------------------------|
|-5/7--7/8--8h10-10/12------------------------------------------------|
|---------------------------------------------------------------------|

|--------------------------------------------------------------------------|
|--------------------------------------------------------------------------|
|-14~~~----------------12--------------------------------------------------|
|-----------14-13h14p13p12-13p12-10-12p10---------10^----------------------|
|----------------------------------------------------12p10---12p10-12-(12)-|
|--------------------------------------------------------------------------|

|-----15-15-15-------------15-15-----------------------------------------------|
|-15^----------r15p13--15^-------r15--13-12---------12/15-13-12-13-------------|
|---------------------------------------------------------13-------------14----|
|-------------------------------------------------------------14------------15-|
|------------------------------------------------------------------------------|
|------------------------------------------------------------------------------|

|-13----------------------------------------------5-----------------------------|
|----13--15^--15~~~--r15p13--8^-----8-5--------x-x--8---------------5^r^(5)r--5-|
|-----------------------------------------------------r7p5--x-x--7^--(7)-----r7-|
|-------------------------------------------------------------------------------|
|-------------------------------------------------------------------------------|
|-------------------------------------------------------------------------------|

Verse:
                                                trem. bar
      Feedback---------------------------------------|  Harm
                                             \\\\\3.5   8va
|---------------------------------|---------------------------------|
|---------5-b-6---------r-5-b-6---|-------r-5-----------5-----------|
|-(7)-----------------------------|---------------------------------|
|---------------------------------|---------------------------------|
|---------------------------------|---------------------------------|
|---------------------------------|---------------------------------|
    and please remem-ber             that  I never  lied


Chorus 3: Lead Part

 Double regular chorus with power chords, or 5 (ie: F5, G5, A5, etc) 

F G Am                                                  F    G
|--12~~~--12--12--12--12-------------------------------|-------------------|------------|
|-------------------------13---------------------------|--15-p-13----------|------------|
|------------------------------------------------------|-----------14~~~~--|------------|
|------------------------------------------------------|-------------------|------------|
|------------------------------------------------------|-------------------|------------|
|------------------------------------------------------|-------------------|------------|

   Am                                    F      G
|--15b-------r15--15--------------------------------------|-------------------|-------------|
|---------------------17--15------------------------------|--15--p--13~~~~~~--|--15--13--15-|
|---------------------------------------------------------|-------------------|-------------|
|---------------------------------------------------------|-------------------|-------------|
|---------------------------------------------------------|-------------------|-------------|
|---------------------------------------------------------|-------------------|-------------|

   C     G/B    Am     G          F
|------------------------------|------------------------------|
|--15----15-----12-----12------|------------------------------|
|------------------------------|--14~~~~~~--------------------|
|------------------------------|------------------------------|
|------------------------------|------------------------------|
|------------------------------|------------------------------|

Outro Chorus: Distorted Guitar

 F5            G5
 And don't you cry...

 F5             G5
 Don't you ever cry...

 F5        G5    ***     (E5) (F5)
 Don't you cry tonight... baby maybe someday...

 F5        G5
 Don't you cry...

 F5             G5
 Don't you ever cry...

 F5        G5     C5       
 Don't you cry... TONIGHT... ****


*** Fill in with Rhy. Fill 3

  Rhy. Fill 3                           End Rhy. Fill 3
    E5                         F5 
E|--------------------------|--------------------------|
B|--------------------------|--------------------------|
G|--------------------------|--------------------------|
D|--2--2--2--2--2--2--2--2--|--3--3--3--3--3--3--3--3--|
A|--2--2--2--2--2--2--2--2--|--3--3--3--3--3--3--3--3--|
E|--0--0--0--0--0--0--0--0--|--1--1--1--1--1--1--1--1--|
                baby...        maybe...    someday...

**** Play Riff 1

  Riff 1
E|-12--12--------------------------12--12----------13--------------|
B|---------13------13------13--------------13----------------sl----|
G|---------------------------------------------------------12-/14--|
D|-----------------------------------------------------------------|
A|-----------------------------------------------------------------|
E|-----------------------------------------------------------------|

E|-13--------------12----------10----------8-----------------------|
B|-----------------------------------------------------------------|
G|---------12--------------10----------9---------5h7-------5-------|
D|-----------------------------------------------------------------|
A|-----------------------------------------------------------------|
E|-----------------------------------------------------------------|

E|-----------------------------------------------------------------|
B|-----------------------------------------------------------------|
G|---------5-------------------------------------------------------|
D|-5-h-7-----------------------------------------------------------|
A|---------------6h7-----------------------------------------------|
E|-----------------------------------------------------------------| End Riff 1

5.PERFECT CRIME

Gtr I (Eb Ab Db Gb Bb Eb) - Slash
gtr II (") - Izzy

 4/4

intro and for verse 1 and 2.
  Gtr I


|--------------------------|
|-8-----5------------------|
|-8-7-7-5------------------|         X 2
|-----7---5-7-7-7-5h7-7----|
|---------0-0-0-0-0-0-0----|
|--------------------------|

gtr II

|-----------------------------|
|-----------------------------|
|-8p-7-5-5--------------------|
|----------7-5-7-7-7-5-7-0----|     X 2   
|-----------------------------|
|-----------------------------|

1st chorus:
C5     Bb5   G5  A5 G5 Bb  G5 A5   G5 C5    Bb5   G5
per - fect crime god  *** it it's a  per - fect crime

A5   G5  Bb  G5 A5  G5 C5    Bb5   G5   A5 G5 Bb  G5  A5   G5 C5  Bb5  G5
moth-er ***-er it's a per - fect crime  i   said     it's    per - fect

[bridge]

2nd chorus:
C5  Bb5     G5  A5  G5 Bb G5 A5 G5 C5   Bb5     G5     A5 G5  Bb  G5  A5  G5  C5
bad side of me don't ***   wit'da bad  side o' me stay   a - way    from the bad

Bb5      G5     A5 G5  Bb  G5 A5   G5 C5   Bb5  F5
side o' me don't      ***    wit' da bad side

Solo: 
 
|------------------------------------------------------------------------------------------|
|-20b22r=20--17-20-17----17-20-17S16-22-16-24-16-17-20-17----17-20-17----17-20-17----17-19-|
|---------------------20----------------------------------20----------20----------20-------|
|------------------------------------------------------------------------------------------|
|------------------------------------------------------------------------------------------|
|------------------------------------------------------------------------------------------|
  
|20-17-----------20-----------------------20-17----20-17-19-20-19-17----19-19-17-19-17----|
|------17-20-17------17-20-17----17-20-17-------19-------------------20----------------20-|
|-----------------------------20----------------------------------------------------------|
|-----------------------------------------------------------------------------------------|
|-----------------------------------------------------------------------------------------|
|-----------------------------------------------------------------------------------------|

|17------------------------------17-------------------------------------------------------|
|---20-19-20-19-17------------17----17-15----17-15----------------------------------------|
|------------------19-17-16---------------16-------16-14-16-16----16-----------------14---|
|--------------------------------------------------------------14----15-14--------16----16|
|--------------------------------------------------------------------------17--17---------|
|-----------------------------------------------------------------------------------------|

|-----------------------------------------------------14-----17-17----|
|----------15-------------17-15----17----15-----17--------------------|
|-15----------16-14-16-14-------16----16-----16----16----16-----------|
|----16-14------------------------------------------------------------|
|---------------------------------------------------------------------|
|---------------------------------------------------------------------|

[3rd verse]

3rd chorus:
C5    Bb5    G5    A5   G5 Bb   G5  A5   G5    C5
won't ya let me be moth-er ***-er just let me be

A5 G5  Bb G5   A5    G5    C5  Bb5  G5  A5    G5      C5    G5
god  *** it better let me be don't ya know ya better let me be

C5     Bb5   G5  A5 G5 Bb  G5 A5   G5 C5    Bb5   G5
per - fect crime god  *** it it's a  per - fect crime

A5   G5  Bb  G5 A5  G5 C5    Bb5   G5   A5 G5  Bb  G5  A5   G5 C5 Bb5  G5
moth-er ***-er it's a per - fect crime don't cha know it's a  per - fect crime

6.YOU AIN'T THE FIRST

tune your guitar down a half step

------------------------|----------------------|---------0----0---2----|
------------12-----14---|--9----------2----0---|-2---------------------|
--13--------------------|----------------------|-----------------------|
------------------------|----------------------|-----------------------|
------------------------|----------------------|-----------------------|
------------------------|----------------------|-----------------------|
  I       tried    so     hard      just   to   get   through to you

A                        E                      A
--0---------------------|----------------------|-----------------------|
------------------------|-----------12----14---|--9-----------2----0---|
------------------------|---13-----------------|-----------------------|
------------------------|----------------------|-----------------------|
------------------------|----------------------|-----------------------|
------------------------|----------------------|-----------------------|
                  But      your    head's  so    far        from   the


E                        A                      E
-----------0------2-----|-0--------------------|---9---7---------------|
---2--------------------|----------------------|---------9---7--9---7--|
------------------------|----------------------|-----------------------|
------------------------|----------------------|-----------------------|
------------------------|----------------------|-----------------------|
------------------------|----------------------|-----------------------|

real  - ness     of      truth                   Was  it just a come on
A                        E
-------------0----------|--------0------2------|--0----------------9---|
---9---7----------------|--2-------------------|-----------------------|
------------------------|----------------------|-----------------------|
------------------------|----------------------|-----------------------|
------------------------|----------------------|-----------------------|
------------------------|----------------------|-----------------------|

 in the   dark,  wasn't   meant   to   last      long               I

E                         A                     E
--9---7-----------------|-------------0--------|----------0------2-----|
--------9---7--9---7----|---9---7--------------|--2--------------------|
------------------------|----------------------|-----------------------|
------------------------|----------------------|-----------------------|
------------------------|----------------------|-----------------------|
------------------------|----------------------|-----------------------|

think you're worn your welcome, honey  l'll just sing    you     a  -

A
--0---------------------|-------------2-4------|--------0--------------|
------------------------|----------------------|-----------------------|
------------------------|----------------------|-----------------------|
------------------------|----------------------|-----------------------|
------------------------|----------------------|-----------------------|
------------------------|----------------------|-----------------------|

 long             As  l    sing you   this            song




-------------------------|--12-----------------|-----------------------|
----------------11---12--|---------------------|--11--12---11------10--|
-------------------------|---------------------|-----------------------|
-------------------------|---------------------|-----------------------|
-------------------------|---------------------|-----------------------|
-------------------------|---------------------|-----------------------|

                           One,  Two,  Three,    One,

-------------------------|--0------------------|-----------------------|
---------14----12--------|---------------------|--14--12---------------|
--------------------13---|---------------------|-------------------11--|
-------------------------|---------------------|-----------------------|
-------------------------|---------------------|-----------------------|
-------------------------|---------------------|-----------------------|


-------------------------|
-------------------------|
--13---------------------|
-------------------------|
-------------------------|
-------------------------|

Two    Three     and So,

   Chorus

   E            G#         A^            B
   Good-bye to you, girl.  So long, fare-well

   E               G#           A^           B
   I cant hear ya  cryin' Your jivin's been hell

   E               G#          A^             E
   So Look for me Walkin' down your street at night

                   G#      A^              B
   I'll be in with another deep down in - side

   A      G#   F#m   E
   Deep  down  in - side

7.BAD OBSESSION

tune your guitar down a half step

|-------------------------|------------------3-|----------------------|
|-------------------------|---3--------------3-|----------------------|
|---------------12-12-(12)|---0-------2--0-----|---x--3--0--2--0--xx--|
|---------------12-12-(12)|-0-0--3-0--2--0-----|---x--3--0--2--0--xx--|
|-------------------------|--------------------|----------------------|
|-------------------------|--------------------|----------------------|

        p    p                                         dim.   (Gtr. 1 out)
|--------------------3----|-(3)---------------------|-(3)----------------|----------------------|
|--------------------3----|-(3)---------------------|-(3)----------------|----------------------|
|--x--3-----2--0--3-------|-------------------------|--------------------|----------------------|
|--x--3--0--2--0----------|-------------------------|--------------------|----------------------|
|-------(0)---------------|-------------------------|--------------------|----------------------|
|-------------------------|-------------------------|--------------------|----------------------|

*Gtr.2 (w\slide) Slash

     vol. off  < mf
                 ~~~~~~~~~~~~~~~~~~~~~~~~~~~~
|-------------------------|-------------------------|--------------------|----------------------|
|-------------------------|-------------------------|-0----------------0-|(0)-//3\\2--0-/3---0--|
|---------------12--------|-------------------------|-0-/-3--2--0-/-3--0-|(0)-//3\\2--0-/3---0--|
|---------------12--------|-(12)-----------(12)-\\\-|-0-/-3--2--0-/-3--0-|(0)-//3\\2--0-/3---0--|
|-------------------------|-(12)-----------(12)-\\\-|-0-/-3--2--0-/-3--0-|(0)-//3\\2--0-/3---0--|
|-------------------------|-------------------------|--------------------|----------------------|

                               steady gliss.          ~~~~~~~~~~~~~~~~~~
|-------------------------|-------------------------|--------------------|----------------------|
|(0)----------------------|----------------------12-|(12)-------------11/|/12---------------11//|
|(0)-------/3--3\2--0--/2/|/3--(3)///(7)-//------12-|(12)----------------|-----12--12--(12)-11//|
|(0)-------/3--3\2--0--/2/|/3--(3)///(7)-//------12-|(12)----------------|----------------------|
|(0)----------------------|-------------------------|--------------------|----------------------|
|-------------------------|-------------------------|--------------------|----------------------|

   Gtr. 1                      ^    p                      p     p
|-------------3--3--3--3--|-3-----------------------|---------------------3|
|-------------3--3--3--3--|-3--5--------------------|---------------------3|
|-------------------------|----5--3--0-----0--------|(0)--3--0--2--0---0---|
|-------------------------|-------------2--0--------|(0)--3--0--2--0---0---|
|-------------------------|-------------------------|----------------------|
|-------------------------|-------------------------|----------------------|

 let ring ---------------|    sl.                      Gtr. 2
|-------------------------|-------------------------||-------------------------------|
|-12--12------------------|-------------------------||-0-------------------------0---|
|-12------12-------12---12|-10/12--12----12\\\\\\\\\||-0---///3-----2---0--/3----0---|
|-------------12---12---12|-10/12--12----12\\\\\\\\\||-0---///3-----2---0--/3----0---|
|-------------------------|-------------------------||-0---///3-----2---0--/3----0---|
|-------------------------|-------------------------||-------------------------------|

                p                   p     p
|-3--------------------3--|-----------------------3-|--3---3-------------------------|
|-3--------------------3--|-x--x--------------------|--3---3----0----0---------------|
|----0--3-----2--0--0-----|-x--x--3--0--2--0--0-----|-----------0----0---------------|
|----0--3-----2--0--0-----|-x--x--3--0--2--0--0-----|-----------0----0---------------|
|-------------------------|-------------------------|--------------------------------|
|-------------------------|-------------------------|--------------------------------|


|-------------------------|-------------------------|----------------3---------------|
|(0)--//3\\\2---0-/3---0--|(0)----------------------|--------2/3-----3---------------|
|(0)--//3\\\2---0-/3---0--|(0)--/3-------3\2---0/3--|-(3)----------------------------|
|(0)--//3\\\2---0-/3---0--|(0)--/3-------3\2---0----|--------------------------------|
|(0)--//3\\\2---0-/3---0--|(0)----------------------|--------------------------------|
|-------------------------|-------------------------|--------------------------------|

          p                         p      p                    p      p
|-------------------------|----------------------3--|-----------------------------3--|
|-x--x---------------x--x-|-x--x-----------------3--|---x--x-------------------------|
|-x--x--3--0---2--0--x--x-|-x--x--3--0---2--0-------|---x--x--3--0---2--0------------|
|-x--x--3--0---2--0--x--x-|-x--x--3--0---2--0-------|---x--x--3--0---2--0------------|
|-------------------------|-------------------------|--------------------------------|
|-------------------------|-------------------------|--------------------------------|


|--(3)\-------------------|-------------------------|--------------------------------|
|--(3)\-----------------0-|(0)-///3\\\\2--0-//3--0--|--(0)---------------------------|
|-------x-/3---2--0-/3--0-|(0)-///3\\\\2--0-//3--0--|--(0)---//3------3\\2----0-/3---|
|-------x-/3---2--0-/3--0-|(0)-///3\\\\2--0-//3--0--|--(0)---//3------3\\2----0-/3---|
|---------/3---2--0-/3--0-|(0)-///3\\\\2--0-//3--0--|--(0)---//3------3\\2----0-/3---|
|-------------------------|-------------------------|--------------------------------|

|(3)----------------------|-------------------------|---------------------------------|
|-----------------x--x----|-------------------------|---------------------------------|
|-----------------x--x--0-|-------------------------|---------------------------------|
|-----------------x--x--0-|-------------------------|---------------------------------|
|-------------------------|-------------------------|---------------------------------|
|-------------------------|-------------------------|---------------------------------|

                           P.M.     P.M.
|---------------------|-------------------------|--------------------|------------------------|
|---------------------|-------------------------|--------------------|---/2---3\\2---3--3-----|
|(3)-------------(3)\-|--------/3----------3--0-|----/3\\\2--0--2--0-|---/2---3\\2---3--3-----|
|(3)-------------(3)\-|-----0--/3---2---0--3--0-|-0--/3\\\2--0--2--0-|---/2---3\\2---3--3-----|
|(3)-------------(3)\-|-/2--0--/3---2---0-------|-0--/3\\\2--0--2--0-|---/2---3\\2------------|
|---------------------|-------------------------|--------------------|-3----------------------|


|---------------------|-------------------------|--------------------|------------------------|
|(3)\---2/3-----------|-------------------------|--------------------|------------------------|
|(3)\-------3\2--0--0-|(0)--///3\\\\2---0/3-0---|----/3\\\\2--0--2--0|-----/3\\\\2--0--0------|
|(3)\-----------------|-----///3\\\\2---0/3-0---|-0--/3\\\\2--0--2--0|-----/3\\\\2--0--0-/3---|
|---------------------|-----///3\\\\2-----------|-0--/3\\\\2--0--2--0|-0-0--------------------|
|---------------------|-------------------------|--------------------|------------------------|


                           P.M.                    P.M.               P.M.--|
|---------------------|-------------------------|--------------------|------------------------|
|---------------------|--------------------0----|(0)-----------------|------------------------|
|---------------------|-------/3\\\2--0/3--0----|------/3\\2--0--2--0|----------2/3--3\2--0--0|
|-(3)\--1/3-----------|-(3)-0-/3\\\2--0/3--0----|------/3\\2--0--2--0|----------2/3--3\2--0--0|
|---------------------|-----0-/3\\\2------------|----0---------------|---0--0-----------------|
|---------------------|-------------------------|--------------------|------------------------|

         let ring
|---------------------|-------------------------|--------------------|------------------------|
|---------2/3---------|-------------------------|--------------------|------------------------|
|--/3--0------3---(3)\|-------------------------|-----------0--0----0|-(0)--/3--2--0--2---0---|
|--/3--0--------------|-14---------(14)\\\\\\\\-|-10---(10)\0--0----0|-(0)--/3--2--0--2---0---|
|---------------------|-14---------(14)\\\\\\\\-|--------------------|------------------------|
|---------------------|-------------------------|--------------------|------------------------|

|----------------------------|---------------------------|------------------------------------|
|----------------------------|---------------------------|------------------------------0-----|
|-(0)------2//3\\2--0--------|-----14------------(14)\\\\|//8--------------(8)\---5--2--0-----|
|-(0)------2//3\\2--0--------|/14----------------(14)\\\\|//8--------------(8)\---5--2--0-----|
|----------------------------|/14----------------(14)\\\\|//8--------------(8)\-5-------0-----|
|----------------------------|---------------------------|------------------------------------|

|----------------------------------------------|----------------------------------------------|
|--(0)-----------------------------------------|--------------2//////3\\\\\\2///4-------------|
|--(0)-----///3--------2--------0--///3----0---|--(0)---------2//////3\\\\\\2///4-------------|
|--(0)-----///3--------2--------0--///3----0---|--(0)---------2//////3\\\\\\2///4-------------|
|--(0)-----------------------------------------|--------------2//////3\\\\\\2///4-------------|
|----------------------------------------------|----------------------------------------------|

|---------------------------|---------------------|----------------------|--------------------|
|-(5)--------------(5)\--/5-|-(5)---------(5)\--5-|-(5)---------(5)/-----|--------------------|
|-(5)--------------(5)\--/5-|-(5)---------(5)\--5-|-(5)---------(5)/---3-|-(3)\2---0--3\2--0--|
|-(5)--------------(5)\--/5-|-(5)---------(5)\--5-|-(5)---------(5)/-----|-------2-0--3\2--0--|
|-(5)--------------(5)\--/5-|-(5)---------(5)\--5-|-(5)---------(5)/-----|--------------------|
|---------------------------|---------------------|----------------------|--------------------|

|---------------------------|---------------------|----------------------|----------------------|
|--5---------------(5)\--/5-|-(5)---------(5)\--/5|-(5)---------(5)\-----|--------------------4/|
|--5---------------(5)\--/5-|-(5)---------(5)\--/5|-(5)---------(5)\---3-|-(3)\2---2//3\\2-0--4/|
|--5---------------(5)\--/5-|-(5)---------(5)\--/5|-(5)---------(5)\-----|-------2-2//3\\2----4/|
|--5---------------(5)\--/5-|-(5)---------(5)\--/5|-(5)---------(5)\-----|----------------------|
|---------------------------|---------------------|----------------------|----------------------|

let ring                     let ring
|-----5---------------------|------5--------------------|----5--------------------------|
|-/5----4/5--------------4//|/5-------4/5------------4//|/5------------------------2///-|
|-/5---------5\3--0------4//|/5------------5\3---0---4//|/5-----4//5---5\\3---0----2///-|
|-/5---------------------4//|/5----------------------4//|/5-----4//5---5\\3--------2///-|
|---------------------------|---------------------------|-------------------------------|
|---------------------------|---------------------------|-------------------------------|

  let ring                   let ring
|-----3---------------------|------5--------------------|-----5-------------------------|
|-/3--------2///3--------4//|/5-------4/5------------4//|/5------4/5-------------4//----|
|-/3--------2///3--------4//|/5------------5\3--0----4//|/5-----------5\3--0-----4//----|
|-/3---------------3-----4//|/5----------------------4//|/5----------------------4//----|
|------------------3--------|---------------------------|-------------------------------|
|---------------------------|---------------------------|-------------------------------|

let ring                                                         let ring
|----5----------------------|-----7--6//7--7--6///7--7--|--------12-----12--11///12-----|
|-/5-----4/5--5---6///7-----|(7)-----6//7-----6///7-----|--7////-12--12-----11///12-----|
|-/5--------------6///7-----|(7)------------------------|-------------------------------|
|-/5------------------------|---------------------------|----------------------------12\|
|---------------------------|---------------------------|-------------------------------|
|---------------------------|---------------------------|-------------------------------|

 P.M.                         let ring              
|------7--------7--7-|-7//12--12----12-12-12-12-12-|
|(7)-----6///7--7--7-|-7//12-----12----------------|
|(7)-----6///7-------|-----------------------------|
|--------------------|-----------------------------|
|--------------------|-----------------------------|
|--------------------|-----------------------------|


  GUITAR SOLO                                           
|-------12--12--11//12-12-12-|-11//12-12-12-12\\10-----|
|-11/12-----12--11//12-12-12-|-11//12-12-12-12\\10-----|
|----------------------------|----------------------10-|
|----------------------------|-------------------------|
|----------------------------|-------------------------|
|----------------------------|-------------------------|


           let ring           let ring                  ~~~~~~~ let ring  
|-10///12--12----12--10///12--12----12-|-12///15--15---15------15--15----|
|-10///12-----12-----10///12-----12----|-12///15----------------------15-|
|-10///12------------10///12-----------|---------------------------------|
|--------------------------------------|---------------------------------|
|--------------------------------------|---------------------------------|
|--------------------------------------|---------------------------------|

                    let ring      let ring                                        
|---------15-------15----15---------15----|-15---------15----15///17-----17/15---|
|-14///15----14/15-15-15-----14//15----15-|----14///15-15-15-15///17-----17/15---|
|-14///15----14/15-15--------14//15-------|----14///15-15----15///17-----17/15---|
|-----------------------------------------|--------------------------------------|
|-----------------------------------------|--------------------------------------|
|-----------------------------------------|--------------------------------------|

                 rake  rake                                                  
|-------15-15----14----14---------|-----12----------------------------------|
|-14/15----15-15----14----13--/12-|(12)--------------12------------12-------|
|-------------15------------------|--------12----12------12-----12----12----|
|---------------------------------|-----------12-12-------------12----------|
|---------------------------------|--------------------------12-----------12|
|---------------------------------|-----------------------------------------|

                                                                          
|-------17-----------------------------|----17---------------------------|
|----------16//17----------------------|-------16//17--------------------|
|----------16//17---17\\15---------16//|/17------------17\\15//16----15//|
|----------------------------15----15//|/17------------17\\15//16----15//|
|-/17----------------------------------|---------------------------------|
|--------------------------------------|---------------------------------|


|----17----------------------------------|-15-----------------------------|
|-------15///17--------------14////15----|----14//15--------------12///17-|
|/17------------17\\\15--0---14////15----|------------15\\14--12--12///17-|
|/17------------17\\\15------14////15----|------------15\\14--12--12///17-|
|----------------------------14////15----|------------------------12///17-|
|----------------------------------------|--------------------------------|

                            ~~~~~~~~~~~~~    ~~~~~~~~~~~~~~~~      ~~~~~~~~~~~     *    *      
|-17------------------------------17---------------------------|-17---------------------------|
|----15//17----------------16//17----15//17---------------15/17|-----15//17-/17--/18--18///19-|
|------------17\\\15///16--16//17------------17--15-(15)\------|------------------------------|
|------------17\\\16-------16//17------------------------------|------------------------------|
|--------------------------------------------------------------|------------------------------|
|--------------------------------------------------------------|------------------------------|

    *                                                                          
-----------/19---------------19///22----------22/(25)/(26)-------------------| 
------(19)\/19---------------------------------------------------------------| 
-----------/19-----------------------------------------------2///(28)\\\\\\\-| 
-----------------------------------------------------------------------------| 
-----------------------------------------------------------------------------| 
-----------------------------------------------------------------------------|\

                                   *TAB numbers are imaginary fret numbers past the fingerboard.

After the Guitar Solo comes the Harmonica Solo
                                                        %
|------------------------|------------------------|----------------|----------------------------------|
|---------------5---6--7-|-(7)---7----7\\\5---//7-|----------------|-(7)---(7)\/7----/7---------------|
|---------------5---6--7-|-(7)---7----7\\\5---//7-|----------------|-(7)---(7)\/7----/7---------------|
|-(0)-----------5---6--7-|-(7)---7----7\\\5---//7-|----------------|-(7)---(7)\/7----/7---------------|
|-(0)-----------5---6--7-|-(7)---7----7\\\5---//7-|----------------|-(7)---(7)\/7----/7---------------|
|------------------------|------------------------|----------------|----------------------------------|

|----------------------------------------------------------------------------------|
|--7--7\/7---------7\\\5///7---7----7\\2///5//7--7--7--7-----7/2--7---7-7-7-7-7--7-|
|--7--7\/7---------7\\\5///7---7----7\\2///5//7--7--7--7-----7/2--7---7-7-7-7-7--7-|
|--7--7\/7---------7\\\5///7---7----7\\2///5//7--7--7--7-----7/2--7---7-7-7-7-7--7-|
|--7--7\/7---------7\\\5///7---7----7\\2///5//7--7--7--7-----7/2--7---7-7-7-7-7--7-|
|----------------------------------------------------------------------------------|

8.BACK OFF B****

Gtr I (Eb Ab Db Gb Bb Eb) 

 4/4
  Gtr I
 Intro: 

|--------------------0----------------------------------------------|
|--------------------0----------------------------------------------|
|-2-0-------------------2-4-2-0-------------------------------------|
|-----2-0-----------------------2-0-2---0-2S4-4-4S5-5-5-7-/7-9-9-12-|
|----------------2--------------------------------------------------|
|---------3b5r=5-0--------------------------------------------------|


 
|-------------|
|-------------|
|-12-14-14----|
|-------------|
|-------------|
|-------------|


 
|----------------------------------------------------15-17-15-17b19-17b19-17b19-17b19-17b19----|
|-14b16--14b16---------------------------------15-17-------------------------------------------|
|-14b16--14b16-12---------------12-14-14S16-16-------------------------------------------------|
|-----------------14-14S0-12-14----------------------------------------------------------------|
|----------------------------------------------------------------------------------------------|
|----------------------------------------------------------------------------------------------|


Riff A                                           Play twice....

|----------------------------------------|
|----------------------------------------|
|-9--------------------------------------|
|-7-----9S7-----7-7-7---2-9-----7-7-7----|
|-------7S5-----4-5-5-----7-----4-5-5----|
|---0-0-----0-0-------3-----0-0----------|



Riff B (The lyrics go "oh baby...pretty baby....)
 
|-0----------------|
|-0-----------3----|
|-1---0---2---2----|
|-2---0---2---0----|
|-2-------0---0----|
|-0---3------------|

Verse 1
(lyrics go "i aint playing childhood games.....")

Riff C  
|------------------------------------------|
|------------------------------------------|
|-------------5---------------------7-9----|
|---2-----2---5-----5-5---7-----7---7S9----|
|---2-----2---3-----5-5---7-----7---5S7----|
|-0---0-0---0---3-3-----3-5-5-5---5--------|


Chorus
Riff D                                               play thrice
  
|---------------------------------------------|
|---------------------------------------------|
|---------------------------------------------|
|---9S7--7-------9S7-------9-7---7---7-7------|
|---7S5--4-------7S5-------7-5-0-4-0-5-4S5----|
|-0--------0-0-0------0-0---------------------|

Riff E
"back of bitch...."                          Play twice

|----------------------------------------|
|----------------------------------------|
|-0--2----------9-------7-----9-----7----|
|-0--2----------9-------7-----9-----7----|
|----0------7-7---7-7-7---7-7---7-7------|
|-3-----0-3------------------------------|


Riff F (Awsome riff!!)
  
|--------------------------------------------------------------10-------------|
|------------8--8-7-----10--7b8===7------------8-8-7-----10b11----10-8-10-7---|
|-9--9-7------------7---------------9--9-7-----------7----------------------9-|
|--------9-7----------9--------------------9-7---------9----------------------|
|-----------------------------------------------------------------------------|
|-----------------------------------------------------------------------------|



|---------------|
|---------------|
|----7-9-7-9----|
|-9-------------|
|---------------|
|---------------|

Verse 2
riff C

Chorus
Riff D (play thrice)

Riff E (play twice)

Riff F

SOLO: 
  
|-----------------------------------9-12b14--------------------------------------9-10-12-10-9-----|
|-9h11-11-9h11-11-9-11-11-10-----10---------10-12-10--9p-10p-9p-10-9----h9-12-10--------------12--|
|-9h10-10-9h10-10-9-10-10-11--11-------------------------------------11---------------------------|
|-------------------------------------------------------------------------------------------------|
|-------------------------------------------------------------------------------------------------|
|-------------------------------------------------------------------------------------------------|



|---------------7-9-10-9-7-----------7-5-7-9-7-5s4-6-5-7-5-4-5-4---------------|
|-10-9sh7-h9-10------------10-9-7-h7-----------------------------7-5---------2-|
|--------------------------------------------------------------------6-5-4-4---|
|------------------------------------------------------------------------------|
|------------------------------------------------------------------------------|
|------------------------------------------------------------------------------|


 
|-2--------------------------------------14-17-16-14-16----14-------14----14-----------------|
|---5p2---------2---17b19--17---------14----------------17----17b19----17----14-15--14h15-14-|
|-------4-6-2-4-2------------------14--------------------------------------------------------|
|--------------------------------------------------------------------------------------------|
|-------------------------------16-----------------------------------------------------------|
|--------------------------------------------------------------------------------------------|


|-----------------------------------------------------------------------------------|
|----14-------14--------------------------------------------------------------------|
|-16----16h17----17p16p14--16p14h16-14p13----14----13-14-13----13-------------------|
|-----------------------------------------16----16----------16----16-14-------------|
|-----------------------------------------------------------------------16-15-14----|
|-----------------------------------------------------------------------------------|


   
|----------------------------------------14-16-17b19--12----12----|
|-------------------------------------14-----------------12-------|
|----------------------------------14-----------------------------|
|----------------------------14-16--------------------------------|
|-12-14-14-12-------12-14S16--------------------------------------|
|-------------12-14-----------------------------------------------|

Verse 3
Riff B (play twice)

Chorus
Riff D (play 4 times)

Riff E (2 times)

SOLO 2 (play with Riff E)
 
|-----------------------12-----14-----15-----19------------|
|-12--14b15--14--14p12--15b17--17b19--18b20--22b24---------|
|-12--14b15--14--14p12--------------------------------9----|
|-----------------------------------------------------9----|
|-----------------------------------------------------7----|
|----------------------------------------------------------|

9.DOUBLE TALKIN' JIVE

tune your guiatr down a half step

riff
E------------------------------------------------
B------------------------------------------------
G------------------------------------------------
D---2--2------2--2-------------------------------
A---2--2------2--2----------------2p--0----------
E---0--0---0----------0---3p--0----------3p--0---


for the chorus the chords are

CCCCC BBBBB 

then you play the riff

solo
E-----------------------------------------------------------------------------
B-----------------------------------------------H-P-----H---------------------
G----------[[1]]----[[1]]---H-P----4~~~~~-/-7-5-7-5-\-4-5~~~~----------------
D-2-/-3~~~-3---3~~~-3---3-2-3-2-----------------------------------------------
A-------------------------------2---------------------------------------------
E-----------------------------------------------------------------------------

E-------------------H-P-----H-----------------------H--P---------H------------
B---8--6-5-6--/-8-6-8-6-\-5-6----/-12--/-15~~~-13--15-13--\--12-13------------
G-5---------------------------4-----------------------------------------------
D-----------------------------------------------------------------------------
A-----------------------------------------------------------------------------
E-----------------------------------------------------------------------------
                 H[[1]]            H  P
E----15--13-13-12-13----13-12~~~-12-13-12\10--H-------------------------------
B-13-----------------------------------------12-------------------------------
G-----------------------------------------------------------------------------
D-----------------------------------------------------------------------------
A-----------------------------------------------------------------------------
E-----------------------------------------------------------------------------
                                                           [[1/2]]
E---H-P-----------------------------------------[[1]]------19------19~~~-----
B8-12-8--H--P--------H-P-----------------------18----18-17-------------------
G-------11-10-----9-10-9---12\10---/14~~~--/17-------------------------------
D----------------------------------------------------------------------------
A----------------------------------------------------------------------------
E----------------------------------------------------------------------------
  [[1]]
E-20---20~~------------20-19-20------------[[1/2]]-----19-18-19--------------
B------------18-17-18------------18-17-18-17-----17~~------------------------
G----------------------------------------------------------------------------
D----------------------------------------------------------------------------
A----------------------------------------------------------------------------
E----------------------------------------------------------------------------
                 rake
E---19----19--------x--------------------------------------------------------
B17----17----17------x--------[[1]]------------------------------------------
G---------------------x-9-12-10----10(10)(10)~~~--12--10--12--10-------------
D----------------------------------------------------------------------------
A----------------------------------------------------------------------------
E----------------------------------------------------------------------------

E----------------------------------------------------------------------------
B----------------------------------------------------------------------------
Gx-x-10 9-(9)-(9)~~~--4-(4)-(4)-(4)~~~---------------------------------------
D---------------------------------------6-(6)-(6)~~~-2-(2)-(2)~~~--2-/-3-----
A----------------------------------------------------------------------------
E----------------------------------------------------------------------------

E--------------------------------------------7~~~~---------------------------
B----------------3-/-6~~~--5-6-5-6-5-6---------------------------------------
G-------2--3--5------------------------6--4----------------------------------
D-3--5-----------------------------------------------------------------------
A----------------------------------------------------------------------------
E----------------------------------------------------------------------------

10.NOVEMBER RAIN

tune your guitar down by a half step

Fmaj7                  Dm9                       C      Csus4  C
When I look in to your eyes i can see a love restrained
Fmaj7              Dm9                                    C      Csus4  C
but darlin' when i hold you, don't you know i feel the same?
Dm               G                                     C
nothing lasts for ever and we both know hearts can change
Dm                        G                            C
and it's hard to hold a candle in the cold november rain
Fmaj7                              Dm
we've been through this such a long long time just tryin' to kill the pain
C Csus4  C   Fmaj7                                             Dm
oh_ yeah___  but lovers always come and lovers always go and no one's 
                                C    Csus4        C
really sure who's letting go today__  walking a way__
Fmaj7                                                    Dm
if we could take the time to lay it on the line, i could rest my head
                         C  Csus4        C     Dm
just knowing that you were mine  all mine
                      G                             C
so if you want to love me, then darlin' don't refrain
Dm                      G                           C
or i'll just end up walkin' in the cold november rain
           F                    G
do you need sometime on your own
          F                  G
do you need sometime all alone
              F                          G
ooh, everybody needs sometime on their own
                         F                     G
ooh, don't you know you need some time all alone
E5            F5            C5        E5                F5
i know it's hard to keep an o-pen heart when even friends seem
           D5                    E5            F5              C5
E|-----------------------------------------------------------------------|
B|--------------3-5-5br-3------------------------------------------------|
G|-------------------------4br~~~----------------------------------------|
D|-----------------------------------------------------------------------|
A|-----------------------------------------------------------------------|
E|-----------------------------------------------------------------------|
out to harm you                      but if you could heal a broken heart

E|----------------------------|
B|----------------------------|
G|-/5~~~~-------4br~~~~--2--0-|
D|----------------------------|
A|----------------------------|
E|----------------------------|

E5             F5              G5
   wouldn't time be out to charm you woh_____________

  Guitar solo 1:
E|-----------8-----------------------------8------------8~~~~~~-------|
B|-b8---r8b----8---r(8)p6--8brbr----r8b------r8--5br~~----------5brbr-|
G|--------------------------------------------------------------------|
D|--------------------------------------------------------------------|
A|--------------------------------------------------------------------|
E|--------------------------------------------------------------------|

E|------------------------------------------------------------------|
B|-5~~----------8------------------------8--------------------------|
G|-----7p5--7/9---9\7--5---b8-------r8b----8--r(8)p6--8brb-----r8b--|
D|------------------------------------------------------------------|
A|------------------------------------------------------------------|
E|------------------------------------------------------------------|

E|-8-8br---10b(hold)-8h10p8----8-------13p12-----13p12----13b---13~~~~--|
B|--------------------------10---11b----------13-------13---------------|
G|----------------------------------------------------------------------|
D|----------------------------------------------------------------------|
A|----------------------------------------------------------------------|
E|----------------------------------------------------------------------|

E|----12--13-12h13p12---------12-13br-13-12-12b-12~~~-20--(20)~~~-|
B|-15-----------------15~~-15-------------------------------------|
G|----------------------------------------------------------------|
D|----------------------------------------------------------------|
A|----------------------------------------------------------------|
E|----------------------------------------------------------------|

E|-19-19--19\17--17\15--15\13--13--13\12--12--12h13p12-----12h13~~~|
B|------------------------------------------------------15---------|
G|-----------------------------------------------------------------|
D|-----------------------------------------------------------------|
A|-----------------------------------------------------------------|
E|-----------------------------------------------------------------|

E|-12-13-12h13p12--------12---------------------------------------------|
B|----------------15p13-----13---15h17p15-15-12h13-12h13p12--------12---|
G|-----------------------------------------------------------14p12------|
D|----------------------------------------------------------------------|
A|----------------------------------------------------------------------|
E|----------------------------------------------------------------------|

E|-------------------------------------------------------------|
B|----10-----------------------------13~~~~--------------13~~~-|
G|-12----10--12--10--9~~~~--12p10\9-----------10h12p10\9-------|
D|-------------------------------------------------------------|
A|-------------------------------------------------------------|
E|-------------------------------------------------------------|

E|--------------------------15--------------------|
B|-------------15b-------------r15---13-----(13)b-|
G|-10h12p10\9-------------------------------------|
D|------------------------------------------------|
A|------------------------------------------------|
E|------------------------------------------------| (end of solo 1)

   F                    G                   F
E|----------------------------------------------------------|
B|-13-----------(13)b-------------------6-5-----------------|
G|----------------------------5h7p5----------5---------5h7--|
D|-----------------------------------7----------7-----------|
A|----------------------------------------------------------|
E|----------------------------------------------------------|
need some time on my own  sometimes i need sometime all alone

      G                         F                 G     
E|------------------------------------------------------------------------|
B|------6b-------6p5----6---5---------------------------------------------|
G|----------------------------5-------------5h7-------------5h7p5---------|
D|-7-5---------------------------7----------------------7----------7------|
A|------------------------------------------------------------------------|
E|------------------------------------------------------------------------|
      ooh, everybody needs sometime on their own  ooh, don't you know you

 F                G
E|-----------------------------------------------------------|
B|-6--5------------------------------------------------------|
G|------5---------------------7--9--10--12--14--16--17--19---|
D|--------7--------------------------------------------------|
A|-----------------------------------------------------------|
E|-----------------------------------------------------------|
need sometime all alone

  Guitar solo 2:
E|--------------------------------------20---------------20---------19b-|
B|-----------------------18~~~~~~-20b------r20-----(20)b----18-17~------|
G|-7-9-10-12-14-16-17-19------------------------------------------------|
D|----------------------------------------------------------------------|
A|----------------------------------------------------------------------|
E|----------------------------------------------------------------------|
  
        w/Fill 2.
E|----------------------17--------------------------------------------------|
B|-17b-rb-r----17-18-20----18--20-17-18-20--17br-17-------------------------|
G|----------19--------------------------------------19brp17--19p17-----17---|
D|------------------------------------------------------------------19------|
A|--------------------------------------------------------------------------|
E|--------------------------------------------------------------------------|

E|-----------------------------------------------------------------------|
B|-20---------------20----------------20b--20--18h20p18p17--18-17h18p17--|
G|----17-17------17----17-17-17----17------------------------------------|
D|-----------19-----------------19---------------------------------------|
A|-----------------------------------------------------------------------|
E|-----------------------------------------------------------------------|

E|------------------------------------|
B|-----17------20---------------------|
G|-19-----19b------19---17~~~~--------|
D|------------------------------------|
A|------------------------------------|
E|------------------------------------| (end of solo 2)

Fmaj7                      Dm                     C Csus4       C
and when your fears subside and shadows still remain  oh_ yeah_
Fmaj7                Dm
i know that you can love me when there's no one left to blame
C      Csus4      C                    Dm
ah______________________________________
                    G                          C
so nevermind the darkness we still can find a way 
Dm                G                          C5      G/B
nothing lasts forever even cold november rain

end solo
E--2O--------19----- 2O-|-(2O)-------2O--19--2O--15---------15--|
B-----------------------|----------------------------16---------|
G-----------------------|---------------------------------------|
D-----------------------|---------------------------------------|
A-----------------------|---------------------------------------|
E-----------------------|---------------------------------------|

E-16----151615------15----------15-|
B-----------------18---------18----|
G----------------------------------|
D----------------------------------|
A----------------------------------|
E----------------------------------|
                
E---16---15--1615----------------15-------------------------------|
B------------------18-16----16-18----18-16-18-15-16--18-16-15-16--|
G------------------------17---------------------------------------|
D-----------------------------------------------------------------|
A-----------------------------------------------------------------|
E-----------------------------------------------------------------|

E-----------------------------------------------------------------|
B---15-----------------15--16--18--15--16--18---15----------------|
G------------------17-------------------------------17------------|
D-----------------------------------------------------------------|
A-----------------------------------------------------------------|
E-----------------------------------------------------------------|

E-2O-----------------19----------2O-|-(2O)---2O--19--2O--15------15-|
B-----------------------------------|------------------------16-----|
G-----------------------------------|-------------------------------|
D-----------------------------------|-------------------------------|
A-----------------------------------|-------------------------------|
E-----------------------------------|-------------------------------|

E--16-----151615----15---------------|
B-----------------18-------15-16-18--|
G------------------------------------|
D------------------------------------|
A------------------------------------|
E------------------------------------|

E-15-16-151615------15-----15---------------------15-1615----15------|
B-------------18-16---16-18--1816-18-16--15-16-18--------1816---1618-|
G--------------------------------------17----------------------------|
D--------------------------------------------------------------------|
A--------------------------------------------------------------------|
E--------------------------------------------------------------------|

E-15-----------------------------------------------------------------|
B---18-16----15-16-18-15----16-15------------------------------------|
G---------17-------------17-------17-15-17--151315131513-------------|
D---------------------------------------------------------12---------|
A--------------------------------------------------------------------|
E--------------------------------------------------------------------|
           
E---2O-------------19-------------2O-|-(2O)---2O--19-------------15--|
B------------------------------------|----------------15-----------17|
G------------------------------------|-------------------------------|
D------------------------------------|-------------------------------|
A------------------------------------|-------------------------------|
E------------------------------------|-------------------------------|

E---------------------------------|-----2O-(2O)-------2O-15-2O-19-2O-|
B--15-------15------18---------16-|---16-----------------------------|
G---------------17----------------|-17-------------------------------|
D---------------------------------|----------------------------------|
A---------------------------------|----------------------------------|
E---------------------------------|----------------------------------|
                   
E--15--18-16-18-15-1615-------15---------15------15------15-----|
B-------------------------18------16-18------16------16------16-|
G---------------------------------------------------------------|
D---------------------------------------------------------------|
A---------------------------------------------------------------|
E---------------------------------------------------------------|
               
E--2O----------------19----------2O--|-(2O)----2O--19--2O--15----15-|
B------------------------------------|------------------------16----|
G------------------------------------|------------------------------|
D------------------------------------|------------------------------|
A------------------------------------|------------------------------|
E------------------------------------|------------------------------|

E--16------151615---15------------15-|--18--(18)-------15---15------|
B----------------18------------18----|-------------------16---16----|
G------------------------------------|---------------------------17-|
D------------------------------------|------------------------------|
A------------------------------------|------------------------------|
E------------------------------------|------------------------------|

E-----------------------------------------------------------------|
B-----------------------------------------------------------------|
G--(17)--15-17---17-15--------------------------------------------|
D-----------------------17--16----15--15---15---13---15--13-------|
A--------------------------------------------------------------15-|
E-----------------------------------------------------------------|

E--2O-------------19---------2O-|-(2O)----2O--19--2O--15------15-|
B-------------------------------|-------------------------16-----|
G-------------------------------|--------------------------------|
D-------------------------------|--------------------------------|
A-------------------------------|--------------------------------|
E-------------------------------|--------------------------------|

E--16------151615---15---------15-|
B----------------18---------18----|
G---------------------------------|
D---------------------------------|
A---------------------------------|
E---------------------------------|

E--151618--151618--1516181615------16------151615-------15-----|
B------------------------------18------18-----------18------18-|
G--------------------------------------------------------------|
D--------------------------------------------------------------|
A--------------------------------------------------------------|
E--------------------------------------------------------------|

E------------------------------15--(15)----(15)-----------------|
B--16-------18-----16--18--16-----------------------15-----(15)-|
G------17-------------------------------------------------------|
D---------------------------------------------------------------|
A---------------------------------------------------------------|
E---------------------------------------------------------------|

E--2O--------------19--------2O-|-(2O)---2O--19----2O--15------15-|
B-------------------------------|--------------------------16-----|
G-------------------------------|---------------------------------|
D-------------------------------|---------------------------------|
A-------------------------------|---------------------------------|
E-------------------------------|---------------------------------|
                                                           
E--16------15-----------------------|----------------------------|
B------------18-16--18-----------16-|--15-----------(15)---------|
G-----------------------------------|----------------------------|
D-----------------------------------|----------------------------|
A-----------------------------------|----------------------------|
E-----------------------------------|----------------------------|

feedback
E------------------------------------|
B--(15)-------------(15)-------------|
G------------------------------------|
D------------------------------------|
A------------------------------------|
E------------------------------------|

11.THE GARDEN

tune your guitar down a half step

D#||------------------------|---------2--2-2----2------------|
A#||------------------------|---------1--1-1----1------------|
F#||------------------------|---------2--2-2----2------------|
C#||------------------------|--4p0----0------0---------------|
G#||--------------3h5p3---0-|----------------------3h5p3---0-|
C#||--------------------6---|------0---------------------6---|



---------2---2----2------------|-------------0----------------|
---------0---0----0------------|---------3---3---3------------|
---------2---2----2------------|---------3-------3------------|
--3p0----0---------------------|--3p0----0-------0------------|
---------------0-----3h5p3---0-|--------------------3h5p3---0-|
------0--------------------6---|------0-------------------6---|



---------2--2-2----2------------|---------2--2-2----2------------|
---------1--1-1----1------------|---------1--1-1----1------------|
---------2--2-2----2------------|---------2--2-2----2------------|
--4p0----0------0---------------|--4p0----0------0---------------|
----------------------3h5p3---0-|----------------------3h5p3---0-|
------0---------------------6---|------0---------------------6---|



---------2---2----2------------|-------------0h2---------------|
---------0---0----0------------|---------3---3-3--3------------|
---------2---2----2------------|---------3--------3------------|
--3p0----0---------------------|--3p0----0--------0------------|
---------------0-----3h5p3---0-|---------------------3h5p3---0-|
------0--------------------6---|------0--------------------6---|



---------2--2-2----2------------|---------2--2-2----2------------|
---------1--1-1----1------------|---------1--1-1----1------------|
---------2--2-2----2------------|---------2--2-2----2------------|
--4p0----0------0---------------|--4p0----0------0---------------|
----------------------3h5p3---0-|----------------------3h5p3---0-|
------0---------------------6---|------0---------------------6---|

Verse

---------2---2----2------------|-------------0----------------|
---------0---0----0------------|---------3---3---3------------|
---------2---2----2------------|---------3-------3------------|
--3p0----0---------------------|--3p0----0-------0------------|
---------------0-----3h5p3---0-|--------------------3h5p3---0-|
------0--------------------6---|------0-------------------6---|



---------2--2-2----2------------|---------2--2-2----2------------|
---------1--1-1----1------------|---------1--1-1----1------------|
---------2--2-2----2------------|---------2--2-2----2------------|
--4p0----0------0---------------|--4p0----0------0---------------|
----------------------3h5p3---0-|----------------------3h5p3---0-|
------0---------------------6---|------0---------------------6---|



---------2---2----2------------|-------------0----------------|
---------0---0----0------------|---------3---3---3------------|
---------2---2----2------------|---------3-------3------------|
--3p0----0---------------------|--3p0----0-------0------------|
---------------0-----3h5p3---0-|--------------------3h5p3---0-|
------0--------------------6---|------0-------------------6---|



---------2--2-2----2------------|---------2--2-2----2------------|
---------1--1-1----1------------|---------1--1-1----1------------|
---------2--2-2----2------------|---------2--2-2----2------------|
--4p0----0------0---------------|--4p0----0------0---------------|
----------------------3h5p3---0-|----------------------3h5p3---0-|
------0---------------------6---|------0---------------------6---|



---------2---2----2------------|-------------0----------------|
---------0---0----0------------|---------3---3---3------------|
---------2---2----2------------|---------3-------3------------|
--3p0----0---------------------|--3p0----0-------0------------|
---------------0-----3h5p3---0-|--------------------3h5p3---0-|
------0--------------------6---|------0-------------------6---|



---------2---2----------|------------------|------------------|
---------1---1---1------|------------------|------------------|
---------2---2---2------|------------------|------------------|
--4p0----0-------0------|------------------|------------------|
------------------------|------------------|------------------|
------0-----------------|------------------|------------------|


-------------------|----------------------|----------------------|
-------------------|-------------7--7r-7--|-------------7--7r-7--|
----------3b-------|--7~------------------|--5~------------------|
-------------------|----------------------|----------------------|
-------------------|----------------------|----------------------|
-------------------|----------------------|----------------------|



---------------------|-----------------10----|--10~---------10b---14--12~-|
-----------5b-----7~-|----------3~--------10-|----------10----------------|
--4~-----------------|-----------------------|----------------------------|
---------------------|-----------------------|----------------------------|
---------------------|-----------------------|----------------------------|
---------------------|-----------------------|----------------------------|



--------12b---12r---10~-|--------------10--------|-----------------------|
------------------------|--------10b-------8--7--|----5b-5---------------|
------------------------|------------------------|------------5r-5~---7~-|
------------------------|------------------------|-----------------------|
------------------------|------------------------|-----------------------|
------------------------|------------------------|-----------------------|

turned into my worst phobia...


------------------|---------------------------------|--------------------------|
------------------|---------------------------------|--------------------------|
------------------|--5/7-----7\----10----9/10-------|--7/9---9-9\----5----5----|
------------------|--5/7-7-7-7\----10--x-9/10-10-10-|--7/9-9-9-9\----5--x-5----|
------------------|--3/5-5-5-5\----8---x-7/8--8--8--|--5/7-7-7-7\----3--3-3----|
------------------|---------------------------------|--------------------------|



---------------------------------|--------------------------|
---------------------------------|--------------------------|
--5/7-----7\----10----9/10-------|--7/9---9-9\----5----5----|
--5/7-7-7-7\----10--x-9/10-10-10-|--7/9-9-9-9\----5--x-5----|
--3/5-5-5-5\----8---x-7/8--8--8--|--5/7-7-7-7\----3--3-3----|
---------------------------------|--------------------------|



---------------------------------|--------------------------|
---------------------------------|--------------------------|
--5/7-----7\----10----9/10-------|--7/9---9-9\----5----5----|
--5/7-7-7-7\----10--x-9/10-10-10-|--7/9-9-9-9\----5--x-5----|
--3/5-5-5-5\----8---x-7/8--8--8--|--5/7-7-7-7\----3--3-3----|
---------------------------------|--------------------------|



---------------------------------|--------------------------|------------------|
---------------------------------|--------------------------|------------------|
--5/7-----7\----10----9/10-------|--7/9---9-9\----5----5----|------------------|
--5/7-7-7-7\----10--x-9/10-10-10-|--7/9-9-9-9\----5--x-5----|------------------|
--3/5-5-5-5\----8---x-7/8--8--8--|--5/7-7-7-7\----3--3-3----|------------------|
---------------------------------|--------------------------|------------------|


---------------------|----------------------|----------------------|
------------7--7r-7--|-------------7--7r-7--|-----------5b---8--7--|
-5b------------------|--7~------------------|--4~------------------|
---------------------|----------------------|----------------------|
---------------------|----------------------|----------------------|
---------------------|----------------------|----------------------|



---------10--10--10b---12--|--12b---------14--14r---|--12r-----12----12r---10--|
----7b---------------------|------------------------|--------------------------|
---------------------------|------------------------|--------------------------|
---------------------------|------------------------|--------------------------|
---------------------------|------------------------|--------------------------|
---------------------------|------------------------|--------------------------|



--10----------------------|---------------------|
----------10b---10--8--7--|---------------------|
--------------------------|----7--5r-5b---------|
--------------------------|---------------------|
--------------------------|---------------------|
--------------------------|---------------------|

Guitar Solo

------------10----------------------------------------------|
--13b----10----13p10-13p12p10----10h13p10----10----10-13p10-|
------------------------------13----------13----12b---------|
------------------------------------------------------------|
------------------------------------------------------------|
------------------------------------------------------------|



----------------------------------------------------------------|
-----10h13p10----10----10---------------------------------------|
--12b---------12b---12b---13p12h10-12~-12-10----12----10~-12-10-|
---------------------------------------------12----12-----------|
----------------------------------------------------------------|
----------------------------------------------------------------|



--------------------------------13b-------|
--------15----15-----15~--15--------15-13-|
--12/14----14-----14---------14-----------|
------------------------------------------|
------------------------------------------|
------------------------------------------|



--15b15-15p13----16p---15~-15p13-15-15r-15-13-|
--------------15------------------------------|
----------------------------------------------|
----------------------------------------------|
----------------------------------------------|
----------------------------------------------|



--15b-13b--------------------------------|
----------15--------------------------13b|
--------------x-12b12r10-10b10-----------|
-------------------------------12--10----|
-----------------------------------------|
-----------------------------------------|



---10-10----10-----------------------------------|
---------13----10--------------------------------|
------------------13~-10-12-12r12p10-12-10-------|
-------------------------------------------12-10-|
-------------------------------------------------|
-------------------------------------------------|



--------------------------------------------------|
--10----------------------------------------------|
--10----------------------------------------------|
-----12-10\9-10-9------------------------------10-|
------------------12p11-12-10r-10p8-10-8-10/12----|
--------------------------------------------------|



--------------------------------------------------------10h12----10h12/15---|
-----------------------------12----10-12p10----10-12h13-------13------------|
-----------10----10-12b10-12----12----------12------------------------------|
--12p10-12----12------------------------------------------------------------|
----------------------------------------------------------------------------|
----------------------------------------------------------------------------|



--20b-----17-16-15-------------------|
-------------------17b-17~--17p15----|
----------------------------------14-|
-------------------------------------|
-------------------------------------|
-------------------------------------|



------------------------------------------------------------------|
--18-17h18p17p15----18-17h18p17p15----18-17h18p17p15----17b-17-15-|
-----------------16----------------16----------------16-----------|
------------------------------------------------------------------|
------------------------------------------------------------------|
------------------------------------------------------------------|



------20-----20--------------------|
--20b----20b----20r-18-20-18r------|
-----------------------------------|
-----------------------------------|
-----------------------------------|
-----------------------------------|



-----------------------------------------------|--------------------|
--17~--17b17-18p17----17-----------------------|--------------------|
-------------------19----19-17-----------------|--------------------|
-------------------------------19-17--15-17-17-|--------------------|
-----------------------------------------------|--15b---------------|
-----------------------------------------------|--------------------|

another verse and then :

--------------14--14r-14--|--14b---------14--14r-14--|
--15~---------------------|--------------------------|
--------------------------|--------------------------|
--------------------------|--------------------------|
--------------------------|--------------------------|
--------------------------|--------------------------|



--14b---------14--14b-14--|--14b---------------|
--------------------------|--------------------|
--------------------------|--------------------|
--------------------------|--------------------|
--------------------------|--------------------|
--------------------------|--------------------|



--8b-10-10-10--10-10--10---------|--------------------|----------------------|
--8b-10-10-10--10-10--10---------|--------------------|----------------------|
---------------------------10b---|--12b---------------|--17b-----------24b---|
---------------------------------|--12b---------------|--17b-----------24b---|
---------------------------------|--------------------|----------------------|
---------------------------------|--------------------|----------------------|



--------------------|---------------------|---------------------|
------22\-----------|---------------------|---------------------|
------22\-----------|--12\---7------------|---------------------|
------22\-----------|--12\---7------------|------------9/-12\---|
--------------------|---------------------|---------------------|
--------------------|---------------------|---------------------|



-------------------|-----------------------|----------------------|
-------------------|-----------------------|----------------------|
-------------------|--4/---10/-12\---------|--------11/-14~-------|
----------3~-------|-----------------------|----------------------|
-------------------|-----------------------|----------------------|
-------------------|-----------------------|----------------------|



----------------------|--------------------|--------------------|
----------------------|--------------------|--------------------|
--14\-12~-------------|--12\---------------|--------7\-5\-------|
----------------------|--------------------|--------7\-5\-------|
----------------------|--------------------|--------------------|
----------------------|--------------------|--------------------|



----------17b-------|--19~----------19r----|--20~-------20r-------|
--------------------|----------------------|----------------------|
--------------------|----------------------|----------------------|
--------------------|----------------------|----------------------|
--------------------|----------------------|----------------------|
--------------------|----------------------|----------------------|



--19~---------19--19\---|--16~-----------16\-13--|--12~---------------|
------------------------|------------------------|--------------------|
------------------------|------------------------|--------------------|
------------------------|------------------------|--------------------|
------------------------|------------------------|--------------------|
------------------------|------------------------|--------------------|



--13~-------12r-------|--12~-----------12b---|--17~-------17r-------|
----------------------|----------------------|----------------------|
----------------------|----------------------|----------------------|
----------------------|----------------------|----------------------|
----------------------|----------------------|----------------------|
----------------------|----------------------|----------------------|



--19~-----------19\---|--13~-------12r-------|--12~-----------12b---|
----------------------|----------------------|----------------------|
----------------------|----------------------|----------------------|
----------------------|----------------------|----------------------|
----------------------|----------------------|----------------------|
----------------------|----------------------|----------------------|



--17~-------17r-------|--19~-----------19\---|--13~-------12r-------|
----------------------|----------------------|----------------------|
----------------------|----------------------|----------------------|
----------------------|----------------------|----------------------|
----------------------|----------------------|----------------------|
----------------------|----------------------|----------------------|



--12~-----------12b---|--17~-------17r-------|--19~-----------19\---|
----------------------|----------------------|----------------------|
----------------------|----------------------|----------------------|
----------------------|----------------------|----------------------|
----------------------|----------------------|----------------------|
----------------------|----------------------|----------------------|



--13~-------12r-------|--12~-----------12b---|--17~-------17r-------|
----------------------|----------------------|----------------------|
----------------------|----------------------|----------------------|
----------------------|----------------------|----------------------|
----------------------|----------------------|----------------------|
----------------------|----------------------|----------------------|



--19~-----------19\---|----------12r-------||
----------------------|--------------------||
----------------------|--------------------||
----------------------|--------------------||
----------------------|--------------------||
----------------------|--------------------||

during the last solo the rythem guitar does this riff:


---------------------8----7/8-8-8-|--5-7-7-7-7\---------------|
--8/10-10-10-10~------------------|---------------x-8--x-8----|
-------------------x-5--x-4/5-5-5-|--2-4-4-4-4\---------------|  x 12
--5/7--7--7--7~----x-7--x-6/7-7-7-|--4-6-6-6-6\---x-5--x-5----|
----------------------------------|---------------------------|
----------------------------------|---------------------------|


---------------------8----7/8-8-8-||
--8/10-10-10-10~------------------||
-------------------x-5--x-4/5-5-5-||
--5/7--7--7--7~----x-7--x-6/7-7-7-||
----------------------------------||
----------------------------------||

and also this part is played

----------------------------|------------------------------|
-----------10--x-9/10-10-10-|--7/9-10-10-10\---------------|
----------------------------|------------------x-9--x-9----|
-----------7---x-6/7--7--7--|--4/6-6--6--6\----------------|
----------------------------|------------------x-7--x-7----|
----------------------------|------------------------------|



---------------------13----12/13-13-13-|--10/12-12-12-12\---x-8---x-8-----|
---------------------------------------|--------------------x-8---x-8-----|
--9/11-11-11-11----x-14--x-13/14-14-14-|--11/13-13-13-13\-----------------| x11
---------------------------------------|----------------------10----10----|
--7/9--9--9--9-----x-12--x-11/12-12-12-|--9/-11-11-11-11\---x-10--x-10----|
---------------------------------------|----------------------------------|


--12/13-13-13-13------13----12/13-13-13-||
--------10-10-10------------------------||
--9/-10-10-10-10----x-14--x-13/14-14-14-||
--------------------x-----x-------------||
--7/-8--8--8--8-----x-12--x-11/12-12-12-||
----------------------------------------||

12.GARDEN OF EDEN

Intro: 
|----x----------------------------------------5--------------------------| 
|----x----------------------------------------5--------------------------| 
|----x-------------------------------------------------------------------| 
|--------x/-----------------------------------------------2--2-----------| 
|--------x/----------2-------5-----2--(2)----------5/6----2--2-----------| 
|-------------17\----0--0-0--3--0--0--(0)--0-------3/4----0--0--0-0-0----| 

|------------------------------------------------------------------------| 
|------------------2-----------------------------------------------------| 
|---------------0--2-------------------------------2---------------------| 
|---5/6-----2---0--2----------2---------5-----2----2--------2------5---2-| 
|---5/6-----2-----------------2---------5-----2-------------2------5---2-| 
|---3/4--0--0----------3-3-0--0-----0-0-3---0-0--0-------3--0--0-0-3-0-0-| 

Verse:       You Got a... 
|------------------------------------------------------------------------| 
|------2-----------------------------------------------------------------| 
|------2-------------Fig 1-----------------------------------------------| 
|---------------2-----------------5------2-----7----5/6---2--------------| 
|---------------2-----------------5------2-----7----5/6---2--------------| 
|---0--------3--0-----------0--0--3---0--0--0--5----3/4---0--------------| 

Play fig 1 another 2.5 times and then 

   Watch'em come in off the... 
|------------------------------------------------------------------------| 
|------------------------------------------------------------------------| 
|------------------------------------------------------------------------| 
|----------(2)-----7-----------------------------------------------------| 
|----------(2)-----7----------------1h2--------3h4--3--1/2----------1h2--| 
|----------(0)--0--5----3-0-3---3-3-------3-3---------------3--3--3------| 

|------------------------------------------------------------------------| 
|------------------------------------------------------------------------| 
|------------------------------------------------------------------------| 
|------------------------------------------------------------------------| 
|--------3h4--3--1/2------------1h2--------3h4---3--1/2------------1h2---| 
|--3--3----------------3---3--3------3--3----------------3----3--3-------| 

|------------------------------------------------------------------------| 
|------------------------------------------------------------------------| 
|------------------------------------------------------------------------| 
|------------------------5---3-------------------------------------------| 
|----------3h4--3--1/2-----------5--3--1--3--1-----------------5--3--1-3-| 
|---3--3----------------------------------------3--1--0--3--1------------| 

                                  end of verse 

|------------------------------------------------------------------------| 
|------------------------------------------------------------------------| 
|------------------------------------------------------------------------| 
|---------------5---3---5p3-------------------------3-----5p3-------5----| 
|--1------------5---3---5p3-----5-------------------3-----5p3------------| 
|-----3--1--2---3---3-3------3-----------------3--3----3---------3-------| 

|------------------------------------------------------------------------| 
|------------------------------------------------------------------------| 
|--------------------------------3---------------------------------------| 
|--------3------5p3----5---------3----5p3------5--------3--5p3-------5---| 
|--------3------5p3-------------------5p3---------------3--5p3-----------| 
|---3--3-----3-------3-----3--3-------------3-----3--3------------3------| 

|------------------------------------------------------------------------| 
|------------------------------------------------------------------------| 
|------------------------------------------------------------------------| 
|---------3-----5p3-----5--------3------5p3-------5--5--5--4--2--2-------| 
|---------3-----5p3--------------3------5p3-------5--5--5--4--3--2-------| 
|---3--3-----3-------3------3--3-----3--------3---3--3--3--2--1--0-------| 

Verse 2,  Verse 3  the same 






Pre Chorus 
|------------------------------------------------------------------------| 
|------------------------------------------------------------------------| 
|---2----2------------------------------------2-------------2----------5-| 
|---2----2------------2---2---2---------------2---------2---2----------5-| 
|---0----0----3p0--0--3---3---0---3p0--0--3---0---3p0-0-3---0---3p0-0--3-| 
|------------------------------------------------------------------------| 

|------------------------------------------------------------------------| 
|------------------------------------------------------------------------| 
|---2--------------------------------------------------------------------| 
|---2----------------7--6--5---------------------------------------------| 
|---0---3p0--0--0-------------3------------------------------------------| 
|--------------------------------0---1--2--------------------------------| 

Chorus: 
|------------------------------------------------------------------------| 
|------------------------------------------------------------------------| 
|------------------------------------------------------------------------| 
|-------5---3--5----3h5---5--3--5---5----5---3--5---5---5---x--x--x--5---| 
|-------5---3--5----3h5---5--3--5---5----5---3--5---5---5---x--x--x--5---| 
|---3---3-----------3h5---3---------3----3----------3---3------------3---| 

|------------------------------------------------------------------------| 
|------------------------------------------------------------------------| 
|------------------------------------------------------------------------| 
|--5----x--5---5---3--5--5-----5--3--5--5----------5--3------------------| 
|--5----x--5---5---3--5--5-----5--3--5--5---------------5--3--1--3-------| 
|--3-------3---3---------3-----3--------3--------------------------------| 

|------------------------------------------------------------------------| 
|------------------------------------------------------------------------| 
|------------------------------------------------------------------------| 
|---------------------------------------------------5--------------------| 
|---1------------------5--3--1--3----1--------------5--------------------| 
|------3--1--0--3--1----------------------3--1--2---3--------------------| 

Bridge:    Suck on that... 
|------------------------------------------------------------------------| 
|------------------------------------------------------------------------| 
|------------------------------------------------------------------------| 
|---5--3--5--x--5-----5--3--5-3--4--5---5---3--5---5----x--x--x---5------| 
|---5--3--5--x--5-----5--3--5-3--4--5---5---3--5---5----x--x--x---5------| 
|---3-----------3-----3-------------3---3----------3--------------3------| 

|------------------------------------------------------------------------| 
|------------------------------------------------------------------------| 
|------------------------------------------------------------------------| 
|--5---x--x--x--5---5---x--5---3h5--5--5--3--5--3--5---5---5--5---2--2---| 
|--5---x--x--x--5---5---x--5---3h5--5--5--3--5--3--5---5---5--5---2--2---| 
|--3------------3---3------3--------3--3---------------3---3--3---0--0---| 

Guitar Solo: 
|---------------------------------5------5-------------------5-----------| 
|------------------------------------7h8----8p7p5--8p7p5-7h8----8p7p5----| 
|----------------5h6-------5--7h8----------------------------------------| 
|----------7--7------5--7------------------------------------------------| 
|--17\7------------------------------------------------------------------| 
|------------------------------------------------------------------------| 

|-----------------------------------------12-----------------------------| 
|--------5-----------5--5----10----10--10----13------10----8-------------| 
|---7h8-----8p7p5-7-----5--0----------------------------------9--7h8-----| 
|------------------------------------------------------------------------| 
|------------------------------------------------------------------------| 
|------------------------------------------------------------------------| 

|------------------------------------------------------------------------| 
|------------------------------------------------------------------------| 
|---9--7h8h9--7h8h9--7h8h9--7h8h9--7h8h9----7h8h9--7--9--5---------------| 
|------------------------------------------------------------------------| 
|------------------------------------------------------------------------| 
|------------------------------------------------------------------------| 

|------------------------------(14)-----14-------------------------------| 
|----------------------14--17b------17-----15----------------------------| 
|----16--16-------(16)---------------------------16---14----16----14-----| 
|--------------------------------------------------------16----16-----16-| 
|------------------------------------------------------------------------| 
|------------------------------------------------------------------------| 

|------------------------------------------------------------------------| 
|---------------22-----19-22---19----22----19--22p19-----19-----18-19-17-| 
|---------------------------------21----21------------21-----21----------| 
|---15--14\12------------------------------------------------------------| 
|------------------------------------------------------------------------| 
|------------------------------------------------------------------------| 

|-----------------------------------------15-----------------------------| 
|----------15----15----------------------------18b-----------------------| 
|----19-17----18----18h19p18---17--14--16--------------------------------| 
|------------------------------------------------------------------------| 
|------------------------------------------------------------------------| 
|------------------------------------------------------------------------| 

Verse 4  same as the first 



Chorus 



|------------------------------------------------------------------------| 
|-----------------------------------------------11h12--------------------| 
|----------3h4------5--6--5--3--4---/12---x--x--------12--12-------------| 
|----5--5------5--5-------------------------------------------10--11--10-| 
|------------------------------------------------------------------------| 
|------------------------------------------------------------------------| 



|------------------------------------------------------------------------| 
|------------------------------------------------------------------------| 
|-----------------------------------------------------------------15h16--| 
|----8--9--------------8h9----------10-11-10--8--9--17----17--17---------| 
|----------10----x--x-------10--10---------------------------------------| 
|------------------------------------------------------------------------| 



|------------------------------------------------------------------------| 
|------------------------------18b---18---------18-----------------------| 
|-----------17--18--17--15--16------------17b-------17----17--15--12-----| 
|---17--17---------------------------------------------------------------| 
|------------------------------------------------------------------------| 
|------------------------------------------------------------------------| 



|------------------------------------------------------------------------| 
|------------------------------------------------------------------------| 
|----10------------------------------------------------------------------| 
|----------10b-p8--10---8------------------------------------------------| 
|--------------------------10-8--8--10--(10)-----------------------------| 
|------------------------------------------------------------------------|

13.DON'T DAMN ME

intro:
|-------------------------------------------------------------------------|
|-------------------------------------------------------------------------|
|-------------------------------------------------------------------------|
|----11-11---------------9--9-------------------2------6\4----9---11------|
|----9--9---7-----9---6--7--7---------7-7--4----0---0--4\2----7---9-------|
|--0----------9-9---9-----------9-7-7-5-5--2--4-------------0-------------|

verse: repeat the intro a certain amount times
|---------------------------------------------------------------------------|
|---------------------------------------------------------------------------|
|---------------------------------------------------------------------------|
|------6\4-----------------------------------2------6\4--------3/4------x-4-|
|---0--4\2--2-2-2-4------6-------4-----------0---0--4\2---2-2---------------|
|-----------0-0-0-2---2------2-------2---4----------------0-0---------------|

bridge: (I know you don't wanna here me crying...)D5  A5  E5  E

solo:
|--------------------------------------------------------------------------|
|--------------------------------------------------------------------------|
|--11-9-----11--------9----------------------------------------------------|
|--------11----10-11----11-10-9-7-9-9p7-9p7------------7-------7-----------|
|--------------------------------------------9-7-9---9----9----7---9-7--9--|
|------------------------------------------------------------5----------9--|

|--------------------------------------------------------------------------|
|--------------------------------------------------------------------------|
|--------------------------------------------------------------------6-----|
|--------------------------------------------------------6h7p6---6-7-------|
|--7-------------------------------------7h9p7h9--6h7h9--------9-----------|
|----9-8-7b--p5--7-5-5h7-5-5--7--5h7-9-9-----------------------------------|

|--------------------------------------------------------------------------|
|-------------------------------------9h10p9-----9h10-x-14-17-14----17-----|
|-----------------8h9p8-------9--9h11---------11-----------------16----16--|
|--7h9p7\6-7v--11--------9-11----------------------------------------------|
|--------------------------------------------------------------------------|
|--------------------------------------------------------------------------|

|--------------------------------------------------------------------------|
|-------------------------------------9h10p9-----9h10-x-14-17-14----17-----|
|-----------------8h9p8-------9--9h11---------11-----------------16----16--|
|--7h9p7\6-7v--11--------9-11----------------------------------------------|
|--------------------------------------------------------------------------|
|--------------------------------------------------------------------------|

|---------------------------------------------------14---------------------|
|--14h17p14--14-------------------------17b---17b------17-14--17--14-------|
|----------------17-16-14-----16----14-------------------------------------|
|--------------------------16----16----------------------------------------|
|--------------------------------------------------------------------------|
|--------------------------------------------------------------------------|

|----------------------------14------------------------------------------17-|
|--14-15-14h15p14----14---------17-14-----14--------------------------------|
|-----------------16----16b-----------16b----16p14----16--14h16p14\13--0----|
|--------------------------------------------------16-----------------------|
|---------------------------------------------------------------------------|
|---------------------------------------------------------------------------|

|-17v----14-17-16--(16)h17p16p14-17-16--14-17-16--14-17-16--14-17-16--17p16-|
|---------------------------------------------------------------------------|
|---------------------------------------------------------------------------|
|---------------------------------------------------------------------------|
|---------------------------------------------------------------------------|
|---------------------------------------------------------------------------|

|--17p16--14h16p14\13--14--------------------------------------------------|
|-------------------------17--15h17--17p15--17p15p14--15--14h15p14\13------|
|--------------------------------------------------------------------------|
|--------------------------------------------------------------------------|
|--------------------------------------------------------------------------|
|--------------------------------------------------------------------------|

|--------------------19b--19b--16--19--17--19--16h17p16----16--------------|
|--14-13\12h13p12---------------------------------------19----19--17--19---|
|-----------------14-------------------------------------------------------|
|--------------------------------------------------------------------------|
|--------------------------------------------------------------------------|
|--------------------------------------------------------------------------|

|-------------14-----------------------14----------------------------------|
|--19p0--17b------17-14-----------17b-----17--16--15--14--------14---------|
|------------------------16b--14-------------------------17--16------------|
|--------------------------------------------------------------------------|
|--------------------------------------------------------------------------|
|--------------------------------------------------------------------------|

|--------------------------------------------------------------------------|
|--------------------------------------------------------------------------|
|----17--16--14--13--14--13h14p13-----13-----------------------------------|
|----------------------------------16----16--------------------------------|
|--------------------------------------------16--16--15--14--14b--12-14----|
|--------------------------------------------------------------------------|

|--------------------------------------------------------------------------|
|--------------------14----------------------------------------------------|
|----------------14--14----------------------------------------------------|
|----------------14--16----------It ain't long, just fast------------------|
|-----12/14---16-----------------------------------------------------------|
|--14----------------------------------------------------------------------|

14.BAD APPLES

Don't Know

15.DEAD HORSE

[Verse]

E --5-5--5-5/7-7--7-7\4-4--4-4/5-5--4/5-4/5-5--5-5/7-7--7-7\0-0--0-0-0-0/2-2/3-3/4-4/----
H --5-5--5-5/7-7--7-7\4-4--4-4/5-5--4/5-4/5-5--5-5/7-7--7-7\0-0--0-0-0-0/2-2/3-3/4-4/--:-
G --6-6--6-6/8-8--8-8\5-5--5-5/6-6--5/6-5/6-6--6-6/8-8--8-8\1-1--1-1-1-1/3-3/4-4/5-5/----
D --7-7--7-7/9-9--9-9\6-6--6-6/7-7--6/7-6/7-7--7-7/9-9--9-9\2-2--2-2-2-2/4-4/5-5/6-6/----
A --7-7--7-7/9-9--9-9\6-6--6-6/7-7--6/7-6/7-7--7-7/9-9--9-9\2-2--2-2-2-2/4-4/5-5/6-6/--:-
E --5-5--5-5/7-7--7-7\4-4--4-4/5-5--4/5-4/5-5--5-5/7-7--7-7\0-0--0-0-0-0/2-2/3-3/4-4/----


[Chorus]
In Chorus strum the chords with Distortion.
In the first part of the chorus you just have to change between A and E.

E --5---0---
H --5---0---
G --6---1---
D --7---2---
A --7---2---
E --5---0---

When Axl sings:"I kept smiling..." you play:

E --2----2-4-5----5--
H --2----2-4-5----5--
G --3----3-5-6----6--
D --4----4-6-7----7--
A --4----4-6-7----7--
E --2----2-4-5----5--

After this you play the A to E-change again.

16.COMA

 Riff A

E|---------------------------------------------------------------------------|
B|---------------------------------------------------------------------------|
G|---------------------------------------------------------------------------|
D|-6---5---4-4-----5---6---5-----------5---6---5-----------5-5-4---6---5---6-|
A|-4-0-3-0-6-6-0-0-3-0-4-0-3-0-4-7-4-0-3-0-4-0-3-0-4-7-4-0-3-3-2-0-4-0-3-0-4-|
E|---------------------------------------------------------------------------|



E|-----------------------------------------------------------------------|
B|----------------------------------13-13--------------------------12-12-|
G|----------------------------------14-14--------------------------12-12-|
D|-14-14----------------------------14-14--------------------------12-12-|
A|-12-12----------------------------12-12--------------------------10-10-|
E|-----------------------------------------------------------------------|

      hey, you caught me in a coma      an i don't think i wanna



E|------------------------------------------------------------------------------|
B|------------------------11-11--------------10-10-------------------------9--9-|
G|------------------------12-12--------------10-10------------------------10-10-|
D|------------------------12-12--------------10-10------------------------10-10-|
A|------------------------10-10---------------8--8-------------------------8--8-|
E|------------------------------------------------------------------------------|

  ever come back to this        world again       kinda like it in a coma



E|--------------------------------|
B|--------------------------------|
G|----------------------------x-x-|
D|----------------------------x-x-|
A|----------------------------x-x-|
E|--------------------------------|

  cause no one's ever gonna



Ab5         Eb5             G5           D5   

oh make me come back to this   world again now i feel as if i'm 



floating away i can't feel



E|--------------------------------------------------------------|
B|-5-5----------------------------------------------4-4---------|
G|-5-5----------------------------------------------5-5---------|
D|-5-5----------------------------------------------5-5---------|
A|-3-3----------------------------------------------3-3---------|
E|--------------------------------------------------------------|

   all the pressure and i like it this way but my body's callin'



              Eb5          Bb5              D5        A5

my body's callin' won't ya come back to this world again suspended deep



E|-------------------------------3-3------------------------------|
B|-------------------------------3-3------------------------------|
G|-------------------------------4-4------------------------------|
D|-------------------------------5-5------------------------------|
A|-------------------------------5-5------------------------------|
E|-------------------------------3-3------------------------------|

in a sea of black i've got the light at the end i've got the bones



                                                   B5

E|----------------------3-3---------------------------------------|
B|----------------------3-3---------------------------------------|
G|----------------------3-3---------------------------------------|
D|----------------------5-5---------------------------------------|
A|----------------------5-5---------------------------------------|
E|----------------------3-3---------------------------------------|
comments
print report bad tab
3 comments total.
-1 reply
sum 41 fan wrote on January 18 2007, 02:54 pm

Yay 1st comment anyway dude you have done alot... i could neva be bothered

+1 reply
joe-smoe wrote on August 18 2009, 06:14 am

FOR SUM 41:WHAT THE HELL!
hey this is a great tab and if i was slash i would say: thats how you play it i was always wandering where i was going wrong! that
my friennd is a good tab thanks!

+1 reply
joe-smoe wrote on August 18 2009, 06:19 am

nice one i've just learn't dead horse~ very simple!

I want to post or [tab]
guest
You may want to rate the tab now too:
select rating
Please do not post tabs as comments. Select "correction" instead!