Oops, an error
Loading. Please wait.

Use Your Illusion 2 Tab

ver1
ver1

Album

More versions @911Tabs.com
27,180 views 24 this week
1 commentread comment
1 2 3 4 5
accurate
x 10
add to favorites launch autoscroll
font size
0
reset
Autoscroll
+/-
esc
set tempo
stop
Contributor
WARNING: You are trying to view
                                    content from Ultimate-Guitar.com
                                    in an unauthorized application,
                                    which is prohibited.

                                    Please use an official Ultimate
                                    Guitar Tabs application for iPhone,
                                    iPad or Android to access legitimate
                                    chords, guitar, bass, and drum tabs
                                    from Ultimate-Guitar.com database.

                                    Type "ultimate guitar tabs" in Apple
                                    App Store's or Android Market's
                                    search to find the application.
Band- Guns N' Roses
Album- Use Your Illusion II

1.Civil War
2.14 Years
3.Yesterdays
4.Knockin' On Heaven's Door
5.Get In The Ring
6.Shotgun Blues
7.Breakdown
8.Pretty Tied Up
9.Locomotive
10.So Fine
11.Estranged
12.You Could Be Mine
13.Don't Cry
14.My World

1.CIVIL WAR

Em
 Rhy.Fig 1                          G
|----------------------------------|-------------------------------------|
|----------------------------------|-------------------------------------|
|-------0----------------0---------|-------0---------------0-------------|
|---2-----2---2------2-----2-----0-|---0-----0---0-----0-----0-----2-----|
|-----2-----2------2---2-----0h2---|-----2-----2-----2---2-----0h2-------|
|-0--------------0-----------------|-3-------------3---------------------|

 Em                      G
|-----------------------|------------------------|
|-----------------------|------------------------|
|------0---------0------|------0-----------2-0-2-|
|---2---2-2---2---2---2-|---0---2---0---0-----2--|
|--2-2---2---2-2---0h2--|--2-2---0h2---0-0-------|
|-0---------0-----------|-3-----------2----------|


 Riff A
 Em                G                   Em                   G
|-12----10--------|-------------------|-12-----10----------|---------------||
|-----------10-11-|---12--------------|--------------10-11-|12-----10s8s7s-||
|-----------------|-------------------|--------------------|---------------||
|-----------------|-------------------|--------------------|---------------||
|-----------------|-------------------|--------------------|---------------||
|-----------------|-------------------|--------------------|---------------||
|                                                                          ||
|------------------|-----------------|------------------|------------------||
|------------------|-----------------|------------------|------------------||
|----0-------0-----|---0-------0-----|----0-------0-----|----0--------2-0-0||
|--2--2-2--2--2---2|-0--0-0--0--0---0|--2--2-2--2--2---2|--0--0-----0----2-||
|-2-2--2--2-2--0h2-|--2--2--2-2--0h2-|-2-2--2--2-2--0h2-|-2-2--2-0-0-0-----||
|0-------0---------|3------3---------|0-------0---------|3--------2--------||

 
 1st verse
 w/Rhy.fig 1(3 times)
 Em      (end Riff A) G
|--------------------|--------------------------------------------|
|s5------------------|--------------------------------------------|
|--------------------|--------------------------------------------|
|--------------------|--------------------------------------------|
|--------------------|--------------------------------------------|
|--------------------|--------------------------------------------|

 w/Riff A
 Em                     G                        Em     
|------0---------0----|-------0---------------0-|------0---------0-------|
|---5---5-5---5---5-0-|---3----3---3---3-----3--|---5---5-5---5---5--3---|
|--4-4---4---4-4---4--|--4------------4-----0---|--4-4---4---4-4---------|
|-5---------5---------|-5---5----5---5---5-4----|-5---------5------4-----|
|---------------------|-------------------------|------------------------|
|---------------------|-------------------------|------------------------|

 G           D/F#             G        Em       G  D/F#
|-------0-----------0--------|--------|--------|--------|
|---3----3---3---3---3-----0-|--------|--------|--------|
|--4------------2-0----------|--------|--------|--------|
|-5---5----5---4-------4s2---|--------|--------|--------|
|----------------------------|--------|--------|--------|
|----------------------------|--------|--------|--------|

 A5                                     A5#4 A5
|----------0------0-----|---------3-0---0-------3-2---||
|------5---4-------4----|---------------4-----3----3s5||
|-2-2---2------2------2-|-2---2-------------2---------||
|-2--2---5----4-4----4--|---5---5-----5----4----------||
|-0----------0----------|-----------------0-----------||
|-----------------------|-----------------------------||

 Rfy.Fig 2
 E5      G      D/F# E5          G       D  E G F# E5
|----0--|-----------|-------0---|-----2--2-------|-----0-----------------|
|----0--|-0---------|-------0---|-0---3--3-------|---0---0---------------|
|-------|-0---------|-----------|-0---2--2-------|-----------0-0---------|
|-------|-0---------|-----------|-0---0----------|-----------0-0---------|
|-2-----|-----------|-----------|----------------|-----------------------|
|-0-----|-3----3-2b-|-0---0-----|-3---------0-2b-|-0---------------------|

 G            E5              G        D         
|------------|-------0-------|---------2---------|--------|
|-0----------|-0-----0-------|-0-------3--3------|-0----4-|
|-0----------|-----------0-0-|-0-------2--2------|-2----4-|
|-0----------|-2---------0-0-|-0---0-0-0---------|-2----0-|
|------------|-2--2----------|---------------0-0-|-0------|
|-3-----3-2b-|-0--0----------|-3-----------------|--------|

		     w/Rhy Fig. 2
		     E5
|------------------||----0------0---3-(3)b--0------0-----|
|------0-----------||------0-3b---0-3-(3)b----0-3b---0---|
|-2--0-0--2--2-----||-2b-------------------------------0-|
|-2----0--2--2-----||------------------------------------|
|-0-------0--0-----||------------------------------------|
|---------------5s-||------------------------------------|

 G        D/F# E5                              G     
|-------------|----0------0---3--0------0-----|--------------------------|
|-8-----------|------0-3b---0-3----0-3b---0---|-8-8-7h8p7----------------|
|-7-----------|-2b--------------------------0-|-7---------9-7-7-7-7------|
|----2s4sxs14-|-------------------------------|--------------7------10s--|
|--------xs14-|-------------------------------|--------------------------|
|-------------|-------------------------------|--------------------------|

 E5                           G
|----0------0---3-0------0---|---------------------------|
|------0-3b---0-3---0-3b--0--|-8--6-7-8-10-13s-s10s15----|
|-2b-----------------------0-|-7--5-6-7--9-12s-s9--------|
|----------------------------|---------------------------|
|----------------------------|---------------------------|
|----------------------------|---------------------------|

				      Rhy. Fig. 3
 E5                          G   D    G
|---0------0---3-0-----0---|--------||-----------------------------------|
|-----0-3b---0-3--0-3b--0--|-8---7--||-8-----3----0---------3-----0------|
|-2----------------------0-|-7---7--||-7--0-----0-------0-----0----------|
|--------------------------|--------||-----0----------4---4-----4--------|
|--------------------------|--------||--------------2--------------------|
|--------------------------|--------||-3---------------------------------|

 Em                           G            Bm(b6)
|----------------------------|------------------------------|
|----------------------------|-------3---0---------3-----0--|
|------------------0-0-------|---0-----0-------0-----0------|
|---2--2---2---2-----------0-|-----0---------4---4-----4----|
|--------2-------2-----0h2---|-------------2----------------|
|-0---0------0---------------|-3----------------------------|

				    w/Rhy Fig. 3
 Em              C            D     G           Bm(b6)
|--------------------------0------|--------------------------0-|
|--------------------3-1------3-0-|-------3---0-------3------0-|
|--------0----------------------0-|-----0---------------0------|
|---2------2---2---2-----0--------|---0-----0------4------4----|
|------2-----2---3----------------|-------------2--------------|
|-0-------------------------------|-3--------------------------|


 Em                             G             Bm(b6)
|-------0---0------------------|----------3--------------------|
|-------0-0--------------------|--------3-------------3-----0--|
|-------0-------------0--------|------0-----0-----0-----0------|
|---2---------------2--------0-|-0--0-------------4-4-----4----|
|-----------------2-----0h2----|--------------2----------------|
|-0------------0---------------|-3-----------------------------|

 Em                  C          D        G5         B5          A
|--------------------0--0-------2--2---||--------------------------------|
|--------------------1--1----3--3--3---||--------------------------------|
|--------------------0--0-0--2--2--2---||--------------------------------|
|---2--2-------------2--2-------0--0---||--------------------------------|
|--------2-2-2-2--3--3--3-------0--0-0-||--------------------------------|
|-0------0-0-0-0-----3--3-------2--2---||--------------------------------|
					 I dont need your civil war

 E5       G5                B5                    A   E5    C  D
	  It feeds the rich while it burries the poor.

G5             B5                        E5                      E    E5
 Your power hungry selling soldiers in a human grocry store aint that fresh

G5           B5          a E5    C     D
 I dont need your civil war.   oo no no no no


 Guitar solo
 G              B5              E5
|------------------------------|-----------------------|
|------15----------------------|-------------------15s-|
|-14b-----14(14)p12-14---12-14-|-14b(14)p12------------|
|------------------------------|------------14-14------|
|------------------------------|-----------------------|
|------------------------------|-----------------------|

 G            B5             E5            C           D
|--------------------------|------------------------------------|
|-----3------------3-------|-----6s5-5-3-5p3s1-3-1-3p1p0---0-8b-|
|-2b----2-0-2--2s4---4s2p0-|-2-0-------------------------0------|
|--------------------------|------------------------------------|
|--------------------------|------------------------------------|
|--------------------------|------------------------------------|

 G             B5                 E5
|--------5--------------------8b-|(8)-8-7-8-7h8p7p5---7---7-7------|
|(8)-(8)---8-7-7b--7--7p5---5----|------------------8---8----------|
|-------------------------7------|----------------------------9--7-|
|--------------------------------|---------------------------------|
|--------------------------------|---------------------------------|
|--------------------------------|---------------------------------|

 G                       B5   
|----------------------------------12------|
|---------15-------------15-15b-15b--15-12-|
|-14b-14b----14b-12-14s16------------------|
|------------------------------------------|
|------------------------------------------|
|------------------------------------------|

							3rd verse
							w/Rhy Fig 1(2 times)
 E5                             C         D             E5
|-----------------------------------------------------||-----------------|
|-----------------------------------------------------||-----------------|
|-14b-14-p12------------------------------------------||-----------------|
|------------14-14--12--------------------------------||-----------------|
|----------------------14s12p10-12-10-12b-12-10-------||-----------------|
|-----------------------------------------------12-10-||-12--------------|
							Look at the ..
 G                                 Em
 Look at the blood we're spilling  Look at the world we're killing the

 G                 D/f#
 way we're always done before


 Em               G                          G               D/F#
|-12----10-------|--------|-12-----10-------|---------------------------|
|----------10-11-|-12-----|-----------10-11-|-12-------------10---------|
|----------------|--------|-----------------|---------------------------|
|----------------|--------|-----------------|---------------------------|
|----------------|--------|-----------------|---------------------------|
|----------------|--------|-----------------|---------------------------|
					     I dont want to hear no more

					  4th verse
					  w/Rhy Figs 2 & 2A
 A5              A5#4  A5                 E5
		       My hands are tied.           For

G                                      D/F#
all I've seen has changed my mind, but still the 

E5
wars go on as the as the years go by with no 

G              D         E G F#    E5
love of God or human rights. Cause all these dreams are swept aside by
 
G                                  E5
bloody hands of the hypnotized who carry the cross of homicide.  And

G                      D
hist'ry bears the scars of our civil wars. 

					w/Rhy Fig. 2
					E5
|---------------|---------------------||---0------0---3---0------0-------|
|---------------|---------------------||-----0-3b---0-3-----0-3b---0-----|
|-7h9-----5---2-|-----2-------2-------||-2---------------------------0---|
|-7-------5---2-|---0-2-2-2-2-2-------||---------------------------------|
|-0---------0---|-0---0-0-0-0-0-------||---------------------------------|
|---------------|-----------------12s-||---------------------------------|

 G                           D/F#       E5
|-3---0-3p0-2h3p2p0----0---------------|---0----0---3--0-----0-----------|
|-3--------------------0-3p0---0-3p0---|---0-3b---0-3----0-3---0---------|
|-------------------2b-------3-------2b|(2)----------------------0-------|
|--------------------------------------|---------------------------------|
|--------------------------------------|---------------------------------|
|--------------------------------------|---------------------------------|

 G           D E G F# E5                           G
|------------------|---0------0---3--0------0-----|----------------------|
|-8--7h8p7p5-7--7s-|-----0-3b---0-3----0-3b---0---|-3----3---------------|
|-7----------------|-2--------------------------0-|-2b---2--2(2)p0-------|
|------------------|------------------------------|----------------------|
|------------------|------------------------------|----------------------|
|------------------|------------------------------|----------------------|

 E5                         G       D     A5            B/A            Am
|-0------0---3-0------0----|-------------|----------------|--------------|
|---0-3b---0-3---0-3b---0--|-8--7h8-7--7s|10-------------4|--------------|
|2------------------------0|-7--7---7--7s|9/2------------4|-------------5|
|--------------------------|-------------|--2-------------|-------------5|
|--------------------------|-------------|--0--0-0-0-0-0--|-0-0-0-0-0-0--|
|--------------------------|-------------|----------------|--------------|
|                                                                        |
|-------------|---------------||-----------------|-----------------------|
|-------------|---------------||-----------------|-----------------------|
|-------------|---------------||-----------------|-----------------------|
|-------------|---------------||-----------------|-----------------------|
|-------------|---------------||-0-0-0-0-0-0-0-0-|-0-0-0-0-0-0-0-0-0-0-0-|
|-------------|---------------||-----------------|-----------------------|

				 F/A                Am            C5                            
|------------------|----------------|-----------------|------------------|
|------------------|----------------|---------------5-|------------------|
|--------------7---|-------7-----10-|-------10------5-|-------5---5--0---|
|------------------|-------7-----10-|-------10--------|-------5---5--0---|
|-0-0-0-0-0-0------|-0-0-0-0-0-0----|-0-0-0-----0-0---|-0-0-0-----3--0---|
|------------------|----------------|-----------------|------------------|
|                                                                        |
|------------------------|-------------|---------------|-----------------|
|------------------------|-------------|---2-----------|-------5--5s3----|
|------------------------|-------------|---2---------7-|---9---5--5s4----|
|------------------------|-------------|---2-----0---7-|---7-------------|
|--0-0-0-0-0-0-0-0-0-0-0-|-0-0---0-0-0-|-0-----0---8---|-8---9-----------|
|------------------------|-----3b-3----|---------------|-----------------|

			   Rhy Fig. 4
 E5           C     D      G            B5              E5
  no no no no no no no no  no    I dont need your civil war!

       D  G           B5              E5           C    D
	       I dont need your civil war

G             B5                         E5
   Your power hungry selling soldiers in a human grocry store, aint that fresh!

					(end Rhy Fig 4) 
G              B5              B5                       C       D
	I dont need your civil war, no no no no no no no no no no ah


 Outro solo
 W/Rhy Fig 4
 G                                  B5
|-----------------------------------------|
|-----12-15----12-15----12-12-15----12-15-|
|-14b-------14-------14----------14-------|
|-----------------------------------------|
|-----------------------------------------|
|-----------------------------------------|

				   E5
|-----------------------------------------|
|-----12-15----12-15-----12-15-----15-----|
|-14b-------14-------14b-------14b----14b-|
|-----------------------------------------|
|-----------------------------------------|
|-----------------------------------------|


|-----------------------------------------------|
|----15----12-----12-15-----12-15-----12-15-----|
|-14----14----14b-------14b-------14b-------14b-|
|-----------------------------------------------|
|-----------------------------------------------|
|-----------------------------------------------|

				   G                               B5
|---------------------------------|-12-----12----------------------------|
|----15----12-15p12----12-15b-15b-|----15b----15p12----15-12-13h15p13p12-|
|-14----14----------14------------|-----------------12------------------1|
|---------------------------------|--------------------------------------|
|---------------------------------|--------------------------------------|
|---------------------------------|--------------------------------------|

				     E5
|------------------------------------15b-|-15b-15-14-15-14h15p14p12------|
|----12----------------------------------|-------------------------------|
|-15----15-14-14b-14-p12----14----12-----|-------------------------------|
|------------------------14----14--------|-------------------------------|
|----------------------------------------|-------------------------------|
|----------------------------------------|-------------------------------|

	C                  D
|-15----12h14p12----12-14b-14s-----|----20b-----20-|
|----15----------15------------s15-|-17----(20b)---|
|----------------------------------|---------------|
|----------------------------------|---------------|
|----------------------------------|---------------|
|----------------------------------|---------------|

			   E5
|-19-20-19h20p18p17-19--17-----|-----------------------------|
|--------------------------19b-|-19-17-19b--19-p17----17-15b-|
|------------------------------|-------------------16--------|
|------------------------------|-----------------------------|
|------------------------------|-----------------------------|
|------------------------------|-----------------------------|

			    G             B5                        E5
|----12-------------------|-17b--17-15-17-17-|-17--15-17-15-17b-p15-17-15|
|-15----15-12-------------|------------------|---------------------------|
|-------------14-14-12----|------------------|---------------------------|
|----------------------14-|------------------|---------------------------|
|-------------------------|------------------|---------------------------|
|-------------------------|------------------|---------------------------|

			      C           D
|-17b--15b---------------|----12-------------------||
|----------17--15h17-15b-|-15----15-12-------------||
|------------------------|-------------14----12----||
|------------------------|----------------14----14-||
|------------------------|-------------------------||
|------------------------|-------------------------||

 G
|-------------------------|-------------------|---------------------|
|-------------------------|-------------------|---------------------|
|-12--7s9s7--4--4---------|---7s9-9-----------|---7s9s5-4-4---------|
|-----------------7s9s7s5-|-----------7s9s7s5-|-5-----------7s9s7s5-|
|-----5s7s5--2--2---------|---5s7-7-----------|---5s7s5-2-2---------|
|-----------------5s7s5s3p|0----------5s7s5s3-|-3-----------5s7s5s3p|


|----------------|----------------------|-----------------|
|----------------|----------------------|-----------------|
|--7s9-----------|----7s9s7-4-4---------|--7s9s7----------|
|--------7s9s7s5-|-5------------7s9s7s5-|---------7s9s7s5-|
|--5s7-----------|----5s7s5-2-2---------|--5s7s5----------|
|0-------5s7s5s3-|-3------------5s7s5s3p|0--------5s7s5s3-|


|---------------------|------------------|-------------||
|---------------------|------------------|-------------||
|---7s9s7-4-4---------|----7s9-----------|----7s9s7-4--||
|-5-----------7s9s7s5-|----------7s9s7s5-|-5-----------||
|---5s7s5-2-2---------|----5s7-----------|----5s7s5-2--||
|-3-----------5s7s5s3p|0---------5s7s5s3-|-3-----------||

2.14 YEARS

Intro/verses

-|----------------------------------------------------------------------------
-|----------------------------------------------------------------------------
-|---x-x-5-x-x-5-x-x-3-x-x-3-x-x-1-x-x-1--------------------------------------
-|---x-x-7-x-x-7-x-x-5-x-x-5-x-x-3-x-x-3--2-----------------------------------
-|---x-x-7-x-x-7-x-x-5-x-x-5-x-x-3-x-x-3--2-----------------------------------
-|---x-x-5-x-x-5-x-x-3-x-x-3-x-x-1-x-x-1--0-----------------------------------
                                                                              
RiffA            B

-|---------------|------------------------------------------------------------
-|---------------|------------------------------------------------------------
-|-------5---7---|----------7-------------------------------------------------
-|---7---5---7---|--7---5---7-------------------------------------------------
-|---7---3---5---|--7---5---5-------------------------------------------------
-|---5-----------|--5---3-----------------------------------------------------
                                                                              
Verse after solo

-|----------------------------------------------------------------------------
-|----------------------------------------------------------------------------
-|---5---3---1----------------------------------------------------------------
-|---7---5---3---2------------------------------------------------------------
-|---7---5---3---2------------------------------------------------------------
-|---5---3---1---0------------------------------------------------------------

3.YESTERDAYS

Call this Rhythm Figure A if you want

D                                                  C               G5
               H		      H	
--------------0-2--------------------0-2-------------------2--0-------3-------
--------3--------------3-------3-----------------------3-----------3----3---3-
-----2-----2--------2-------2-----2------------0-------0-------------0----0---
--0-----------------------4-----------------0----------2----------------------
---------------------------------------------------3--------------------------
------------------------------------------------------------------------------

Cadd2             G5
X     O   O     X O O
| | | | | |   | | | | | |
| | * | | |   | | | | | |
| * | | * |   * | | | * *
| | | | | |   | | | | | |
  1 2   3     2       3 4

The song goes like this

2x Rhythm Figure A
enter lyrics (play Rythm Figure A where you see D C G5)


D                   C                    G5
Yesterday there was so many things I was never told.
D                              C          G5
Now that I'm startin' to learn I feel I'm growin' old.
D                      Cadd2                G5
'Cause yesterday's got nothin' for me.  Old pictures that I'll always see.
D                            G5
Time just fades the pages in my book of memories.

(Insert Verse 2)

Chorus (underline indicates drag out the word, 
        C5 is just power chord on 3rd fret):
A               B   C5                              G5
Ooh,____________yesterday's________ got nothin' for me.__________
A               B   C5                              G5
Yesterday's________ooh,__ __________got nothin' for me.__________

Chords for solo are (if someone wants I can post tab of how I play the solo):
Bm   G   Bm   G
Bm   C#m D    E

4.KNOCKIN' ON HEAVEN'S DOOR

G5            D                C
-3---3--------------2-0-------|-----------------0--------------------|--------
-3-----3---3------3-----3---3-|----------1--------------1------------|--------
-0-------0------2---------2---|-0------0---0----------0---0-0------0-|--------
-0------------0---------------|-0-2----------2------2-------0-2------|--------
------------------------------|--H---3-----------------------H---3---|--------
-3----------------------------|--------------------------------------|--------

This is the picking for the first line.  Again, the picking will vary
throughout the song.
G5              D                  Am
-3--------------2-------2-0-------|-0-----H-------0----------------------|
-3---3-------3--3-------3-------0-|-1----0-1-------------1---------------|
-0---0-----0----2----2-------2----|-2--2-----2---------2---2------0---0--|
-0---0-----0----0----0------------|-2----------2-----2-------0-2----2----|
----------------------------------|-0-------------------------H----------|
-3--------------------------------|--------------------------------------|


Song goes like this:

Intro:
Twice with picking      G5 D C
Twice just power chords G5 D C

Verse 1 (with picking)
G5         D               Am
Mamma take this badge from me
G5         D         C
I can't use it anymore
G5                D             Am
It's getting dark, too dark to see
G5             D                       C
Feels like I'm knockin' on heaven's door

Chorus (if you're really concerned about playing it like the
        CD, listen to it for rhythm.  But this song has been done by so
        many people so differently that you might as well give it your own
        feel.)
G5            D5                     C5
Knock, knock, knockin' on heaven's door,
C5             
Hey, hey, hey, hey, yeah
G5            D5                     C5
Knock, knock, knockin' on heaven's door,
C5
(no lyrics)
G5                 D5                     C5
Ooh, knock, knock, knockin' on heaven's door
C5
Ooh yeah
G5            D5                     C5
Knock, knock, knockin' on heaven's door
C5
Hey, hey, hey, hey, yeah

First Guitar Solo
G                  D          C
------------------------------------------------------
----^^---P---------15--^------~~~~~~~~~~~~------------
-12-14-14-12-14-------14-12-12-------------------12---
------------------------------------------13/14-------
------------------------------------------------------
------------------------------------------------------
G                     D           C        
---------------P------------P--------P------------------15----
15/17---15---13-12-13/15--13-12---13--12----------12-13----13-
-------------------------------------------~~~~~~~------------
-----------------------------------------14-------------------
--------------------------------------------------------------
--------------------------------------------------------------
G              ^^  D   ^^  ^^  C
--~~~-------15-17--17--17--17--15-----------------------------
12---15/17----------------------------------------------------
--------------------------------------------------------------
--------------------------------------------------------------
--------------------------------------------------------------
--------------------------------------------------------------
G ^^              ^^ D             C
--20-20-19-20--19-20--20-20-20---~~~~~----------------------------------
-------P-----------------------17------^^----^^-------------------------
---------------------------------------19-19-19-19-^-----^--------------
---------------------------------------------------19-19-19-19----------
---------------------------------------------------------------17--17---
------------------------------------------------------------------------


Additional lyrics:
Mama, put my guns in the ground
I can't shoot them anymore
That cold black cloud is comin' down
Feels like I'm knockin' on heaven's door

Basically there are lots of "knockin' on heaven's door"s throughout the rest




This is one of GUNS N' ROSES best song if you ask me. 
This is the tabs of the full song...this again was completed with a friend..!

P.S. Tune your guitar down half a step.


Riff 1:-used in intro and the verses.

E|--3----3----------0---------------0--------------|
B|--3-----3-3--3---3-3-----------1---1--1----------|
G|--0------0---2--2---2-----------0---0--0------0--|
D|--X----------0-------0--0h2-2----2-------0h2-2---|
A|--2---------------------0h3--------------0h3-----|
E|--3----------------------------------------------|

E|-------3-----------0-----------------------||
B|--------3-3-------3-3------1----1--1-1-----||
G|--0------0---0h2-2---2-------0---0--0-0----||
D|--x----------0--------0---2---2---2----2---||
A|--2---------------------3------3--------3--||
E|--3----------------------------------------||


Riff 2:-used in intro and the choruses.

    G     D     C     C
E|-----|-----|-----|-----|
B|-----|-----|-----|-----|
G|--4--|--7--|--5--|--5--|
D|--5--|--7--|--5--|--5--|
A|--5--|--5--|--3--|--3--|
E|--3--|-----|-----|-----|


Solo 1:

E|-------------------------------------------------------|
B|-----------------15-------------------------15/17--15--|
G|--12-14brp12-14-----14br-1212~~~---------12------------|
D|--------------------------------------/14--------------|
A|-------------------------------------------------------|
E|-------------------------------------------------------|

E|----------------------------------------15----------15-|
B|-13p12-13/15---13p12-13---12--------1213--1312---/17---|
G|-------------------------------------------------------|
D|----------------------------14-------------------------|
A|-------------------------------------------------------|
E|-------------------------------------------------------|

E|-17br17---17br17br15-------22--20192019-22--20-2020----|
B|---------------------------------------------------17--|
G|-------------------------------------------------------|
D|-------------------------------------------------------|
A|-------------------------------------------------------|
E|-------------------------------------------------------|

E|--------------------15--||
B|--15brbr----------------||
G|----------14brbr--12----||
D|------------------------||
A|------------------------||
E|------------------------||


Solo 2:

E|-------------------------------------------------------|
B|--19b~~~~~~~r-19---19brp17-19-1717----20-17--20-17br---|
G|-------------------------------------------------------|
D|-------------------------------------------------------|
A|-------------------------------------------------------|
E|-------------------------------------------------------|

E|----------------------------------------16---18b-18p16-|
B|-1517--1517--------1517---------------13--16-----------|
G|-----------------------------------/13-----------------|
D|-----17----19br1719----19br19br17----------------------|
A|-------------------------------------------------------|
E|-------------------------------------------------------|

E|-1618P161620192022b--20192022b--20192022b-22b22b-------|
B|------------------------------------------------2022b--|
G|-------------------------------------------------------|
D|-------------------------------------------------------|
A|-------------------------------------------------------|
E|-------------------------------------------------------|

E|-------------------------------------------------------|
B|--2022br-202222b-202220--20~~---2019----19br-17191717--|
G|-------------------------------------------------------|
D|-------------------------------------------------------|
A|-------------------------------------------------------|
E|-------------------------------------------------------|

E|-------------------------------------------------------|
B|-2017--17~~15~~12~~~~~~--------------------------------|
G|------------------------12~--11~---11br-9~---7---5/4---|
D|----------------------------------------------------5--|
A|-------------------------------------------------------|
E|-------------------------------------------------------|

5.GET IN THE RING

Introduction

E|---------------|-----------------------------------|----------------
B|---------------|-----------------------------------|----------------
G|---------------|-----------------------------------|----------------
D|---------------|----------------12---15---15pfbr---|----------------
A|---------------|-13~~~~~~~~-13---------------------|-15hbr---15hbr--
E|---------------|-----------------------------------|----------------

E|-----------|--------------------------------|-----------------------------
B|-----------|--------------------------------|-----------------------------
G|-----------|--------------------------------|-----------------------------
D|-----------|--------------------------------|------------------13---13pfb-
A|-13~~~~~~~~|(13)~~~~~~~~--------13-13---15--|-13~~~~~~-13---15------------
E|-----------|--------------13h15-------------|-----------------------------

E|-------------------------------|-------------------------|--------------
B|-------------------------------|-------------------------|--------------
G|---------------------17hb(17)r-|-------------------------|--------------
D|-(13)----Rb--------------------|-------------------------|--------------
A|---------------15hbr-----------|---------------15-----13-|-13~~~~-15/17-
E|-------------------------------|------------x-----13-----|--------------

E|---------------------|-----------------------------------------------
B|---------------------|----------------------15-18---18pfb�(18)---rb--
G|-------------17------|--------15~~~~~-15-----------------------------
D|-15-17-15-17------17-|-----------------------------------------------
A|---------------------|-----------------------------------------------
E|---------------------|-----------------------------------------------

E|---------------------|-----------------------------------------------
B|---------------------|-----15-18-16-15-16----15------15------15------
G|-15phbr--13-15gfb(15)|--------------------------17fb----17fb----17fb-
D|---------------------|-----------------------------------------------
A|---------------------|-----------------------------------------------
E|---------------------|-----------------------------------------------

E|------------------------------|---------------------------------------18----------
B|-15------15-------------------|----------------------15---18-----18fb----(18)rb-15
G|----17fb----17fbrp15---17-----|--15~~~~~~~~~~-------------------------------------
D|---------------------------17-|----------------17---------------------------------
A|------------------------------|---------------------------------------------------
E|------------------------------|---------------------------------------------------

E|------------|-----------------|----------------------|
B|-18----18---|-18--------------|-18-------------------|
G|-17fb--17fb-|-17--------------|-17-------------------|
D|------------|-----------------|-------------x/x\-----|
A|------------|-----------------|-------------x/x\-----|
E|------------|-----------------|-----------Pick Slide-|

E|----------------|-------------------|-----6-----------------|------------------
B|----------------|---------------9fb-|-(9)----9-6-8hbrp6---6-|---------------11-
G|----------------|-------------------|-------------------8---|-7---8---7-8-7----
D|----------------|-------------------|-----------------------|---8---8----------
A|----------------|-------------------|-----------------------|------------------
E|----------------|-------------------|-----------------------|------------------

E|---------------------------------------8fb---|-(8)---8-6---8fb---6---|-----6-----
B|-(11)~~~~~~~~~~~~~~(11)~~~~~~-(11)\8-6-------|---------------------6-|-9fb---9-6-
G|---------------------------------------------|-----------------------|-----------
D|---------------------------------------------|-----------------------|-----------
A|---------------------------------------------|-----------------------|-----------
E|---------------------------------------------|-----------------------|-----------

E|--------------||
B|--------------||
G|-8fbrp6-------||
D|--------8-8---||
A|--------------||
E|--------------||

1st Verse: Rhythm Fig1 & 1A 3 � times

E|------------------|-------------------------|----------------
B|------------------|-------------------------|----------------
G|------------------|-------------------------|----------------
D|------------------|-----------------------8-|-(8)-8---10-8---
A|-8------8--8�(8)\3|-(3)-------3---3-------6-|-(6)-6---6--6---
E|-6------6--6�(6)\1|-(1)-------1---1---------|----------------

6.SHOTGUN BLUES

Don't Know

7.BREAKDOWN

Intro (banjo, yes a BANJO!!...pretty neet):

E||--------------------|-----------------------------------|
B||--------------------|--------10----10h12----------------|
G||----------------7-7-|--9/11--------------11\9--7----9-7-|
D||--------------------|-----------------------------------|
A||--------------------|-----------------------------------|
E||--------------------|-----------------------------------|



-----------------------|-------------------------|---------------------|
-----------------------|-------------------------|---------------------|
-------------------7-9-|--9b-9----7-9-9b---9b--7-|--9------------------|
------9----------------|-------------------------|-----------------7-9-|
--10-------------------|-------------------------|---------------------|
-----------------------|-------------------------|---------------------|
**  

G 1
  ---------------------------------|--10---10-----------------|
  ---------------------10--12------|------------12------------|
  --7h9-7----9p7-9/11--------------|----------------12--------|
  -----------------------------12--|--------------------------|
  ---------------------------------|--------------------------|
  ---------------------------------|--------------------------|

  G 2
  -------------------------------|-----------------------------|
  ---------------7--10-----------|-----7-10--------------------|
  --7h9-7----9p7--------11\9--7--|--9b------9b9-7---9-7--------|
  -------------------------------|----------------9-----0------|
  -------------------------------|-----------------------------|
  -------------------------------|-----------------------------|

  G 1
  ---------------------------------------|-------------------|
  --12-12-10-------10--------------------|-------------------|
  -----------10h11----11\9-7-9b---9r-7---|--7----------------|
  -------------------------------------9-|-------------------|
  ---------------------------------------|-------------------|
  ---------------------------------------|-------------------|

  G 2
  --------------------------------|-------------------|
  -------------------7-10---------|-------------------|
  --7h9p7--7--9-7-9b------9b9-7---|--7----------------|
  ------------------------------9-|-------------------|
  --------------------------------|-------------------|
  --------------------------------|-------------------|



SOLO (Played by Slash):


E||--------10----------10----------|--10------------10------10------|
B||--13b-------10--13b-----10--13b-|------13b-12b-------13------13--|
G||--------------------------------|----------12b-------------------|
D||--------------------------------|--------------------------------|
A||--------------------------------|--------------------------------|
E||--------------------------------|--------------------------------|



--12b---12--10--12------10--12--|--13--12--13p12p10--12~---10--12--|
--------------------13----------|----------------------------------|
--------------------------------|----------------------------------|
--------------------------------|----------------------------------|
--------------------------------|----------------------------------|
--------------------------------|----------------------------------|



--13b---13--12--13--12--13p-10----|--13------10--13p10-----10--------|
-------------------------------13-|------13------------13------13b---|
----------------------------------|----------------------------------|
----------------------------------|----------------------------------|
----------------------------------|----------------------------------|
----------------------------------|----------------------------------|



--10--------13--15--15r---13--|--15p-14--15b-------15p-13--|
------13b---------------------|----------------------------|
------------------------------|----------------------------|
------------------------------|----------------------------|
------------------------------|----------------------------|
------------------------------|----------------------------|



--15--15r---13----13------13h-14--|--0--17b-------------|
---------------15-----15----------|---------------------|
----------------------------------|---------------------|
----------------------------------|---------------------|
----------------------------------|---------------------|
----------------------------------|---------------------|



------17------------------|----17------------------------|
------------15----15--17b-|--------17r---15------15--18--|
--------------------------|------------------14----------|
--------------------------|------------------------------|
--------------------------|------------------------------|
--------------------------|------------------------------|



------------------------------------|--------10--------------------------------|
--17--18p-17p15-----15--15----------|--13b-------13--10--13p12p10----13--10-10-|
----------------15----------17\-12--|-----------------------------13-----------|
------------------------------------|------------------------------------------|
------------------------------------|------------------------------------------|
------------------------------------|------------------------------------------|



------------------10--------------10-----------|
--13p10----10---------13p10----10----13p10-----|
--------13----12b-----------12b------------12b-|
-----------------------------------------------|
-----------------------------------------------|
-----------------------------------------------|



--------------------------------------|----------------------------|
--------------------------------------|--12~-----10h12-10b---10b---|
--12--12--10-----12---10--------------|--12~-----10h12-10b---10b---|
--------------12----------12p-10------|----------------------------|
----------------------------------12--|----------------------------|
--------------------------------------|----------------------------|



--------------------|------------------|------------------|------------------|
--------------------|------------------|------------------|------------------|
--------------------|------------------|------------------|------------------|
--12~---------------|------------------|------------------|------------------|
--------------------|------------------|------------------|------------------|
--------------------|------------------|------------------|------------------|




------------------|--------10--10------10--10------|
------------------|--------10--10------10--10------|
------------------|--12b-----------12b---------12b-|
------------------|--------------------------------|
------------------|--------------------------------|
------------------|--------------------------------|



--10--10------10--10------10--10--|----------------------------------|
--10--10------10--10------10--10--|------10------10------10------10--|
----------12b---------12b---------|--12b-----12b-----12b-----12b-----|
----------------------------------|----------------------------------|
----------------------------------|----------------------------------|
----------------------------------|----------------------------------|



----------------------------------|----------------------------------|
------10------10------10------10--|--10------10--10------10--10------|
--12b-----12b-----12b-----12b-----|------12b---------12b---------12b-|
----------------------------------|----------------------------------|
----------------------------------|----------------------------------|
----------------------------------|----------------------------------|



----------------------------------|--------------10------------------|
--10--10------10--10------10--10--|------10--10------10--10------10--|
----------12b---------12b---------|--12b---------------------12b-----|
----------------------------------|----------------------------------|
----------------------------------|----------------------------------|
----------------------------------|----------------------------------|



--------------------------------|--------------------------------|
--10------10--10----------------|----------------10------10--10--|
------12b---------12r---10------|--10r-----------10------10--10--|
----------------------------12--|--------12--12------12----------|
--------------------------------|--------------------------------|
--------------------------------|--------------------------------|



------------------------------|----------------------------|
------------------------------|----------------------------|
--10r-------------------------|----------------------------|
--------12--12--12----10------|--10\-9------9\-7-----7\-5--|
--------------------------12--|---------10--------9--------|
------------------------------|----------------------------|



------------------------|----------10------10--10----------|
------------------------|--11/12-------12----------12--10--|
------------------------|----------------------------------|
--3--5--3-----3b--------|----------------------------------|
-----------5-------5----|----------------------------------|
------------------------|----------------------------------|



--13b---13b---10--15--10p-0--|--------20--20----------------|
-----------------------------|--20b-----------20----18------|
-----------------------------|--------------------------19--|
-----------------------------|------------------------------|
-----------------------------|------------------------------|
-----------------------------|------------------------------|



------20b---20b---20b---15r-|--15~-------15~-------|
--18------------------------|----------------------|
----------------------------|----------------------|
----------------------------|----------------------|
----------------------------|----------------------|
----------------------------|----------------------|


--15~---15--15~-----13------|--13--15--15p13---13--13b-10------|
------------------------15--|------------------------------13b-|
----------------------------|----------------------------------|
----------------------------|----------------------------------|
----------------------------|----------------------------------|
----------------------------|----------------------------------|



--10--10------------------------|----------------------------------------------|
----------13--10--12b---10------|--13-13-13-13-13-13-13--13p10-----13----10-13-|
------------------12b-------12--|-------------------------------13----13-------|
--------------------------------|----------------------------------------------|
--------------------------------|----------------------------------------------|
--------------------------------|----------------------------------------------|



------------------13-12--12b-12p10----12-|
--12-13-12-10----------------------13----|
--------------12-------------------------|
-----------------------------------------|
-----------------------------------------|
-----------------------------------------|



------10-12-10----10------10-----10----|
---13----------13----13b------x-----12-|
---------------------------------------|
---------------------------------------|
---------------------------------------|
---------------------------------------|



--------------------------------------------|----------------------------|
--13p10----10-13-----10h13p10----10-----10--|--13--10--13--13~-------13\-|
--------13--------13----------13----12------|----------------------------|
--------------------------------------------|----------------------------|
--------------------------------------------|----------------------------|
--------------------------------------------|----------------------------|



------------------------------|----------------------------------|
------10------10--10------10--|--10------10--10------10--10------|
----------10----------10------|------10----------10----------10--|
------------------------------|----------------------------------|
------------------------------|----------------------------------|
------------------------------|----------------------------------|



----------------------------------|-----------------------------------------|
--10--10------10--10------10------|--x--------10-13--10----10-13--10h13-10--|
----------10----------10------10--|--x-----10------------x------------------|
----------------------------------|-----12----------------------------------|
----------------------------------|-----------------------------------------|
----------------------------------|-----------------------------------------|



--------------------------------------------------|
------10--13--10--13--10------10--13--10--13--10--|
--10----------------------10----------------------|
--------------------------------------------------|
--------------------------------------------------|
--------------------------------------------------|



--------------------------------------------------|
------10--13--10--13--10------10--13--10--13--10--|
--10----------------------10----------------------|
--------------------------------------------------|
--------------------------------------------------|
--------------------------------------------------|



--------------------------------|------------------------|
------10------------------------|------------------------|
--10------12--10--12r--12r--10--|--12~-----------10--12b-|
--------------------------------|------------------------|
--------------------------------|------------------------|
--------------------------------|------------------------|



------------------------------|--------------------------|
------10--13------------------|--12----10--12b-----10----|
--------------12b-12--10--12--|--12----10--12b-----10----|
------------------------------|--------------------------|
------------------------------|--------------------------|
------------------------------|--------------------------|



---------------------------|--------------------------|
--12r---10------10---------|--12b-----10--------------|
------------12--10---------|--12b-----10------12p-10--|
----------------------x----|--------------------------|
---------------------------|--------------------------|
---------------------------|--------------------------|



----------------------------|----------------------------------|
--12r---10------10----12----|--12/-13--13--13--12/-13--13--12/-|
------------12--10----12----|--13/-14--14--14--13/-14--14--13/-|
----------------------------|----------------------------------|
----------------------------|----------------------------------|
----------------------------|----------------------------------|



----------------------------------|----------------------------------|
--13--13--12/-13--13--12/-13--13--|--12/-13--13--12/-13--13--13--12/-|
--14--14--13/-14--14--13/-14--14--|--13/-14--14--13/-14--14--14--13/-|
----------------------------------|----------------------------------|
----------------------------------|----------------------------------|
----------------------------------|----------------------------------|



----------------------------------|-----------------------------|
--13--13--12/-13--13--12/-13--13--|--12/-13--13--12/-13\--------|
--14--14--13/-14--14--13/-14--14--|--13/-14--14--13/-14\--------|
----------------------------------|-----------------------------|
----------------------------------|--------------------------5\-|
----------------------------------|-----------------------------|

8.PRETTY TIED UP

Riff A: (0:23)
eb|---------------------------|
Bb|-----15---15------15---15x-|
Gb|--14---------14------------|
Db|---------------------------|
Ab|---------------------------|
Eb|---------------------------|

Riff B: (1:26)
eb|--2------------------------|
Bb|------3---1---3~~~~~~~~b4--|
Gb|---------------------------|
Db|---------------------------|
Ab|---------------------------|
Eb|---------------------------|

Intro:
eb|---------------------------|
Bb|------2-3-5-3-2-2h3-2------|
Gb|--0h3-----------------3-2--|
Db|---------------------------|
Ab|---------------------------|
Eb|---------------------------|

Repeat as many times needed:
(this is played before and after the drums start)
eb|----------------------------------|
Bb|----------------------------------|
Gb|--2---0-2---0-2-0-2--0-2-2h3p2-0--|
Db|--0---0-0---0-0-0-0--0-0-0-----0--|
Ab|----------------------------------|
Eb|----------------------------------|

Verse:
Repeat for the first two lines.(twice for each one)
eb|----------------------------------|
Bb|----------------------------------|
Gb|--2---0-2---0-2-0-2--0-2-2h3p2-0--|
Db|--0---0-0---0-0-0-0--0-0-0-----0--|
Ab|----------------------------------|
Eb|----------------------------------|
I know this chick she lives down on Melrose
She ain't satisfied without some pain

G5              E5         D5
Friday night is goin' up inside her... again
     G5                         F#5      E5     D5
Well crack the whip 'Cause that bitch is just insane
I'm serious

Chorus:
      A5     C5   D5
She's pretty tied up Hangin' upside down
      A5     C5   D5
She's pretty tied up An you can ride her
      A5     C5   D5
She's pretty tied up Hangin' upside down
F5      G5                       D5
I can't tell you she's the right one (Oh no, oh no, oh no)

9.LOCOMOTIVE

intro
|-------------------|-------------------------|--------------------------|
|-------------------|-------------------------|--------------------------|
|-------------------|-------------------------|--------------------------|
|-------------------|-------------------------|--------------------------|
|-0-0---0-0---0-0---|-0---0-0---0-0-0---0-----|-0---0-0---0-0-0---0-0----|
|-----3-----3-----2-|---2-----2-------2---3-5-|---3-----3-------0-----2--|


|--------------------------|-------------------------|-------------------|
|--------------------------|-------------------------|-------------------|
|------------------------5-|-2-----------------------|-------------------|
|------------------------5-|-2-----------------------|-------------------|
|-0---0-0---0-0-0---0------|---0-0-0---0-0-0---0-----|0---0-0---0-0------|
|---2-----2-------2---3----|---------3-------3---0-2-|--2-----2-----3-2-0|


|-------------------|-----|-----|----------------------------------------|
|-------------------|-----|-----|----------------------------------------|
|-7h9--7h9-7---7--9-|-----|-----|-9--7h9---------------------------------|
|-7h9--7h9-7---7--9-|--s--|--s--|-9--7h9---5----5------------------------|
|-7----7---7---7--7-|-----|-----|-7--7-----5----5------------------------|
|-------------------|-----|-----|----------3----3------------------------|



One in a Million

Acoustic guitar..

[E-1]         [E-2]       [D]       [C#]       [C]
EADGBE        EADGBE     EADGBE     EADGBE     EADGBE
022100        x7990x     x5770x     x4660x     x355xx


Beginning of song..

Strum

[E-1]      (slide) [E-2]           [D]             [C#]            (play twice)
|    | |  ||||  / ||     | |   |||| ||    | |  |||| ||    | |  ||||

[C]
||   | |  |||||||||||||||
              ^
               (slow distortion comes in)

second guitar...comes in after acoustic finishes.

             
-------|----------------------------------------------------------
-------|-2-2h3p2-2-2---1-1----------------------------------------
-5-5-5-|-2-2-----2-2-2-0-0-0-0-3p0---0-0-0-0-----4-0--------------
-5-5-5-|-2-2h4p2-2-2-2-2-2-2-2-2---2-0-0-0-0---3---0--------------
-3-3-3-|---------------3-3-3-3-3---3-2-2-2-2-2-------3---3---3/5--
-------|-----------------------------3-3-----3-------1-0-1-0-1/3--
(fill)   (Main guitar riff)
           
           ^ ^                 ^ ^ ^           ^ ^   ^   ^   ^
^(accented notes)


play it over and over until you're fingers bleed    


(this is distorted guitar..light distortion)

10.SO FINE

Don't Know

11.ESTRANGED

|------------|-------13b----10-----|----------------13-----|-------------|
|----11--15b-|----11------------13-|-13--13-----13b----13b-|-13---(13)s--|
|-12---------|-12------------------|-----------------------|-------------|
|------------|---------------------|-----------------------|-------------|
|------------|---------------------|-----------------------|-------------|
|------------|---------------------|-----------------------|-------------|

 G5                                      C5
|------------------|-------13b---10-----|-------------13----|
|-----11--15b-(15)-|----11----------13b-|-13-(13)-13b----13-|
|-s12--------------|-12-----------------|-------------------|
|------------------|--------------------|-------------------|
|------------------|--------------------|-------------------|
|------------------|--------------------|-------------------|

                          Bb5             C5                G5
|------------------------||---------13----|-----------------|------------| 
|-13---13b15p11-13p11----||-11--13b----13-|-13------13--12b-|--(12)bbbb--|
|---------------------12-||---------------|-----------------|------------|
|------------------------||---------------|-----------------|------------|
|------------------------||---------------|-----------------|------------|
|------------------------||---------------|-----------------|------------|

                       Bb5                C5             G5
|---------------------|------------13----|--------------|------|---------|
|(12)-13p12--13b13p12-|-11----13b-----13-|---13--13-----|------|---------|
|---------------------|------------------|----------14b-|-(14)-|-(14)----|
|---------------------|------------------|--------------|------|---------|
|---------------------|------------------|--------------|------|---------|
|---------------------|------------------|--------------|------|---------|

                      Riff A
 Eb5  F5              G5                   C5           Eb5   F5
|----|--------------||----------------------|------------------------|
|-11-|-(11)---(11)s-||----------13s15-(15)s-|-------13s15-(15)-13p12-|
|----|--------------||-------12-------------|----12------------------|
|----|--------------||----12----------------|-10---------------------|
|----|--------------||-10-------------------|------------------------|
|----|--------------||----------------------|------------------------|

 G5			              Eb5  F5     G5
|-----------------------|------------------------|-----------------------|
|-13p12------(15)-(15)s-|-------13s15-(15)-13p12-|-13p12--------15-(15)--|
|-------12--------------|----12------------------|-------12--------------|
|----------12-----------|-10---------------------|----------12-----------|
|-----------------------|------------------------|-----------------------|
|-----------------------|------------------------|-----------------------|

		(end Riff A)
 Eb5 F5  G5     Eb5   F5      Gm   F      Eb     G
|-------|------|------------||----|------|------|------|---------15--17b-|
|-15s13-|-13b--|-11---11p10-||----|------|------|------|-----------------|
|-------|------|------------||-12-|-(12)-|-(12)-|-(12)-|-(12)------------|
|-------|------|------------||----|------|------|------|-----------------|
|-------|------|------------||----|------|------|------|-----------------|
|-------|------|------------||----|------|------|------|-----------------|

 F      Eb                           G5  F5           G5
|-(17)-|---------------------|----------|------------|-------------------|
|------|-s13--11-10---11br10s|8------8--|------------|-------------------|
|------|---------------------|----------|-10b---(10)-|-(10)--------------|
|------|---------------------|----------|------------|-------------------|
|------|---------------------|----------|------------|-------------------|
|------|---------------------|----------|------------|-------------------|


F5                                   G5 
And what more could you ask from me?    

F5
How could you say that I never need-

G5          Eb5                   D5   
-ed you_    when you took everything 

F5
said you took everything from me?

 w/Riff A
 G5           C5  Eb5    F5  G5             C5   Eb5     F5 G5   Eb5 F5
|------------|--------------|--------------|---------------|----|--------|
|------------|--------------|--------------|---------------|----|--------|
|------------|--------------|--------------|---------------|----|--------|
|------------|----1-1-1-1-3-|--5-----------|-----1-1-1-1-3-|-5--|--(5)---|
|-----5--6-5-|-3------------|------5---6-5-|--3------------|----|--------|
|-3----------|--------------|--------------|---------------|----|--------|

 G5    Eb5   Gm    F      Eb     Gm                     F
|-----|-----||-----|------|------|------|-----15--15s17-|-18----18s20-|
|-----|-----||-----|------|------|------|---------------|-------------|
|-----|-----||-12--|-(12)-|-(12)-|-(12)-|-(12)----------|-------------|
|-(5)-|-(5)-||-----|------|------|------|---------------|-------------|
|-----|-----||-----|------|------|------|---------------|-------------|
|-----|-----||-----|------|------|------|---------------|-------------|

 Eb                     Gm     Gm7                C
|-(20)---18--17-18--15-|-15--||-(15)-----|-(15)--|-------------|--------||
|----------------------|-----||----------|-------|-------------|--------||
|----------------------|-----||----------|-------|-------------|----12b-||
|----------------------|-----||----------|-------|-------------|--------||
|----------------------|-----||-------10-|-(10)--|-(10)--10-s3-|-(3)----||
|----------------------|-----||----------|-------|-------------|--------||

 G5                                C5
|-------------|-------13b--10-----|---------------13----|
|----11--15b--|----11---------13b-|-13--(13)-13b-----13-|
|-12----------|-12----------------|---------------------|
|-------------|-------------------|---------------------|
|-------------|-------------------|---------------------|
|-------------|-------------------|---------------------|

                                  Bb5               C5
|-----------13------------------||-----------13----|---------------------|
|-13----13b-----13br(13)p11-----||-11---13b-----13-|-(13)---13---12b-----|
|----------------------------12-||-----------------|---------------------|
|-------------------------------||-----------------|---------------------|
|-------------------------------||-----------------|---------------------|
|-------------------------------||-----------------|---------------------|

 G5			      Bb5               C5
|----------|-----------------|------------13---|------------13--15-------|
|-(12)-----|-------13p12--12-|-11----13b----13-|--13---13b---------------|
|-------14b|-(14)------------|-----------------|-------------------------|
|----------|-----------------|-----------------|-------------------------|
|----------|-----------------|-----------------|-------------------------|
|----------|-----------------|-----------------|-------------------------|

 G5		       C5
|-(15)-|-(15)---13p12-|-----|------||
|------|--------------|-13--|--13--||
|------|--------------|-----|------||
|------|--------------|-----|------||
|------|--------------|-----|------||
|------|--------------|-----|------||

 C5           Eb5                    C5            Eb5
|------------|----------------------|-------------|----------------------|
|------------|----------4---4p3-----|-3-----------|---------4--4p3-4p3---|
|-----5------|--------3---------5p3-|-----5-------|-------3-----------5p3|
|---5--------|----3h5---------------|---5---------|---3h5----------------|
|-3------3-5-|-6--------------------|---------3-5-|-6--------------------|
|------------|----------------------|-------------|----------------------|

 C5           Eb5                   Bb      F              C
|------------|---------------------|----|--|-1------------|-0------------|
|-3----------|-----------4--3------|-3--|--|-1------------|-1--------1---|
|-----5------|--------3-------5--3-|----|--|-2---------2--|-0------0-----|
|---5--------|---3--5--------------|----|--|-3-------3----|-2----2-------|
|--------3-5-|-6-------------------|----|--|-3-----3------|-3--3---------|
|------------|---------------------|----|--|-1---1--------|--------------|

 G             Bb   C     Bb    C     Bb    F             G/F
|-------------|----|-----|-----|--0--|-----|-------------|---------------|
|-3-----------|-3--|--1--|--3--|--1--|--3--|--1----------|-3-------------|
|-0---------0-|-3--|--0--|--3--|--0--|--3--|--2--------2-|-0--------0----|
|-0-------0---|-3--|--2--|--3--|--2--|--3--|--3------3---|-0------0------|
|-2-----2-----|-1--|--3--|--1--|--3--|--1--|--3----3-----|-2----2--------|
|-3---3-------|----|-----|-----|-----|-----|--1--1-------|-3--3----------|

 Bb/F          F               C            G              Bb/F
|------------|---------------|-------------|--------------|----|
|-3--------3-|-1---------1---|-1---------1-|-3------------|-1--|
|-3------3---|-2-------2---0-|-0-------0---|-0--------0-0-|-3--|
|-3----3-----|-3-----3-------|-2-----2-----|-0------0-----|-3--|
|-1--1-------|-3---3---------|-3---3-------|-2----2-------|-3--|
|------------|-1-------------|-------------|-3--3---------|-1--|

 			   C    G           F
|-------------------------|-0--|-----------|---------|
|-------------------------|-1--|-----------|---------|
|-------------------------|-0--|-----------|---------|
|-------3-------------3---|-2--|-----------|---------|
|-------------------------|-3--|-----------|---------|
|-1--1----1--1--1--1----1-|----|-----------|---------|

                           C			       G
|-------------------------|-0--|-----------|-0--------|------------------|
|-------------------------|-0--|--1--1-----|-1--------|-3----------------|
|-------------------------|-0--|--0-----0--|-0------0-|-0--------0-------|
|-------3-------------3---|-2--|--2--------|-2----2---|-0------0---------|
|-------------------------|-3--|--3--------|-3--3-----|-2----2-----------|
|-1--1----1--1--1--1----1-|----|-----------|----------|-3--3-------------|

 F            C            G             F             C
|------------|--0--------|-------------|-------------|--0----------------|
|-1--------1-|--1--------|--3----------|--1--------1-|--1--------1-------|
|-2------2---|--0------0-|--0--------0-|--2------2---|--0------0---------|
|-3----3-----|--2----2---|--0------0---|--3----3-----|--2----2-----------|
|-3--3-------|--3--3-----|--2----2-----|--3--3-------|--3--3-------------|
|-1----------|-----------|--3--3-------|--1----------|-------------------|

  G   F     C              G            F            C
|--------|--0-----------|-------------|------------|-0-------------------|
|-3---1--|--1---------1-|--3----------|-1--------1-|-1---------1---------|
|-0---2--|--0-------0---|--0--------0-|-2------2---|-0-------0-----------|
|-0---3--|--2-----2-----|--0------0---|-3----3-----|-2-----2-------------|
|-2---3--|--3---3-------|--2----2-----|-3--3-------|-3---3---------------|
|-3---1--|--------------|--3--3-------|-1----------|---------------------|

 G             F            C           G   F
|------------|------------|-----------|-------||
|-3----------|-1--------1-|-1-------1-|-3---1-||
|-0--------0-|-2------2---|-0-----0---|-0---2-||
|-0------0---|-3----3-----|-2---2-----|-0---3-||
|-2----2-----|-3--3-------|-3-3-------|-2---3-||
|-3--3-------|-1----------|-0---------|-3---1-||

 Guitar solo
 C                           Am
|---------------------------|---------------------------|
|---------------------------|---------------------------|
|-5----------------5h7p5----|-------------------5h7p5---|
|-------------5h7--------(7)|--------------5h7-------(7)|
|---------------------------|---------------------------|
|---------------------------|---------------------------|

 C			      F
|---------------------------|------------------------------|
|-8-------------------------|----------------------------6-|
|-----7b---7--5h7p5s4-5p4---|------------------------5s7---|
|-------------------------5-|--5b-3-5---3--5--3--5s7-------|
|---------------------------|---------5--------------------|
|---------------------------|------------------------------|

 					C
|-----6---6------8-8-8-----8-----8----|-------------------------------|
|-6s8---8---8s10-------11b---11b---11b|-11----------------------------|
|-------------------------------------|------------------17h19p17-----|
|-------------------------------------|------------17h19---------(19)-|
|-------------------------------------|-------------------------------|
|-------------------------------------|-------------------------------|

		      F5
|------------------------------------||
|15b-15-p13--15b--15b-15-13--13-15-13||
|----------14---14---------14--------||
|------------------------------------||
|------------------------------------||
|------------------------------------||

 Guitar solo II
 C5                              G5
|------18----------18-----------|----18----------18----------------------|
|-18b-----18----18----18--16----|-18b---18----18----18--16---------------|
|----------------------------17-|--------------------------17------------|
|-------------------------------|----------------------------------------|
|-------------------------------|----------------------------------------|
|-------------------------------|----------------------------------------|

 F5                          C5        G5            C5
|---------------------------|----------------------|---------------------|
|-15--15--------------------|----------------------|---------------------|
|--------17----15-----------|----------------------|--------15-----------|
|------------------17-15-13-|-----15b-----------13-|(13)--15b-15b-13-15b-|
|---------------------------|-15----------13h15----|---------------------|
|---------------------------|----------15----------|---------------------|

 G5
|---------------------------------------15---|
|---------------------15h16p15--15-16-18--18-|
|------15-17-17--15-17--------17-------------|
|-15-17--------17----------------------------|
|--------------------------------------------|
|--------------------------------------------|

 F5
|-18--15h18p15--15---------------------|---------------------------------|
|---18--------15---18b--18--16--16-----|---------------------------------|
|-----------------------------17--17p15|-17-17-15--15--------------------|
|--------------------------------------|---------17--17-15-13-15-13----15|
|--------------------------------------|---------------------------15-13-|
|--------------------------------------|---------------------------------|

 C5
|------------|-----------------------------|----------------------------||
|------------|-----------------------------|----------------------13----||
|------------|-----------------------------|-------------------12-------||
|-(15)-------|-(15)------------------------|----------------14----------||
|------------|-----------------------------|-------------15-------------||
|------------|-----------------------------|----------------------------||

 G               F             C
|--------------|-------------|---------10s12-----|
|-12--------12-|-10-------10-|-8-----------------|
|-12------12---|-10-----10---|-9-----------------|
|-12----12-----|-10---10-----|-10----------------|
|-10--10-------|-8---8-------|-------------------|
|--------------|-------------|-------------------|

 G                 F            C                G5 
|--10------------|------------|-0------------|-0--||
|----------13s15-|--10--13s15-|-1s13---------|-1--||
|-------12-------|------------|-0------------|-0--||
|-----10---------|------------|-2------------|-2--||
|----------------|------------|-3----0-------|-3--||
|----------------|------------|---------3--0-|----||
						
 A5               G5	             F5           G5
 I knew the storm was getting clo-        er

 A5                G5               F5             G5
 And all my friends said I was high._________     

 A5            G5             F5         G5 A5     G5            F5      E
 But evrything we've ever known's here.     I never wanted it to die


 D5  C5   F    	       C
|---|---|-1---|-(1)--|-0-||
|---|---|-1---|-(1)--|-1-||
|---|---|-2---|-(2)--|-0-||
|---|---|-3---|-(3)--|-2-||
|---|---|-3---|-(3)--|-3-||
|---|---|-1---|-(1)--|---||

12.YOU COULD BE MINE

------...                                |                               |
------...                                |                               | 
------...                                |                               |    
------...                                |                               |
------...                                |                               |
--12-12-12-12-12-12-12-12-9-9-9-9-9-9-7-7|7-7-7-7-7-7-7-7-5-5-4-4-3-3-3-3|

----14---    Then do some funky feedback with -------------
----14---                                     -------------
----14---                                     ------2------
---------                                     ------2------ 
---------                                     -------------
---------                                     -------------

1/4B     p                                 1/2    p
-------------------------------------------------------------------3-----------------
4-----4-----2------------2---------------2-----2-----0-------------3-----------------
4-----4-----2------------2---------------2-----2-----0-------------------------------
-------------------4-----2-----------------------------------2-----------------------
-------------------------------------------------------------------------------------
-------------------------------------------------------------------------------------
|------Lick 1----------------|          |------Lick 2----------------|

from now on play lick 1 with 1/2 bend.  Note:when playing the bends make sure that you
bend both notes.

repeat lick 1 twice    repeat lick 2 twice

repeat lick 1 twice    repeat lick 2 once

-----3--
-----3--
--2-----
--------   (then repeat this 5 times)
--------
--------


Now we have about 4 measures of powerchords ect.
Listen to the song to see how the timing goes(That goes for this whole work)
-----------
-----------
-----------7------9
-----9-----9------9
-----7-----7------7

Then the main riff that is used through out the chorus and verses is this:

--------------------------------------------------------------------------------------
--------------------------------------------------------------------------------------
---2--4--2--4--2------------------------------------2--4--2--4--2---------------------
---2--4--2--4--2--4--2---------------4--2--4--2--4--2--4--2--2--2--4--2---------------
------------------4--2--4------------4--2--4--2--4-----------------4--2--4------------
------------------------2------------------------------------------------2------------
A couple people wanted the solo so here it is:

Solo:You could be mine
another reason to cry---            1/2    1/2 hold---|         
---------------------------------------------------------------------------
-------------------------------9-----9-----9--------9--(9)p7---9--7--------
-------------------------------9-----9-----9--------9--(9)p7---9--7--------
------------------------(9)-9-----9---------------------------------9--7--9~~
---------------------------------------------------------------------------
---------------------------------------------------------------------------
                       1/2
---------------------------------------------------------------------------
---7--9--9--9--7--9-----9--------------------7-----------------------------
---7--9--9--9--7--9--7--9----------7h9--9----7--9p7s6---7--6--7--6h7p6----6
---------------------7--------------------7-----------------------------9--
---------------------------------------------------------------------------
---------------------------------------------------------------------------
                            1/2 1/2~~           1/2     1/2 2(1/2)       F~~
---------------------------------------------------------------------------
---------------------------------------------------------------------------
--6----------------------------------------------------------------------10
9----9--9--7-----9---7------------------------7-----------------------9----
--------------9----9---9--8--8---7----(7)p5---7--5-------------------------
--------------------------------------------7-------7--7--10--7---(7)s-----
                1/2
10------7-------10---x--------10--9h10p9p7-----9-----7h9p7------10-------10
10~~~~~~--10p7-------x--10p7---------------10----10---------10-----8s12----
---------------------------------------------------------------------------
---------------------------------------------------------------------------
---------------------------------------------------------------------------
---------------------------------------------------------------------------
        F(ull)
--------12-----10--------14-------------17~~~-14--17------------------14---
12--10------------12--10-----17--14------------------14--17---17~~~~~~---17
-------------------------------------16------------------------------------
---------------------------------------------------------------------------
---------------------------------------------------------------------------
---------------------------------------------------------------------------
                                                          F        F     F
----17--14-----------------14-------17-----17---14--17----17------17----17-
-14--------17p14--17~~~~~-----17p14----14--------------14------------------
---------------------------------------------------------------------------
---------------------------------------------------------------------------
---------------------------------------------------------------------------
---------------------------------------------------------------------------
1/2                      While you're breakin down my       back an' I been
---------------------------------------------------------------------------
17------16-----------------------------------------------------------------
------------16--14------------------------14s16-------------16~~~~~~~~~~~~~
--------------------16p15p14--122--14--12----------------------------------
---------------------------------------------------------------------------
---------------------------------------------------------------------------





 matter how we maek it cause it always
---------------------------------------------------------------------------
--7------------------------------------------------------------------------
--7------------------------------------------------------------------------
--7-----------------------------7(harmonic)--------------------------------
--5------------------------------------------------------------------------
---------------------------------------------------------------------------
I     said    you                              could       be
---------------------------------------------------------------------------
-------------------------10-------------------------10---------------------
9s11--11s14---11-----11------11----------------11-------11-----------------
---------------------------------9(full)p7---------------------------------
7s9---9s12----------------------------------9---------------------9--9-----
---------------------------------------------------------------------------
you                               should  be         you
---------------------------------------------------------------------------
--------------10------------------------------------------10---------------
--------11---------11---11----------------------------11------11------11---
-----------------------------9---------------------------------------------
9--9----------------------------9----------------------------------9------9
---------------------------------------------------------------------------
could              be                   mine
---------------------------------------------------------------------------
-------14--16--14--16--14--------------------------------------------------
--11---14--16--14--16--14--------------------------------------------------
-----------------------------16----14--16~~~~~~----------------------------
---------------------------------------------------------------------------
---------------------------------------------------------------------------

13.DON'T CRY

Intro: Clean Electric
         Am            Dm            G
|-----|--------0-------------1---------------3-----------------------|
|-----|----------1---------3---3---------------3---------------------|
|-----|------2-----2-----2-------2---------0-----0-------0-----0-----|
|-----|----2---------0-0-----------------0-------------0-----0-------|
|-----|--0-------------------------0---2-----------0-3-----2-----3-2-|
|--3--|------------------------------3-------------------------------|

  Am            Dm            G
|-------0-------------1--------------------------|
|---------1---------3---3------------------------|
|-----2-----2-----2-------2---------0------------|
|---2---------0-0-----------------0-----------2--|
|-0-------------------------0---2-------------0--|
|-----------------------------3---------2-3-4----|

Verse: Clean Electric
 Rhy. Fig. 1                                     End Rhy. Fig. 1
  Am            Dm            G                 *
|-------0-------------1---------------3-------|-----------------|
|---------1---------3---3---------------3-----|-----------------|
|-----2-----2-----2-------2---------0-----0---|-----0-----0-----|
|---2---------0-0-----------------0-----------|---0-----0-------|
|-0-------------------------0---2-----------0-|-3-----2-----3-2-|
|-----------------------------3---------------|-----------------|

* Last time before 2nd and 3rd chorus replace
  remainder of Rhy. Fig. 1 with Rhy. Fill 1.

 Rhy. Fill 1          End Rhy. Fill 1
  C       G/B     Am      G
|----------------------------------|
|-------1-------3-------1----------|
|-----0-------0-------2---------0--|
|---2-------0-------2---------0----|
|-3-------2-------0---------2------|
|-------------------------3--------|


 (w/Rhy. Fig. 1)
 Talk to me softly
 There's something in your eyes
 Don't hang your head in sorrow
 And please don't cry
 I know how you feel inside I've
 I've been there before
 Somethin's changin' inside you
 And Don't you know


Chorus: Clean Electric
   F                    G           Am
|----------------------------------------|------------------0--|--------------------|
|--1-------1-----1----------3-3----------|--------0-h-1--------|--1-----0-h-1-------|
|--0-h-2---0-h-2-0-h-2------0-0----------|------2-------2------|----2---------2-p-0-|
|--3-------3-----3--------0--------------|----2-----------2----|------2-------------|
|----------------------------------------|--0------------------|--------------------|
|-----------------------3----------------|---------------------|--------------------|

   F           G           Am                            F           G
|--------1--------------|------------0--0--------------|------1-----------3---|
|------1---1-------3----|------0----------3--3-1-------|----1---1-----3-3---3-|
|----2-------2---0------|----2-----2-------------2-----|--2-------2---0-------|
|--3-----------0-----0--|--------2-----------------2---|--3-----------0-------|
|-----------------------|--0---------------------------|----------------------|
|-----------------------|------------------------------|----------------------|

   C**     G/B     Am      G           F        G           Am
|-----------------------------------|------1--------3-------|--0-------|
|--------1-------1-------1----------|----1---1--3-3---3-----|--1-------|
|------0-------0-------2---------0--|--2--------0-----------|--2----2--|
|----2-------0-------2---------0----|--3--------0-----------|--2--2----|
|--3-------2-------0---------2------|-----------------------|--0-------|
|--------------------------3--------|-----------------------|----------|

Repeat Verse w/Additional Lyrics: Verse: 2
Repeat Chorus w/Rhy. Fill 2 at **

Rhy. Fill 2                  End Rhy. Fill 2
  C5   G5      A5   G5      F5   G5   A5
|-----------|------------|-----------------|
|-----------|------------|-----------------|
|--5--------|------------|-----------------|
|--5----5---|---7----5---|---3----5----7---|
|--3----5---|---7----5---|---3----5----7---|
|-------3---|---5----3---|---1----3----5---|

Chord progression over the solo:
 D5      F5      | G5      A5G5    | F5      G5      | A5            G5|
 / . / . / . / . | / . / . / . / . | / . / . / . / . | / . / . / . / . |

 F5      G5      | E5      F5      | F5      G5      | A5
 / . / . / . / . | / . / . / . / . | / . / . / . / . | /...............|

 Solo:
|---------------------------------------------------------------------|
|--------------------------------------------------8~~-----------8-8--|
|------------7^rp5--7-(7)~~~--r7p5--7^-------r7p5--7^-----r7----5^\/\-|
|-7~~~~~~~~~----------------------------------------------------------|
|---------------------------------------------------------------------|
|---------------------------------------------------------------------|

|---------------------------------------------------------------------|
|-----------------------------------------13^(2 steps)--13^(1/4 step)-|
|-7/9-9/10--------------------------12h14-----------------------------|
|--------------------------10h12-12/14--------------------------------|
|-5/7--7/8--8h10-10/12------------------------------------------------|
|---------------------------------------------------------------------|

|--------------------------------------------------------------------------|
|--------------------------------------------------------------------------|
|-14~~~----------------12--------------------------------------------------|
|-----------14-13h14p13p12-13p12-10-12p10---------10^----------------------|
|----------------------------------------------------12p10---12p10-12-(12)-|
|--------------------------------------------------------------------------|

|-----15-15-15-------------15-15-----------------------------------------------|
|-15^----------r15p13--15^-------r15--13-12---------12/15-13-12-13-------------|
|---------------------------------------------------------13-------------14----|
|-------------------------------------------------------------14------------15-|
|------------------------------------------------------------------------------|
|------------------------------------------------------------------------------|

|-13----------------------------------------------5-----------------------------|
|----13--15^--15~~~--r15p13--8^-----8-5--------x-x--8---------------5^r^(5)r--5-|
|-----------------------------------------------------r7p5--x-x--7^--(7)-----r7-|
|-------------------------------------------------------------------------------|
|-------------------------------------------------------------------------------|
|-------------------------------------------------------------------------------|

Verse:
                                                trem. bar
      Feedback---------------------------------------|  Harm
                                             \\\\\3.5   8va
|---------------------------------|---------------------------------|
|---------5-b-6---------r-5-b-6---|-------r-5-----------5-----------|
|-(7)-----------------------------|---------------------------------|
|---------------------------------|---------------------------------|
|---------------------------------|---------------------------------|
|---------------------------------|---------------------------------|
    and please remem-ber             that  I never  lied


Chorus 3: Lead Part

 Double regular chorus with power chords, or 5 (ie: F5, G5, A5, etc) 

F G Am                                                  F    G
|--12~~~--12--12--12--12-------------------------------|-------------------|------------|
|-------------------------13---------------------------|--15-p-13----------|------------|
|------------------------------------------------------|-----------14~~~~--|------------|
|------------------------------------------------------|-------------------|------------|
|------------------------------------------------------|-------------------|------------|
|------------------------------------------------------|-------------------|------------|

   Am                                    F      G
|--15b-------r15--15--------------------------------------|-------------------|-------------|
|---------------------17--15------------------------------|--15--p--13~~~~~~--|--15--13--15-|
|---------------------------------------------------------|-------------------|-------------|
|---------------------------------------------------------|-------------------|-------------|
|---------------------------------------------------------|-------------------|-------------|
|---------------------------------------------------------|-------------------|-------------|

   C     G/B    Am     G          F
|------------------------------|------------------------------|
|--15----15-----12-----12------|------------------------------|
|------------------------------|--14~~~~~~--------------------|
|------------------------------|------------------------------|
|------------------------------|------------------------------|
|------------------------------|------------------------------|

Outro Chorus: Distorted Guitar

 F5            G5
 And don't you cry...

 F5             G5
 Don't you ever cry...

 F5        G5    ***     (E5) (F5)
 Don't you cry tonight... baby maybe someday...

 F5        G5
 Don't you cry...

 F5             G5
 Don't you ever cry...

 F5        G5     C5       
 Don't you cry... TONIGHT... ****


*** Fill in with Rhy. Fill 3

  Rhy. Fill 3                           End Rhy. Fill 3
    E5                         F5 
E|--------------------------|--------------------------|
B|--------------------------|--------------------------|
G|--------------------------|--------------------------|
D|--2--2--2--2--2--2--2--2--|--3--3--3--3--3--3--3--3--|
A|--2--2--2--2--2--2--2--2--|--3--3--3--3--3--3--3--3--|
E|--0--0--0--0--0--0--0--0--|--1--1--1--1--1--1--1--1--|
                baby...        maybe...    someday...

**** Play Riff 1

  Riff 1
E|-12--12--------------------------12--12----------13--------------|
B|---------13------13------13--------------13----------------sl----|
G|---------------------------------------------------------12-/14--|
D|-----------------------------------------------------------------|
A|-----------------------------------------------------------------|
E|-----------------------------------------------------------------|

E|-13--------------12----------10----------8-----------------------|
B|-----------------------------------------------------------------|
G|---------12--------------10----------9---------5h7-------5-------|
D|-----------------------------------------------------------------|
A|-----------------------------------------------------------------|
E|-----------------------------------------------------------------|

E|-----------------------------------------------------------------|
B|-----------------------------------------------------------------|
G|---------5-------------------------------------------------------|
D|-5-h-7-----------------------------------------------------------|
A|---------------6h7-----------------------------------------------|
E|-----------------------------------------------------------------| End Riff 1

14.MY WORLD

Don't Know

ENJOY!!!
1 comment total.
0 reply
master of music wrote on April 21 2006, 04:04 pm

You didnt figure any of these out u jus used other peoples into 1 album the songs ppl havnt figured out u cant figure out so u writ Dont no
thats all u did on all of them u dick
GET A LIFE U CON ARTIST

I want to post or [tab]
guest
You may want to rate the tab now too:
select rating
Please do not post tabs as comments. Select "correction" instead!