Oops, an error
Loading. Please wait.

Use Your Illusion 2 Tab

ver2
ver2

Album

More versions @911Tabs.com
18,961 views 22 this week
2 commentsread comments
1 2 3 4 5
excellent!
x 8
add to favorites launch autoscroll
font size
0
reset
Autoscroll
+/-
esc
set tempo
stop
WARNING: You are trying to view
                                    content from Ultimate-Guitar.com
                                    in an unauthorized application,
                                    which is prohibited.

                                    Please use an official Ultimate
                                    Guitar Tabs application for iPhone,
                                    iPad or Android to access legitimate
                                    chords, guitar, bass, and drum tabs
                                    from Ultimate-Guitar.com database.

                                    Type "ultimate guitar tabs" in Apple
                                    App Store's or Android Market's
                                    search to find the application.
Guns n roses
Civil War

Tuning-half step down

Intro g1 (acous.)
    Em                                   G
E|--------------------------------------------------------------------|
B|--------------------------------------------------------------------|
G|----------0--------------0---------------------0---------------0----|
d|------2-----2---2-----2----2-------0-------0-----0---0-----0-----0--|
a|----2---2-----2-----2---2----0h(2)-------2---2-----2-----2---2------|
e|--0---------------0--------------------3---------------3------------|
              Em                                    G
E|--------------------------------------------------------------------|
B|--------------------------------------------------------------------|
G|--------------------0---------------0---------------------0---------|
d|--------0-------2-----2---2-----2-----2-------0-------0-----0-------|
a|--0h(2)-------2---2-----2-----2---2-----0h(2)-------2---2-----0h(2)-|
e|------------0---------------0---------------------3-----------------|

       D/F#
E|----------------------|
B|----------------------|
G|-------------2-0---0--|
d|--0------0-------2----|
a|-------0---0----------|
e|-----2----------------| end intro

Riff A
(g1 play intro)
g2 (elec. w/slight dirty tone)
    Em                       G           Em                       G
E|--12-------10--------------------------12-------10------------------|
B|-------------------10--11--12--------x------------------10--11--12--|
G|--------------------------------------------------------------------|
d|--------------------------------------------------------------------|
a|--------------------------------------------------------------------|
e|--------------------------------------------------------------------|

    D/F#             Let ring.........................................
E|--------------------------------------------------------------------|
B|--10--\-(8)\(7)\(5)-------------------------------------------------|
G|--------------------------------------------------------------------|
d|--------------------------------------------------------------------|
a|--------------------------------------------------------------------|
e|--------------------------------------------------------------------|
                                                            end Riff A

1st verse
(g1 repeats intro)
   "look at your..."   "look at your..."    "look at your..."
    Em                  G                    Em
E|-------------------|--------------------|---------------------------|
B|-------------------|--------------------|---------------------------|
G|-------------------|--------------------|---------------------------|
d|-------------------|--------------------|---------------------------|
a|-------------------|--------------------|---------------------------|
e|-------------------|--------------------|---------------------------|

   "way   they  always  done before."
    G                   D'f#
E|-------------------|-----------------|
B|-------------------|-----------------|
G|-------------------|-----------------|
d|-------------------|-----------------|
a|-------------------|-----------------|
e|-------------------|-----------------|

Interlude
(g1 plays intro)
(g2 plays riff A)
g3 (acous.)
(Let ring through)
    Em                              G
E|----------0---------------0-----------------0----------------------0--|
B|------5-----5---5-----5-----5---0-------3-----3---3------3-------3----|
G|----4---4-----4-----4---4-----4-------0---0-----0------0---0---0------|
d|--5---------------5-----------------5----------------5-------4--------|
a|----------------------------------------------------------------------|
e|----------------------------------------------------------------------|

    Em                             G               D/f#           Let ring
E|-----------0---------------0-------------0---------------0----------|
B|-------0-----0---0-----0-----3-------3-----3---3-----3-----3---0----|
G|-----0---0-----0-----0---0---------0---0-----------0---0------------|
d|---2---------------2-------------5-----------5---4-----------4------|
a|--------------------------------------------------------------------|
e|--------------------------------------------------------------------|
                                                               end Interlude
2nd verse
(g1 plays intro)
   "look at the..."        "look at the..."    "look at the..."
    Em                      G                   Em
E|-----------------------|-------------------|---------------------|
B|-----------------------|-------------------|---------------------|
G|-----------------------|-------------------|---------------------|
d|-----------------------|-------------------|---------------------|
a|-----------------------|-------------------|---------------------|
e|-----------------------|-------------------|---------------------|

   "way   we've    always    done before."
    G                        D/F#
E|-----------------------|-------------------|
B|-----------------------|-------------------|
G|-----------------------|-------------------|
d|-----------------------|-------------------|
a|-----------------------|-------------------|
e|-----------------------|-------------------|

g1 and 2(w/chorus effect)                             "My hands are..."
    A7(no3)      B7add4/A          A7(no3)         D/A
E|-----------------------0-----------------3-0---0---------3-2--------|
B|------5------------------4---------------------4-------3-----3/(5)--|
G|----2---2---2------2---------2-------2---------------2--------------|
d|----------5------4---4-----4-------5---5-----5-----4----------------|
a|--0------------0-----------------0---------------0------------------|
e|--------------------------------------------------------------------|
 |  A5                             A5
 | g4(elec. w/dist.)
E|---------------------------------5----------------------------------|
B|---------------------------------5----------------------------------|
G|--2------------------------------2------------------2-2-2-2-2-2-----|
d|--2------------------------------2------------------2-2-2-2-2-2-----|
a|--0------------------------------0------------------0-0-0-0-0-0-----|
e|----------------------------------------------------------------0---|

Pre-chorus                             "the billions shift..."
g2(chorus off)                                   (bend)
    E5  let ring..                       G5        (1\2)
E|------0-----------------------------------------------|
B|------0-----------------------------------------------|
G|---------------------------------------0--------------|
d|---------------------------------------0--------------|
a|--2------------------------------------x--------------|
e|--0------------------------------------3--------3-2b--|
 |        (p.m)        (p.m)
 | g4      ....         .....
E|------------------------------------------------------|
B|------------------------------------------------------|
G|-----------------------------------0---0--------------|
d|-----------------------------2p(0)-0---0--------5-4---|
a|------2--------2---2---------2p(0)-0---x--------x-x---|
e|--0---0--0--0--0---0--0-0-0--0---------3-----0--3-2---|
                                  "love of god.."
                                             (bend,release)
    E5  let ring.................  G5    D      (1/2)
E|------0----------------------------------------------|
B|------0--------------------------3-----3--3----------|
G|---------------------------------0-----2--2----------|
d|---------------------------------0-----0--0----------|
a|--2------------------------------x-------------------|
e|--0------------------------------3-----------0-2br---|
 |        (p.m)        (p.m)
 |         ....         ....
E|---------------------------------------2--2----------|
B|------------------------------------3--3--3----------|
G|---------------------------------0--0--2--2----------|
d|----------------------------0-0--0--0--0--0----------|
a|--2---2--------2---2--------0-0--x--x--0--0----5-4---|
e|--0---0--0--0--0---0--0--0--0-0--3--3--------0-3-2---|

                                    "blood hands.."
    E5  let ring.................... G5
E|------0--------------------------------------------------|
B|-----------------------------------3---------------------|
G|------------------------------0-0--0---------------------|
d|------------------------------0-0--0---------------------|
A|-----------------------------------x---------------------|
e|--0--------------------------------3---------------------|
 |        (p.m)        (p.m)                      -1/2
 |         ....         ....                       \ /
E|---------------------------------------------------------|
B|-----------------------------------3---------------------|
G|-----------------------------------0-----0--0-(0)(0)(0)--|
d|-----------------------------------0----x----------------|
A|--2---2--------2---2--------2------x---x-----------------|
e|--0---0--0--0--0---0--0--0--0------3---------------------|
                                               push guitar neck forward
                                              w/fretting hand whileholding
                                               body of guitar w/picking hand

   (bend,release)
     (1\2)  E5 let ring.......................
E|-------------0------------------------------|
B|-------------0------------------------------|
G|--------------------------------------0--0--|
d|--------------------------------------0--0--|
A|----------2---------------------------------|
e|--3-2br-0-0---------------------------------|
 |               (p.m)         (p.m)
 |                ....         ....
E|--------------------------------------------|
B|--------------------------------------------|
G|--------------------------------------------|
d|--------------------------------------------|
A|--5-4---2----2--------2---2--------2--0--0--|
e|--3-2---0----0--0--0--0---0--0--0--0--0--0--|

    G5          D   "civil
E|--------------2--------|
B|--3-----------3--------|
G|--0-----------2--------|
d|--0---------0-0---0----|
A|--x-------2-------0-0--|
e|--3--------------------|
 |
 |
E|-----------------------|
B|--3----3------3--------|
G|--0----0------2--------|
d|--0----0------0--------|
A|--x----x------0--------|
e|--3----3---------------|end pre-chorus
  ("waaaaarrrrrrs!")
    A5 let ring.......................
E|---------------------------------------------------------------|
B|---------------------------------------------------------------|
G|--2------(2)----------------------4-4-4----2-p-0--------2------|
d|--2------(2)----------------------4-4-4----2-p-0--------2------|
A|--0------(0)-------------------------------0------------0------|
e|---------------------------------------------------------------|
 |     (p.m)        (vibrato)
 |      ....     ....      ....     ....      ....     ....
E|---------------------------------------------------------------|
B|---------------------------------------------------------------|
G|--2---------2--------4~~~------4--------5~~~------5--------7~~~|
d|--2---------2--------4~~~------4--------5~~~------5--------7~~~|
A|--0---0--0-----0--0------0--0-----0--0------0--0-----0--0------|
e|---------------------------------------------------------------|


E|-----------------------|
B|-----------------------|
G|-----------------------|
d|-----------------------|
A|-----------------------|
e|----------------5\(0)--|
 |
 |
E|-----------------------|
B|-----------------------|
G|--7-7-----8--9--9\-----|
d|--7-7--0--8--9--9\-----|
A|-----------------------|
e|-----------------------|

1st Solo
(g2 and 4 play pre-chorus)
g5 (elec. w/dist and wah            (tremolo picking while sliding upstring)
   (full) (1\2)  (1/4)  (1/2)          /\/\/\/\/\
     E5                            G5
E|-----0------0---3b-0------0--------------------------|
B|-------0-3b---0-3b---0-3b---0---8~~~-----------------|
G|--2b--------------------------0-7~~~-------------0---|
d|-------------------------------------2-/-4-/-x-\-0---|
A|-----------------------------------------------------|
e|-----------------------------------------------------|

  (full)  (1/2)   (1/4)  (1/4)
    E5                             G5                 D
E|-----0------0---3-b-0------0-------------------------------------|
B|-------0-3b---0-3-b---0-3b---0---8~~~~-8-7-h(8)p(7)--------------|
G|--2b---------------------------0-7~~~~--------------9-7---7-p(0)-|
d|--------------------------------------------------------7--------|
A|-----------------------------------------------------------------|
e|-----------------------------------------------------------------|

   (full) (1/2)   (1/4)  (1/2)
    E5                             G5
E|-----0------0---3-b-0------0----------------------------------------|
B|-------0-3b---0-3-b---0-3b---0---8--(5)/6--7-(7)/8-(9)/10--10-10----|
G|--2b---------------------------0-7--(4)/5--6-(6)/7-(8)/9---9--9/19\-|
d|--------------------------------------------------------------------|
A|--------------------------------------------------------------------|
e|--------------------------------------------------------------------|

    (full) (1/2)         (full)
     E5                            G5    D
E|------0------0---3--0------0-----------------|
B|--------0-3b---0-3----0-3b---0---8~~~~-7~~~~-|
G|(\)2b--------------------------0-7~~~~-7~~~~-|
d|---------------------------------------------|
A|---------------------------------------------|
e|---------------------------------------------| end 1st solo

Bridge
g5 "black armband when"
    G5         Gmaj7/B       Em
E|----3----------------------------------------------------------|
B|--3-3----------------------------------------------------------|
G|--0------------------------------------------------------------|
d|--0------------------------------------------------------------|
A|--x------------------------------------------------------------|
e|--3------------------------------------------------------------|
 |
 |g1
E|---------------------------------------------------------------|
B|--------3---0--------3-----0-----------------------------------|
G|----0------------0-----0--------------------------0------------|
d|------0---0----4---4-----4------2---2---2-----2-----2-------0--|
A|---------------2----------------------2-----2---2-----(0)h2----|
e|--3---------------------------0---0-------0--------------------|
   "first memories they shot..."
g2(w/clean tone)
    G5             Gmaj7/B          Em              C       D
E|---------------------------------------------------0--------0----|
B|-------------------------------------------------1---3-1--3---3--|
G|-----------------------------------------------------------------|
d|-----------------------------------------------------------------|
A|-----------------------------------------------------------------|
e|-----------------------------------------------------------------|
 |
 |
E|-----------------------------------------------------------------|
B|----------3---0----------3-----0-----------------------1------3--|
G|------0--------------0-----0------------0------------0------2----|
d|----0---0---0------4---4-----4------2-----2---2----2------0------|
A|-----------------2--------------------2-----2----3---------------|
e|--3-------------------------------0------------------------------|
   "never fell...vietnam"
g1 and 2
    G5           Gmaj7/B        Em
E|---------------------------------------------------------------|
B|--------3---0--------3-----0-----------------------------------|
G|----0------------0-----0--------------------------0------------|
d|------0---0----4---4-----4------2---2---2-----2-----2-------0--|
A|---------------2----------------------2-----2---2-----(0)h2----|
e|--3---------------------------0---0-------0--------------------|
   "Can't trust..."
    G5             Gmaj7/B
E|----------------------------------|
B|----------3---0----------3-----0--|
G|------0--------------0-----0------|
d|----0---0---0------4---4-----4----|
A|-----------------2----------------|
e|--3-------------------------------|

                 "promised land..."
g2                (w/dist.)
    Em            C/G    D/A
E|------------------------------|
B|-----------------------7-7----|
G|---------0------5-5----7-7----|
d|-------2--------5-5--0-7-7-0--|
A|-----2----------3-3--0-5-5-0--|
e|--0-------------3-3----5-5----|
 |
 |g1              (g4 takes over)
E|------------------------------|
B|-----------------------7-7----|
G|---------0------5-5----7-7----|
d|-----2------4---5-5--x-7-7-0--|
A|-------2--------3-3--x-5-5-0--|
e|--0-------------3-3--x-5-5----|

Chorus
g2 and 4
        "I don't need..."                                      "It..."
           (pm)
           ....   let ring          ....         ....
    G5           B5          E5                              G5    B5
E|--------------------------------------------------------------------|
B|--3--------------------------------------------------------3--------|
G|--0--------------------------------------------------------0--------|
d|--0------------4-----4-------------------------------------0-----4--|
A|--x------------2---2-P-0---2---2--------2---2--------2--2--x-----2--|
e|--3------3--3--------------0---0--0--0--0---0--0--0--0--0--3--------|
                                           "You're power-hungry..."
               E5         C      D        G5         B5          E5
E|--------------------------------------------------------------------|
B|------------------------5-5----7-7p(0)--3----3----------------------|
G|------------------------5-5----7-7p(0)--0----0----------------------|
d|--4-4-4-------------x-x-5-5--x-7-7p(0)--0----0-----4-----4----------|
a|--2-2-2p(0)--2---2--x-x-3-3--x-5-5p(0)--x----x--0--2---2-------2----|
e|-------------0---0----------------------3----3--------------0--0----|
                                     "I don't need..."
       ....         ....
                                 G5           B5
E|------------------------------------------------------|
B|-------------------------------3----3---3-------------|
G|-------------------------------0----0---0-------------|
d|-------------------------------0----0---0---4-----4---|
A|--2--------2---2-------2-2-2---x----x---x---2---2-p-0-|
e|--0--0--0--0---0--0--0-0-0-0---3----3---3-------------|

    E5       C        D
E|-----------------------------|
B|-----------5-5------7-7p(0)--|
G|-----------5-5------7-7p(0)--|
d|-----------5-5---0--7-7p(0)--|
A|--2--2--2--3-3---0--5-5p(0)--|
e|--0--0--0--------------------|end chorus

2nd Solo                      (Bend, strike then release)
g5 (w/wah)                        (full)
  (full) (strike then release from bend)
    G5                B5              E5
E|------------------------------------------------------------------------|
B|-------15---------------------------------------------------------------|
G|--14b-----14r-p(12)-14~~~~~-12-14-pb14r-p(12)------------------/19\-----|
d|----------------------------------------------14-14~~~~~~~~~------------|
A|------------------------------------------------------------------------|
e|------------------------------------------------------------------------|
 |Riff B                                              (p.m)
 |g2 and 4               let ring                      ...      ...
E|------------------------------------------------------------------------|
B|--3---3---3-------------------------------------------------------------|
G|--0---0---0----0--------------------------------------------------------|
d|--0---0---0----0----4-----4---------------------------------------------|
A|--x---x---x----0----2---2-----------2------------2-2-----2--2-----2-2-2-|
e|--3---3---3----0--------------------0------------0-0-0-0-0--0-0-0-0-0-0-|

  (full)
    G5          B5                        E5                       C5
E|--------------------------------------------------------------------|
B|------3---------------------3-----------------(3)/5~~~~-3-5p(3)\(1)-|
G|--2b----2p(0)-2~~~~-0-2/(4)---4\(2)p(0)-2p(0)-----------------------|
d|--------------------------------------------------------------------|
A|--------------------------------------------------------------------|
e|--------------------------------------------------------------------|
 |
 |                        let ring
E|--------------------------------------------------------------------|
B|--3--3--3-----------------------------------------------------------|
G|--0--0--0-----------------------------------------------------------|
d|--0--0--0--0--4-------------4------------------------------------5--|
A|--x--x--x--0--2----------2--------------2-----------2-----2------3--|
e|--3--3--3-------------------------------0-----------0-----0---------|

                      (full)
                 D5
E|--------------------------|
B|--3-1h(3)p(1)p(0)---0-8b~~|
G|------------------0-------|
d|--------------------------|
A|--------------------------|
e|--------------------------|
 |
 |
E|--------------------------|
B|--------------------------|
G|--------------------------|
d|---------------7----------|
A|---------------5----------|
e|--------------------------|end Riff B

(play Riff B(g2 and 4)once)
               (1/2)             (full)
     G5          B5                  E5
E|---------5-----------------------8b--8-7-8p(7)p(5)-|
B|~~(8)~~~~--8-7-7b-7~~~~7p(5)---5-------------------|
G|-----------------------------7---------------------|
d|---------------------------------------------------|
A|---------------------------------------------------|
e|---------------------------------------------------|

                                                         (1/2)(full)
                              (full)  (strike then release from bend)
                               G5                   B5
E|----8p(7)p(5)---7-7-7-----------------------------------------------|
B|--8-----------8-------5~~~-------12-15----------------15-15b-15b----|
G|--------------------------7--14b-------14r-12-14/(16)---------------|
d|--------------------------------------------------------------------|
A|--------------------------------------------------------------------|
e|--------------------------------------------------------------------|
            (1/2)                                    (full)
       (pre-bend, strike, release)
               E5                                C5        D5
E|--12---------------------------------------------------------------------|
B|-----15-12---------------------------------------------------------------|
G|-----------pb14r-p(12)---------------------------------------------------|
d|-----------------------14-14~~~12----------------------------------------|
A|----------------------------------14p(12)\(10)-12-10-12b-12p(10)---------|
e|-----------------------------------------------------------------12p(10)-|
                                                        end 2nd solo


3rd Verse
(g1 plays intro)
   "look at the..."        "look at the..."    "look at the..."
    Em                      G                   Em
E|-----------------------|-------------------|---------------------|
B|-----------------------|-------------------|---------------------|
G|-----------------------|-------------------|---------------------|
d|-----------------------|-------------------|---------------------|
a|-----------------------|-------------------|---------------------|
e|-----------------------|-------------------|---------------------|
 |
 |(g2 and 4)
E|-----------------------------------------------------------------|
B|-----------------------------------------------------------------|
G|--7/(9)----------------------------------------------------------|
d|--x--------------------------------------------------------------|
A|--5/(7)7---------------------------------------------------------|
e|-----------------------------------------------------------------|
       (g5)
   "way   we've    always    done before."
    G                        D/F#
E|-----------------------|-------------------|
B|-----------------------|-------------------|
G|-----------------------|-------------------|
d|-----------------------|-------------------|
a|-----------------------|-------------------|
e|-----------------------|-------------------|end 3rd verse

4th Verse
(g1 plays intro)
(g2 plays Riff A)
   "Look in the..."        "Look at the..."    "Look at the..."
    Em                      G                   Em
E|-----------------------|-------------------|------------------------|
B|-----------------------|-------------------|------------------------|
G|-----------------------|-------------------|------------------------|
d|-----------------------|-------------------|------------------------|
A|-----------------------|-------------------|------------------------|
e|-----------------------|-------------------|------------------------|
   "I   don't   want   to   hear no more."
    G                       D/f#
E|-----------------------|-------------------|
B|-----------------------|-------------------|
G|-----------------------|-------------------|
d|-----------------------|-------------------|
A|-----------------------|-------------------|
e|-----------------------|-------------------|end 4th verse

g1 and 2(w/chorus effect)                             "My hands are..."
    A7(no3)      B7add4/A          A7(no3)         D/A
E|-----------------------0-----------------3-0---0---------3-2--------|
B|------5------------------4---------------------4-------3-----3/(5)--|
G|----2---2---2------2---------2-------2---------------2--------------|
d|----------5------4---4-----4-------5---5-----5-----4----------------|
a|--0------------0-----------------0---------------0------------------|
e|--------------------------------------------------------------------|
 |  A5                             A5
 | g4(elec. w/dist.)
E|---------------------------------5----------------------------------|
B|---------------------------------5----------------------------------|
G|--2------------------------------2------------------2-2-2-2-2-2-----|
d|--2------------------------------2------------------2-2-2-2-2-2-----|
a|--0------------------------------0------------------0-0-0-0-0-0-----|
e|----------------------------------------------------------------0---|

Pre-chorus
(g2 and 4 play pre-chorus)
                                  "All I've seen..."
    E5                             G5
E|------------------------------|-------------------------------------|
B|------------------------------|-------------------------------------|
G|------------------------------|-------------------------------------|
d|------------------------------|-------------------------------------|
A|------------------------------|-------------------------------------|
e|------------------------------|-------------------------------------|
                                                 "Human rights..."
    E5                             G5             D
E|------------------------------|--------------|----------------------|
B|------------------------------|--------------|----------------------|
G|------------------------------|--------------|----------------------|
d|------------------------------|--------------|----------------------|
A|------------------------------|--------------|----------------------|
e|------------------------------|--------------|----------------------|
                                  "Bloody hands..."
    E5                             G5
E|------------------------------|-------------------------------------|
B|------------------------------|-------------------------------------|
G|------------------------------|-------------------------------------|
d|------------------------------|-------------------------------------|
A|------------------------------|-------------------------------------|
e|------------------------------|-------------------------------------|
                                                 "Scars of our civil
    E5                             G5             D
E|------------------------------|--------------|----------------------|
B|------------------------------|--------------|----------------------|
G|------------------------------|--------------|----------------------|
d|------------------------------|--------------|----------------------|
A|------------------------------|--------------|----------------------|
e|------------------------------|--------------|----------------------|
                                                              end Pre-chorus
   "waaaaarrrrrrs!"
    A5 let ring.......................
E|---------------------------------------------------------------|
B|---------------------------------------------------------------|
G|--2------(2)----------------------4-4-4----2-p-0--------2------|
d|--2------(2)----------------------4-4-4----2-p-0--------2------|
A|--0------(0)-------------------------------0------------0------|
e|---------------------------------------------------------------|
 |     (p.m)        (vibrato)
 |      ....     ....      ....     ....      ....     ....
E|---------------------------------------------------------------|
B|---------------------------------------------------------------|
G|--2---------2--------4~~~------4--------5~~~------5--------7~~~|
d|--2---------2--------4~~~------4--------5~~~------5--------7~~~|
A|--0---0--0-----0--0------0--0-----0--0------0--0-----0--0------|
e|---------------------------------------------------------------|


E|-----------------------|
B|-----------------------|
G|-----------------------|
d|-----------------------|
A|-----------------------|
e|----------------5\(0)--|
 |
 |
E|-----------------------|
B|-----------------------|
G|--7-7-----8--9--9\-----|
d|--7-7--0--8--9--9\-----|
A|-----------------------|
e|-----------------------|

3rd Solo
(g2 and 4 play Pre-chorus,once)
g5 (elec. w/dist. and wah)

    E5                             G5
E|-----0------0---3-b-0------0-----3~~~~3-0-3p(0)-2h(3)p(2)p(0)-|
B|-------0-3b---0-3-b---0-3b---0---3~~~~------------------------|
G|--2b---------------------------0------------------------------|
d|--------------------------------------------------------------|
A|--------------------------------------------------------------|
e|--------------------------------------------------------------|

                                 E5                           G5
E|-------0------------0--------------0----0---3--0------0-------|
B|-----0---0-3p(0)------3p(0)--------0-3b---0-3----0-3b---0---8-|
G|--2b-------------2b---------2b-r-b-0----------------------0-7-|
d|--------------------------------------------------------------|
A|--------------------------------------------------------------|
e|--------------------------------------------------------------|
                                                           release, pull off)
   (bend,release,pull off)                        (bend, hold,
            D      E5                              G5
E|--------------------0------0---3-b-0------0---------------------|
B|--7brp(5)-7--7\-------0-3b---0-3-b---0-3b---0---3bh--3----------|
G|-----------------2b---------------------------0-2bh--2---2rp(0)-|
d|----------------------------------------------------------------|
A|----------------------------------------------------------------|
e|----------------------------------------------------------------|

      E5                           G5         D
E|------0------0---3--0------0-----------------------|
B|--------0-3b---0-3----0-3b---0---8~~~~7h(8)-7--7/--|
G|--2-b--------------------------0-7~~~~7-----7--7/--|
d|---------------------------------------------------|
A|---------------------------------------------------|
e|---------------------------------------------------|end 3rd Solo
         (p.m)         (pm)           (pm)
       .........    ...........    ...........
g4  A5           B5/A           C5/A           D5/A
E|-----------------------------------------------|
B|-----------------------------------------------|
G|--2------------4--------------5--------------7-|
d|--2------------4--------------5--------------7-|
A|--0--0-0-0-0-0----0-0-0-0-0-0----0-0-0-0-0-0---|
e|-----------------------------------------------|
 |
 |g5
E|-----------------------------------------------|
B|--/10~~~~~~~~~~~~~~~~~~~~~~~~~~~~~~~~~~~~~~~~~-|
G|--/9~~~~~~~~~~~~~~~~~~~~~~~~~~~~~~~~~~~~~~~~~~-|
d|-----------------------------------------------|
A|-----------------------------------------------|
e|-----------------------------------------------|
    (pm)
    .....    ...     .....     ...    .....
                 F5/A              C5/A     C5
E|---------------------------------------------------|
B|---------------------------------------------------|
G|--------7------10--------10------5--------5-5-5-0--|
d|--------7------10--------10------5--------5-5-5-0--|
A|--0-0-0----0-0-----0-0-0-----0-0----0-0-0-3-3-3----|
e|---------------------------------------------------|

Chorus
(g2 and 4 play chorus)
        "I   don't  need..."                          "I don't need..."
    G5              B5              E5              G5         B5
E|---------------|---------------|---------------|----------|----------|
B|---------------|---------------|---------------|----------|----------|
G|---------------|---------------|---------------|----------|----------|
d|---------------|---------------|---------------|----------|----------|
A|---------------|---------------|---------------|----------|----------|
e|---------------|---------------|---------------|----------|----------|
                                      "Your're power-hungry..."
    E5              C     D          G5             B5         E5
E|---------------|------|---------|--------------|----------|----------|
B|---------------|------|---------|--------------|----------|----------|
G|---------------|------|---------|--------------|----------|----------|
d|---------------|------|---------|--------------|----------|----------|
A|---------------|------|---------|--------------|----------|----------|
e|---------------|------|---------|--------------|----------|----------|
         "I  don't  need..."
    G5              B5
E|---------------|---------------|
B|---------------|---------------|
G|---------------|---------------|
d|---------------|---------------|
A|---------------|---------------|
e|---------------|---------------|end Chorus

g2 and 4 (p.m)
   "war  no no no no no oh no oh no
       .......
    E5               C     D
E|--------------------------------|
B|-------------------5-5---7-7----|
G|-------------------5-5---7-7----|
d|-------------2-2-2-5-5---7-7----|
A|--2--2-2-2-2-2-2-2-3-3---5-5----|
e|--0--0-0-0-0-0-0-0-----x-----0--|

Riff C
g2 and 4
         " I don't need..."
       (pm)  (pm)   (pm)           (pm)  (pm)(pm)  (pm)  (pm)
        .     .      .              .     .   ...   .     ...
    G5          B5           E5                               G5
E|----------------------------------------------------------------|
B|----------------------------------------------------------------|
G|----------------------------------------------------------------|
d|--------------4--5---4-5----------------------------------------|
A|--5-7---5-7-0-2--2-2-2-2-2-2--2-3---2-3---2-----3---2-3-----5-7-|
e|--3-3-3-3-3----------------0--0-0-0-0-0-0-0-0-0-0-0-0-0-0-0-3-3-|
   (pm)  (pm)   (pm)           (pm)  (pm)(pm)
    .     .      .              .     .   .
            B5           E5                 C5   D5
E|------------------------------------------------------|
B|------------------------------------------------------|
G|------------------------------------------------------|
d|----------4--5---4-5----------------------5-5--7-7----|
A|----5-7-0-2--2-2-2-2-2-2--2-3---2-3---2---3-3--5-5-0--|
e|--3-3-3----------------0--0-0-0-0-0-0-0-0----------0--|end Riff C

(g2 and 4 plays Riff C)
    G5         B5          E5         G5          B5
E|----------|-----------|----------|-----------|----------------------|
B|----------|-----------|----------|-----------|----------------------|
G|----------|-----------|----------|-----------|----------------------|
d|----------|-----------|----------|-----------|----------------------|
A|----------|-----------|----------|-----------|----------------------|
e|----------|-----------|----------|-----------|----------------------|

    E5         C5          D5
E|----------|-----------|----------|
B|----------|-----------|----------|
G|----------|-----------|----------|
d|----------|-----------|----------|
A|----------|-----------|----------|
e|----------|-----------|----------|

4th solo
(g2 and 4 play Riff C)
g5 (elec. dist. w/wah)
  (full)                                         (full) (full) (full)
    G5                                     B5
E|--------------------------------------------------------------------|
B|-------12h(15)----12h(15)----12h(15)-----12h(15)-----15-----15------|
G|--14b----------14---------14----------14---------14b----14b----14b--|
d|--------------------------------------------------------------------|
A|--------------------------------------------------------------------|
e|--------------------------------------------------------------------|
     (full)  (full) (full)             (full)       (1/2)      (full)
               E5
E|--------------------------------------------------------------------|
B|--15------15-----15------15----12h(15)-----12h(15)-----12h(15)------|
G|-----14b-----14b----14b-----14---------14b---------14b---------14b--|
d|--------------------------------------------------------------------|
A|--------------------------------------------------------------------|
e|--------------------------------------------------------------------|
                                      (Full)(full) (full)
                                                 G5
E|-----------------------------------------------12-----12------------|
B|--15----12-15p(12)----12-15p(12)----12-15b-15b----15b----15p(12)----|
G|-----14------------14------------14------------------------------14-|
d|--------------------------------------------------------------------|
A|--------------------------------------------------------------------|
e|--------------------------------------------------------------------|

                                 B5
E|--------------------------------------------------------------------|
B|--15p(12)-13h(15)p(13)p(12)----12h(13)p(12)----12-------------------|
G|----------------------------14--------------15----15-14~~~~p(12)----|
d|-----------------------------------------------------------------14-|
A|--------------------------------------------------------------------|
e|--------------------------------------------------------------------|
           (full) (full)
             E5                                        C5
E|-----------15b--r-15b-15-14-15-14h(15)p(14)p(12)-14----12h(14)p(12)-|
B|----------------------------------------------------15--------------|
G|--14----12----------------------------------------------------------|
d|-----14-------------------------------------------------------------|
A|--------------------------------------------------------------------|
e|--------------------------------------------------------------------|
                 (bend, hold, release)
         (1/2)         (full)                                    (1/2)
             D5     G5         B5                                 E5
E|-----12-14b-\--------20b-h-20r-19-20-19h(20)p(19)p(17)-19~~~~17-----|
B|--15--------------17--------------------------------------------19br|
G|--------------/19---------------------------------------------------|
d|--------------------------------------------------------------------|
A|--------------------------------------------------------------------|
e|--------------------------------------------------------------------|
(pre-bend, strike, release, pull off)
       (1 1/2)         (full)         (full)            (full)
                                                         G5
E|--------------------------12---------------------------17b-17-15-17-|
B|--17-pb17rp(15)----17-15b----15p(12)--------------------------------|
G|----------------16-------------------14b-14-12----------------------|
d|-----------------------------------------------14~~~~---------------|
A|--------------------------------------------------------------------|
e|--------------------------------------------------------------------|
                   (1/2)          (full)(1/4)           (full)
    B5                           E5                           C5
E|--17~~~~15-17-15-pb17r-p(15)-17-15-17b-15b-------------------12------|
B|------------------------------------------17~~~~15h(17)-15b-----15-12|
G|---------------------------------------------------------------------|
d|---------------------------------------------------------------------|
A|---------------------------------------------------------------------|
e|---------------------------------------------------------------------|
         (1/4)
          D5
E|------------------|
B|------------------|
G|--14----12b-12----|
d|-----14--------14-|
A|------------------|
e|------------------|end 4th solo

Outro
g5
    G5                                     G5
E|--------------------------------------------------------------------|
B|--------------------------------------------------------------------|
G|--12~~~~~~~~~~~~~~~~~~~~~~~~~~~~~~~~~~~~----------------------------|
d|--------------------------------------------------------------------|
A|--------------------------------------------------------------------|
e|--------------------------------------------------------------------|
 |
 |g6 (elec. w/light dist. and wah)
E|--------------------------------------------------------------------|
B|--------------------------------------------------------------------|
G|---------7/(9)\(7)---------------------------7/(9)-9----------------|
d|---------x----------9--9-7/(9)\(7)\(5)-------x-----x--7/(9)\(7)-p(0)|
A|---------5/(7)\(5)--x--x-x-------------------5/(7)-7--x-------------|
e|--------------------7--7-5/(7)\(5)\(3)-p(0)-----------5/(7)\(5)-----|
 |
 | g2 and 4
E|--------------------------------------------------------------------|
B|--------------------------------------------------------------------|
G|--0--------------------------------------0--------------------------|
d|--0--------------------------------------0--------------------------|
A|--x--------------------------------------x--------------------------|
e|--3--------------------------------------3--------------------------|

g6
E|----------------------------------------------------------------|
B|----------------------------------------------------------------|
G|-----7/(9)\(7)---------------------------7/(9)------------------|
d|--5--x----------9--9-7/(9)\(7)\(5)-------x------7/(9)\(7)-p(0)--|
A|--x--5/(7)\(5)--x--x-x-------------------5/(7)--x---------------|
e|--3-------------7--7-5/(7)\(5)\(3)-p(0)---------5/(7)\(5)-------|


E|----------------------------------------------------------------|
B|----------------------------------------------------------------|
G|-----7/(9)\(7)---------------------------7/(9)------------------|
d|--5--x----------9--9-7/(9)\(7)\(5)-------x------7/(9)\(7)-p(0)--|
A|--x--5/(7)\(5)--x--x-x-------------------5/(7)--x---------------|
e|--3-------------7--7-5/(7)\(5)\(3)-p(0)---------5/(7)\(5)-------|


E|----------------------------------------------------------------|
B|----------------------------------------------------------------|
G|-----7/(9)\(7)---------------------------7/(9)------------------|
d|--5--x----------9--9-7/(9)\(7)\(5)-------x------7/(9)\(7)-p(0)--|
A|--x--5/(7)\(5)--x--x-x-------------------5/(7)--x---------------|
e|--3-------------7--7-5/(7)\(5)\(3)-p(0)---------5/(7)\(5)-------|

E|-------------------|
B|-------------------|
G|-----7/(9)\(7)-----|
d|--5--x---------7---|
a|--x--5/(7)\(5)-x---|
e|--3------------9---|end outro

14 Years

 Gtr 1.
|-------------------------|-------------------------|-------------------------|
|-------------------------|-------------------------|-------------------------|
|-------------------------|-------------------------|-------------------------|
|--------7--------7-------|--------5--------5-------|--------3--------3-------|
|-------------------------|-------------------------|-------------------------|
|--5--5-----0--5-------0--|--3--3-----0--3-------0--|--1--1-----0--1-------1--|

|-----------------------|-------------------------|-------------------------|
|-----------------------|-------------------------|-------------------------|
|-----------------------|-------------------------|-------------------------|
|------------2----------|--------7--------7-------|--------5--------5-------|
|-----------------------|-------------------------|-------------------------|
|--0--0--3h4------------|--5--5-----0--5-------0--|--3--3-----0--3-------0--|

|-------------------------|---------------------------|-------------------------|
|-------------------------|---------------------------|-------------------------|
|-------------------------|---------------------------|-------------------------|
|--------3--------3-------|------------2-----------2--|--------7--------7-------|
|-------------------------|-----------------2---------|-------------------------|
|--1--1-----0--1-------1--|--0--0--3h4---------3h4----|--5--5-----0--5-------0--|

|-------------------------|-------------------------|---------------------------|
|-------------------------|-------------------------|---------------------------|
|-------------------------|-------------------------|---------------------------|
|--------5--------5-------|--------3--------3-------|------------2-----------2--|
|-------------------------|-------------------------|-----------------2---------|
|--3--3-----0--3-------0--|--1--1-----0--1-------1--|--0--0--3h4---------3h4----|

|-------------------------|-------------------------|-------------------------|
|-------------------------|-------------------------|-------------------------|
|-------------------------|-------------------------|-------------------------|
|--------7--------7-------|--------5--------5-------|--------3--------3-------|
|-------------------------|-------------------------|-------------------------|
|--5--5-----0--5-------0--|--3--3-----0--3-------0--|--1--1-----0--1-------1--|

                               A5                       C
|---------------------------|------------------------|------------------------|
|---------------------------|------------------------|--5----5--5----5--5--5--|
|---------------------------|--2----2----2--2--2--2--|--5----5--5----5--5--5--|
|------------2-----------2--|--2----2----2--2--2--2--|--5----5--5----5--5--5--|
|-----------------2---------|--0----0----0--0--0--0--|--3----3--3----3--3--3--|
|--0--0--3h4---------3h4----|------------------------|------------------------|

   D                                                    A5
|-------------------------|--------------------------|------------------------|
|--7----7--7--7--7--7--7--|--7--7--7--7--7--7--7--7--|------------------------|
|--7----7--7--7--7--7--7--|--7--7--7--7--7--7--7--7--|--2----2----2--2--2--2--|
|--7----7--7--7--7--7--7--|--7--7--7--7--7--7--7--7--|--2----2----2--2--2--2--|
|--5----5--5--5--5--5--5--|--5--5--5--5--5--5--5--5--|--0----0----0--0--0--0--|
|-------------------------|--------------------------|------------------------|

   C                        D
|------------------------|-------------------------|--------------------------|
|--5----5--5----5--5--5--|--7----7--7--7--7--7--7--|--7--7--7--7--7--7--7--7--|
|--5----5--5----5--5--5--|--7----7--7--7--7--7--7--|--7--7--7--7--7--7--7--7--|
|--5----5--5----5--5--5--|--7----7--7--7--7--7--7--|--7--7--7--7--7--7--7--7--|
|--3----3--3----3--3--3--|--5----5--5--5--5--5--5--|--5--5--5--5--5--5--5--5--|
|------------------------|-------------------------|--------------------------|

   A5                       C                        D
|------------------------|------------------------|-------------------------|
|------------------------|--5----5--5----5--5--5--|--7----7--7--7--7--7--7--|
|--2----2----2--2--2--2--|--5----5--5----5--5--5--|--7----7--7--7--7--7--7--|
|--2----2----2--2--2--2--|--5----5--5----5--5--5--|--7----7--7--7--7--7--7--|
|--0----0----0--0--0--0--|--3----3--3----3--3--3--|--5----5--5--5--5--5--5--|
|------------------------|------------------------|-------------------------|

                              A5                       C
|--------------------------|------------------------|------------------------|
|--7--7--7--7--7--7--7--7--|------------------------|--5----5--5----5--5--5--|
|--7--7--7--7--7--7--7--7--|--2----2----2--2--2--2--|--5----5--5----5--5--5--|
|--7--7--7--7--7--7--7--7--|--2----2----2--2--2--2--|--5----5--5----5--5--5--|
|--5--5--5--5--5--5--5--5--|--0----0----0--0--0--0--|--3----3--3----3--3--3--|
|--------------------------|------------------------|------------------------|

   D                                                    A5
|-------------------------|--------------------------|-------------------|
|--7----7--7--7--7--7--7--|--7--7--7--7--7--7--7--7--|-------------------|
|--7----7--7--7--7--7--7--|--7--7--7--7--7--7--7--7--|--2----------------|
|--7----7--7--7--7--7--7--|--7--7--7--7--7--7--7--7--|--2----------------|
|--5----5--5--5--5--5--5--|--5--5--5--5--5--5--5--5--|--0----------------|
|-------------------------|--------------------------|-------------------|

   G5                  D/A                                    A5
|--3----------------|--2----------------|------------------|-------------------|
|--3----------------|--3----------------|------------------|-------------------|
|--0----------------|--2----------------|------------------|--2----------------|
|--0----------------|--0----------------|------------------|--2----------------|
|--x----------------|--0----------------|------------------|--0----------------|
|--3----------------|-------------------|------------------|-------------------|

   G5                  D/A
|--3----------------|--2----------------|------------------|-------------------------|
|--3----------------|--3----------------|------------------|-------------------------|
|--0----------------|--2----------------|------------------|-------------------------|
|--0----------------|--0----------------|------------------|--------7--------7-------|
|--x----------------|--0----------------|------------------|-------------------------|
|--3----------------|-------------------|------------------|--5--5-----0--5-------0--|

|-------------------------|-------------------------|---------------------------|
|-------------------------|-------------------------|---------------------------|
|-------------------------|-------------------------|---------------------------|
|--------5--------5-------|--------3--------3-------|------------2-----------2--|
|-------------------------|-------------------------|-----------------2---------|
|--3--3-----0--3-------0--|--1--1-----0--1-------1--|--0--0--3h4---------3h4----|

|-------------------------|-------------------------|-------------------------|
|-------------------------|-------------------------|-------------------------|
|-------------------------|-------------------------|-------------------------|
|--------7--------7-------|--------5--------5-------|--------3--------3-------|
|-------------------------|-------------------------|-------------------------|
|--5--5-----0--5-------0--|--3--3-----0--3-------0--|--1--1-----0--1-------1--|

|---------------------------|-------------------------|-------------------------|
|---------------------------|-------------------------|-------------------------|
|---------------------------|-------------------------|-------------------------|
|------------2-----------2--|--------7--------7-------|--------5--------5-------|
|-----------------2---------|-------------------------|-------------------------|
|--0--0--3h4---------3h4----|--5--5-----0--5-------0--|--3--3-----0--3-------0--|

|-------------------------|-----------------------|-------------------------|
|-------------------------|-----------------------|-------------------------|
|-------------------------|-----------------------|-------------------------|
|--------3--------3-------|------------2----------|--------7--------7-------|
|-------------------------|-----------------------|-------------------------|
|--1--1-----0--1-------1--|--0--0--3h4------------|--5--5-----0--5-------0--|

|-------------------------|-------------------------|---------------------------|
|-------------------------|-------------------------|---------------------------|
|-------------------------|-------------------------|---------------------------|
|--------5--------5-------|--------3--------3-------|------------2-----------2--|
|-------------------------|-------------------------|-----------------2---------|
|--3--3-----0--3-------0--|--1--1-----0--1-------1--|--0--0--3h4---------3h4----|

|-------------------------|-------------------------|-------------------------|
|-------------------------|-------------------------|-------------------------|
|-------------------------|-------------------------|-------------------------|
|--------7--------7-------|--------5--------5-------|--------3--------3-------|
|-------------------------|-------------------------|-------------------------|
|--5--5-----0--5-------0--|--3--3-----0--3-------0--|--1--1-----0--1-------1--|

|---------------------------|-------------------------|-------------------------|
|---------------------------|-------------------------|-------------------------|
|---------------------------|-------------------------|-------------------------|
|------------2-----------2--|--------7--------7-------|--------5--------5-------|
|-----------------2---------|-------------------------|-------------------------|
|--0--0--3h4---------3h4----|--5--5-----0--5-------0--|--3--3-----0--3-------0--|

                                                         A5
|-------------------------|---------------------------|------------------------|
|-------------------------|---------------------------|------------------------|
|-------------------------|---------------------------|--2----2----2--2--2--2--|
|--------3--------3-------|------------2-----------2--|--2----2----2--2--2--2--|
|-------------------------|-----------------2---------|--0----0----0--0--0--0--|
|--1--1-----0--1-------1--|--0--0--3h4---------3h4----|------------------------|

   C                        D
|------------------------|-------------------------|--------------------------|
|--5----5--5----5--5--5--|--7----7--7--7--7--7--7--|--7--7--7--7--7--7--7--7--|
|--5----5--5----5--5--5--|--7----7--7--7--7--7--7--|--7--7--7--7--7--7--7--7--|
|--5----5--5----5--5--5--|--7----7--7--7--7--7--7--|--7--7--7--7--7--7--7--7--|
|--3----3--3----3--3--3--|--5----5--5--5--5--5--5--|--5--5--5--5--5--5--5--5--|
|------------------------|-------------------------|--------------------------|

   A5                       C                        D
|------------------------|------------------------|-------------------------|
|------------------------|--5----5--5----5--5--5--|--7----7--7--7--7--7--7--|
|--2----2----2--2--2--2--|--5----5--5----5--5--5--|--7----7--7--7--7--7--7--|
|--2----2----2--2--2--2--|--5----5--5----5--5--5--|--7----7--7--7--7--7--7--|
|--0----0----0--0--0--0--|--3----3--3----3--3--3--|--5----5--5--5--5--5--5--|
|------------------------|------------------------|-------------------------|

                              A5                       C
|--------------------------|------------------------|------------------------|
|--7--7--7--7--7--7--7--7--|------------------------|--5----5--5----5--5--5--|
|--7--7--7--7--7--7--7--7--|--2----2----2--2--2--2--|--5----5--5----5--5--5--|
|--7--7--7--7--7--7--7--7--|--2----2----2--2--2--2--|--5----5--5----5--5--5--|
|--5--5--5--5--5--5--5--5--|--0----0----0--0--0--0--|--3----3--3----3--3--3--|
|--------------------------|------------------------|------------------------|

   D                                                    A5
|-------------------------|--------------------------|------------------------|
|--7----7--7--7--7--7--7--|--7--7--7--7--7--7--7--7--|------------------------|
|--7----7--7--7--7--7--7--|--7--7--7--7--7--7--7--7--|--2----2----2--2--2--2--|
|--7----7--7--7--7--7--7--|--7--7--7--7--7--7--7--7--|--2----2----2--2--2--2--|
|--5----5--5--5--5--5--5--|--5--5--5--5--5--5--5--5--|--0----0----0--0--0--0--|
|-------------------------|--------------------------|------------------------|

   C                        D
|------------------------|-------------------------|--------------------------|
|--5----5--5----5--5--5--|--7----7--7--7--7--7--7--|--7--7--7--7--7--7--7--7--|
|--5----5--5----5--5--5--|--7----7--7--7--7--7--7--|--7--7--7--7--7--7--7--7--|
|--5----5--5----5--5--5--|--7----7--7--7--7--7--7--|--7--7--7--7--7--7--7--7--|
|--3----3--3----3--3--3--|--5----5--5--5--5--5--5--|--5--5--5--5--5--5--5--5--|
|------------------------|-------------------------|--------------------------|

   A5                  G5                  D/A
|-------------------|--3----------------|--2----------------|------------------|
|-------------------|--3----------------|--3----------------|------------------|
|--2----------------|--0----------------|--2----------------|------------------|
|--2----------------|--0----------------|--0----------------|------------------|
|--0----------------|--x----------------|--0----------------|------------------|
|-------------------|--3----------------|-------------------|------------------|

   A5                  G5                  D/A
|-------------------|--3----------------|--2----------------|------------------|
|-------------------|--3----------------|--3----------------|------------------|
|--2----------------|--0----------------|--2----------------|------------------|
|--2----------------|--0----------------|--0----------------|------------------|
|--0----------------|--x----------------|--0----------------|------------------|
|-------------------|--3----------------|-------------------|------------------|

 Guitar solo
|----------------------|----------------------|------------------------|
|----------------------|----------------------|------------------------|
|----------------------|----------------------|------------------------|
|----------------------|----------------------|------------------------|
|-------3----5b---3----|--5b---5b---3----5b---|--------3h-5--5b---3----|
|--5-------------------|----------------------|--3h-5------------------|

|--------------------------|-----------------------|-----------------------|
|--------------------------|-----------------------|-----------------------|
|--------------------------|-------------5b--------|--5----7b---5----7--5--|
|--------------------------|--5h-7--7---------7~---|-----------------------|
|--5b-7--5b-7--5b-7--3p-0--|-----------------------|-----------------------|
|--------------------------|-----------------------|-----------------------|

|---------------------------|---------8---------------------|
|-------8--8----------------|--8/-10-----10--8--10----13b---|
|--7b---------7r---5--7--5--|-------------------------------|
|---------------------------|-------------------------------|
|---------------------------|-------------------------------|
|---------------------------|-------------------------------|

|------------------------------|------------------------------|
|--15b---15--13--15--15r---13--|--15--15r---13--15--15r---13--|
|------------------------------|------------------------------|
|------------------------------|------------------------------|
|------------------------------|------------------------------|
|------------------------------|------------------------------|

|----------------------------------------|--------0--------------|
|--15--15r-13-15--13--15--15r-13-15--13--|--15b------17b---------|
|----------------------------------------|-----------------------|
|----------------------------------------|-----------------------|
|----------------------------------------|-----------------------|
|----------------------------------------|-----------------------|

|--------------------|----------------------|--15b---17--15--------------------12--|
|--------17~---------|--17b-----17~---------|----------------17--15r---13--15------|
|--------------------|----------------------|--------------------------------------|
|--------------------|----------------------|--------------------------------------|
|--------------------|----------------------|--------------------------------------|
|--------------------|----------------------|--------------------------------------|

|------12----------------------|----------------------------------|
|--15------13~-----------------|------17------17------17------17--|
|----------------14--12--14~---|--19b-----19b-----19b-----19b-----|
|------------------------------|----------------------------------|
|------------------------------|----------------------------------|
|------------------------------|----------------------------------|

|--------------------------------|--19b---17----15b-17--15------|
|--------------------------------|--19b---------------------17--|
|--19r--17-19------17~---19--17--|------------------------------|
|--------------19----------------|------------------------------|
|--------------------------------|------------------------------|
|--------------------------------|------------------------------|

|----------------------------------|----------------------------------|
|--15r---13--15--15--13------------|----------------------------------|
|--------------------------14--12--|--14~---12------------------------|
|----------------------------------|--------------14--12--10--12--10--|
|----------------------------------|----------------------------------|
|----------------------------------|----------------------------------|

|------------------------------|--------------------|-------------------------|
|------------------------------|--------------------|-------------------------|
|------------------------------|--------------------|-------------------------|
|--12b---10----12--10----------|--------------------|--------5--------5-------|
|----------------------12--10--|--12\---------------|-------------------------|
|------------------------------|--------------------|--3--3-----0--3-------0--|

|-------------------------|-----------------------|-------------------------|
|-------------------------|-----------------------|-------------------------|
|-------------------------|-----------------------|-------------------------|
|--------3--------3-------|------------2----------|--------7--------7-------|
|-------------------------|-----------------------|-------------------------|
|--1--1-----0--1-------1--|--0--0--3h4------------|--5--5-----0--5-------0--|

|-------------------------|-------------------------|---------------------------|
|-------------------------|-------------------------|---------------------------|
|-------------------------|-------------------------|---------------------------|
|--------5--------5-------|--------3--------3-------|------------2-----------2--|
|-------------------------|-------------------------|-----------------2---------|
|--3--3-----0--3-------0--|--1--1-----0--1-------1--|--0--0--3h4---------3h4----|

|-------------------------|-------------------------|-------------------------|
|-------------------------|-------------------------|-------------------------|
|-------------------------|-------------------------|-------------------------|
|--------7--------7-------|--------5--------5-------|--------3--------3-------|
|-------------------------|-------------------------|-------------------------|
|--5--5-----0--5-------0--|--3--3-----0--3-------0--|--1--1-----0--1-------1--|

|---------------------------|-------------------------|-------------------------|
|---------------------------|-------------------------|-------------------------|
|---------------------------|-------------------------|-------------------------|
|------------2-----------2--|--------7--------7-------|--------5--------5-------|
|-----------------2---------|-------------------------|-------------------------|
|--0--0--3h4---------3h4----|--5--5-----0--5-------0--|--3--3-----0--3-------0--|

                                                        A5
|-------------------------|---------------------------|------------------------|
|-------------------------|---------------------------|------------------------|
|-------------------------|---------------------------|--2----2----2--2--2--2--|
|--------3--------3-------|------------2-----------2--|--2----2----2--2--2--2--|
|-------------------------|-----------------2---------|--0----0----0--0--0--0--|
|--1--1-----0--1-------1--|--0--0--3h4---------3h4----|------------------------|

   C                        D
|------------------------|-------------------------|--------------------------|
|--5----5--5----5--5--5--|--7----7--7--7--7--7--7--|--7--7--7--7--7--7--7--7--|
|--5----5--5----5--5--5--|--7----7--7--7--7--7--7--|--7--7--7--7--7--7--7--7--|
|--5----5--5----5--5--5--|--7----7--7--7--7--7--7--|--7--7--7--7--7--7--7--7--|
|--3----3--3----3--3--3--|--5----5--5--5--5--5--5--|--5--5--5--5--5--5--5--5--|
|------------------------|-------------------------|--------------------------|

   A5                       C                        D
|------------------------|------------------------|-------------------------|
|------------------------|--5----5--5----5--5--5--|--7----7--7--7--7--7--7--|
|--2----2----2--2--2--2--|--5----5--5----5--5--5--|--7----7--7--7--7--7--7--|
|--2----2----2--2--2--2--|--5----5--5----5--5--5--|--7----7--7--7--7--7--7--|
|--0----0----0--0--0--0--|--3----3--3----3--3--3--|--5----5--5--5--5--5--5--|
|------------------------|------------------------|-------------------------|

                              A5                       C
|--------------------------|------------------------|------------------------|
|--7--7--7--7--7--7--7--7--|------------------------|--5----5--5----5--5--5--|
|--7--7--7--7--7--7--7--7--|--2----2----2--2--2--2--|--5----5--5----5--5--5--|
|--7--7--7--7--7--7--7--7--|--2----2----2--2--2--2--|--5----5--5----5--5--5--|
|--5--5--5--5--5--5--5--5--|--0----0----0--0--0--0--|--3----3--3----3--3--3--|
|--------------------------|------------------------|------------------------|

   D                                                    A5
|-------------------------|--------------------------|-------------------|
|--7----7--7--7--7--7--7--|--7--7--7--7--7--7--7--7--|-------------------|
|--7----7--7--7--7--7--7--|--7--7--7--7--7--7--7--7--|--2----------------|
|--7----7--7--7--7--7--7--|--7--7--7--7--7--7--7--7--|--2----------------|
|--5----5--5--5--5--5--5--|--5--5--5--5--5--5--5--5--|--0----------------|
|-------------------------|--------------------------|-------------------|

   C                                                               A5
|-------------------|-------------------|-----------------------|-------------------|
|--5----------------|-------------------|-----------------------|-------------------|
|--5----------------|-------------------|-----------------------|--2----------------|
|--5----------------|-------------------|-----------------------|--2----------------|
|--3----------------|----------------3--|--3----2--2--0---------|--0----------------|
|-------------------|-------------------|------------------3----|-------------------|

   C
|-------------------|------------------|------------------|
|--5----------------|------------------|------------------|
|--5----------------|------------------|------------------|
|--5----------------|------------------|------------------|
|--3----------------|------------------|------------------|
|-------------------|------------------|------------------|


Pre-chorus:

A5                C              D
   you just don't step inside to, to fourteen years
A5                C              D
   so hard to keep my own head, that's what i said and you know
A5                C        D
   i've been the beg - gar   i've played the thief
A5                C  D
   i was the dog      they all tried to beat

Chorus:
              A5                 G5               D/A
but it's been fourteen years of silence it's been fourteen years
                  A5                      G5                   D/A
of pain it's been fourteen years that are gone forever and i'll    never

have again   well

 Solo:
|------------------------------------------------------------------|
|------------------------------------------------------------------|
|------------------------------------------------------------------|
|------------------------------------------------------------5h7-7-|
|---3--5fb-3-5fb-5fb-3-5fb-----3h5-5fb-3-5fb5-5fb5-5fb5-3p0--------|
|-5------------------------3h5-------------------------------------|

|---------------------------------------------8--------------|
|---------------------------8-8----------8/10---10-8-10-13fb-|
|-5fb------5-7fb-5--7-5-7fb-----r7p5-7-5---------------------|
|-----7~~----------------------------------------------------|
|------------------------------------------------------------|
|------------------------------------------------------------|

|--------------------------------------------------------------------|
|-15fb-15-13-15-r15-13-15-r15-13-15-r15-13-15-r15p13-13-15-r15p13-13-|
|--------------------------------------------------------------------|
|--------------------------------------------------------------------|
|--------------------------------------------------------------------|
|--------------------------------------------------------------------|

|------0------------------------------------------15--17-15--------------|
|-15fb---17b(1.5)-(17)~~~-17~~~-17b(1.5)--17~~~~~-----------17-r15-13-15-|
|------------------------------------------------------------------------|
|------------------------------------------------------------------------|
|------------------------------------------------------------------------|
|------------------------------------------------------------------------|

|-12----12--------------------------------------------------------|
|----15----13~~~~-------------------17-------17-------17-------17-|
|-----------------14-12-14~~~~-19fb-----19fb-----19fb-----19fb----|
|-----------------------------------------------------------------|
|-----------------------------------------------------------------|
|-----------------------------------------------------------------|

|-----------------------------19hb--17-15fb-15-15----------------------|
|-----------------------------19hb----------------17-15fbrp13-15-13-15-|
|-19fbrp17-19----17~~~~-19-17------------------------------------------|
|-------------19-------------------------------------------------------|
|----------------------------------------------------------------------|
|----------------------------------------------------------------------|

|-----------------------------------------------------------------|
|-----------------------------------------------------------------|
|-14-12-14~~~~-12-------------------------------------------------|
|-----------------14-12-10-12-10-12fb-10-12-10--------------------|
|----------------------------------------------12-10--------------|
|-----------------------------------------------------------------|


Yesterdays


Figure A

   D                                                  C               G5
|--------------0h2--------------------0h2-------------------2--0-------3-------|
|--------3--------------3-------3-----------------------3-----------3----3---3-|
|-----2-----2--------2-------2-----2------------0-------0-------------0----0---|
|--0-----------------------4-----------------0----------2----------------------|
|---------------------------------------------------3--------------------------|
|------------------------------------------------------------------------------|

Chords:  Cadd2=> x32030 and
            G5=> 3x0033

The song goes like this
2x Rhythm Figure A

enter lyrics
(play Rythm Figure A where you see D C G5)

D                   C                    G5
Yesterday there was so many things I was never told
D                              C          G5
Now that I'm startin' to learn I feel I'm growin' old
D                      Cadd2                G5
'Cause yesterday's got nothin' for me.  Old pictures that I'll always see
D                            G5
Time just fades the pages in my book of memories.

(Insert Verse 2)

Chorus (underline indicates drag out the word,
        C5 is just power chord on 3rd fret):

A               B   C5                              G5
Ooh,____________yesterday's________ got nothin' for me.__________
A               B   C5                              G5
Yesterday's________ooh,__ __________got nothin' for me.__________

Chords for solo are (if someone wants I can post tab of how I play the solo):
Bm   G   Bm   GBm   C#m D    E

Other lyrics:

2nd verse:
Prayers in my pocket and no hand in destiny.
I'll keep movin' along with no time to plant my feet.
'Cause yesterday's got nothin' for me.
Old pictures that I'll always see.
Some things could be better if we'd just let them be.

3rd verse:
Yesterday there were so many things I was never shown.
Suddenly this time I found I'm on the streets and I'm alone.
Yesterday's got nothin' for me. Old pictures that I'll always see.
I ain't got time to reminisce old novelties.

The song structure is basically:

2x Rythm Figure A
Verse 1
Verse 2
Chorus

Solo:
|---------------------------------------------------------------------|
|------------------------------------12-------------------------------|
|-9fb-r9h-r9p7-9-7---7--------14fb~~----14-11-------------------------|
|------------------9---9----------------------14hbr-12-14-14hb-12~~~~-|
|---------------------------------------------------------------------|
|---------------------------------------------------------------------|

|-------------------------------------------------------------------------|
|---------12-14~~~-14-12fb~~~~-14-14hb---14--14-14-15fb~~~~-15-12---------|
|-14fb~~~---------------------------------------------------------13------|
|--------------------------------------------------------------------14~~-|
|-------------------------------------------------------------------------|
|-------------------------------------------------------------------------|

|--------12--------12--------------------------12-------15-------|
|----------12-15fb---15-12-------------------12---15/17----17\15-|
|-12/13--------------------14-12h13----12h13---------------------|
|-----------------------------------14---------------------------|
|----------------------------------------------------------------|
|----------------------------------------------------------------|


Verse 3
Chorus

Knockin' on Heaven's Door

Tuned half step down

fill 2 (used on intro and verses)
  G5            D                C
|-3---3--------------2-0-------|-----------------0--------------------|
|-3-----3---3------3-----3---3-|----------1--------------1------------|
|-0-------0------2---------2---|-0------0---0----------0---0-0------0-|
|-0------------0---------------|-0h2----------2------2-------0h2------|
|------------------------------|------3---------------------------3---|
|-3----------------------------|--------------------------------------|

fill 1 (used only in verses)
  G5              D                  Am
|-3--------------2-------2-0-------|-0-------------0----------------------|
|-3---3-------3--3-------3-------0-|-1----0h1-------------1---------------|
|-0---0-----0----2----2-------2----|-2--2-----2---------2---2------0---0--|
|-0---0-----0----0----0------------|-2----------2-----2-------0h2----2----|
|----------------------------------|-0------------------------------------|
|-3--------------------------------|--------------------------------------|

Song goes like this:

Intro: Twice with picking fill 2  G5 D C
       Twice just power chords    G5 D C

Verse 1 (with fill 1)
G5         D               Am
Mamma take this badge from me

        (with fill 2)
G5         D         C
I can't use it anymore

        (with fill 1)
G5                D             Am
It's getting dark, too dark to see

        (with fill 2)
G5             D                       C
Feels like I'm knockin' on heaven's door

Chorus:
G5            D5                     C5
Knock, knock, knockin' on heaven's door,
C5
Hey, hey, hey, hey, yeah
G5            D5                     C5
Knock, knock, knockin' on heaven's door,
C5
(no lyrics)
G5                 D5                     C5
Ooh, knock, knock, knockin' on heaven's door
C5
Ooh yeah
G5            D5                     C5
Knock, knock, knockin' on heaven's door
C5
Hey, hey, hey, hey, yeah

 Solo 1: (over G D and C chords)
|----------------------------------------------------------|
|--------------------15fb----------------------------------|
|-12-14fb-14p12-14---------14-12-12~~~----------------12---|
|------------------------------------------13/14-----------|
|----------------------------------------------------------|
|----------------------------------------------------------|


|--------------------------------------------------------15----|
|-15/17--15---13p12-13/15--13p12---13p12-----------12-13----13-|
|--------------------------------------------------------------|
|-----------------------------------------14~~~----------------|
|--------------------------------------------------------------|
|--------------------------------------------------------------|


|--------------15-17fb--17--17fb--17fb--15----20fb-20p19-20-|
|12~~~---15/17----------------------------------------------|
|-----------------------------------------------------------|
|-----------------------------------------------------------|
|-----------------------------------------------------------|
|-----------------------------------------------------------|

|-19-20fb--20-20-20------------------------------------------------|
|-------------------17~~~------------------------------------------|
|-------------------------19fb-19-19fb-19--------------------------|
|-----------------------------------------19fb-19-19fb-19----------|
|----------------------------------------------------------17--17--|
|------------------------------------------------------------------|

 Solo 2:
|-------------------------------------------------------|
|--19b~~~~~~~r-19---19brp17-19-1717----20-17--20-17br---|
|-------------------------------------------------------|
|-------------------------------------------------------|
|-------------------------------------------------------|
|-------------------------------------------------------|

|----------------------------------------16---18b-18p16-|
|-1517--1517--------1517---------------13--16-----------|
|-----------------------------------/13-----------------|
|-----17----19br1719----19br19br17----------------------|
|-------------------------------------------------------|
|-------------------------------------------------------|

|-16-18p16-16-20-19-20-22b-20-19-20-22b--20-19-20-22b-22b-22b---------|
|-------------------------------------------------------------20-22b--|
|---------------------------------------------------------------------|
|---------------------------------------------------------------------|
|---------------------------------------------------------------------|
|---------------------------------------------------------------------|

|----------------------------------------------------------------|
|--20-22br-20-22-22b-20-22-20--20~~---20-19----19br-17-19-17-17--|
|----------------------------------------------------------------|
|----------------------------------------------------------------|
|----------------------------------------------------------------|
|----------------------------------------------------------------|

|----------------------------------------------------------------|
|-2017--17~~15~~12~~~~~~-----------------------------------------|
|------------------------12~--11~---11br-9~---7--5/4-------------|
|----------------------------------------------------5-----------|
|----------------------------------------------------------------|
|----------------------------------------------------------------|

  Solo 2 (another version)
|---------------------------------------------------------------------------|
|-------------20~~~~-20--19~~--19b(20)r19---17-19p17-17~~--20-15b(17)--20---|
|----17---------------------------------------------------------------------|
|-------17------------------------------------------------------------------|
|---------------------------------------------------------------------------|
|---------------------------------------------------------------------------|

|--------------------------15-----------------------15----------------------|
|-15b(17)r(15)--13-15-12~~~---15--10b(12)r10----------15----10/12---10/12---|
|---------------------------------------------12/14-------------------------|
|---------------------------------------------------------------------------|
|---------------------------------------------------------------------------|
|---------------------------------------------------------------------------|

|----------------15------17/19---17p15h17p15---20p19-20b(22)--20p19-20b(22)-|
|-------------15----15------------------------------------------------------|
|-12~~~--14/16--------------------------------------------------------------|
|---------------------------------------------------------------------------|
|---------------------------------------------------------------------------|
|---------------------------------------------------------------------------|

                                  (Hold bend)
|20p19-20-22b(24)-22b(24)-----------22--------------------------------------|
|-------------------------20-22b(24)--22-r22--20--22pb(24)r22b(24)r22-20----|
|---------------------------------------------------------------------------|
|---------------------------------------------------------------------------|
|---------------------------------------------------------------------------|
|---------------------------------------------------------------------------|

|---------------------------------------------------------------------------|
|-20~~-20-19-19b(20)r19--17--19p17--17~---20--15b(17)---20-----15b(17)--13--|
|---------------------------------------------------------------------------|
|---------------------------------------------------------------------------|
|---------------------------------------------------------------------------|
|---------------------------------------------------------------------------|

|---------------------------------------------------------------------------|
|-15-12~~-------------------------------------------------------------------|
|--------12~~~--11~~~-11b(12)r11/9--9~~~------------------------------------|
|---------------------------------------12~~9b(10)r9------------------------|
|-----------------------------------------------------10--------------------|
|---------------------------------------------------------------------------|

Get in the ring


Intro:
|----------------------------------------------------------------|
|----------------------------------------------------------------|
|----------------------------------------------------------------|
|----------12-15--rfb15------------------------------------------|
|-13~~~-13--------------15hbr-15hbr-13~~~--------13-13-15-13~~~~-|
|------------------------------------------13h15-----------------|

|----------------------------------------------------------------------|
|----------------------------------------------------------------------|
|---------------------------17hb---------------------------------------|
|-------13--rfb13------------------------------------------15-17-15-17-|
|-13-15-----------15hbr-13------------15----13-13~~~-15/17-------------|
|-----------------------------------x----15----------------------------|

|---------------------------------------------------------------------|
|-----------------15-18--rfb18----------------------15-18-16-15-16-15-|
|-17----15~~~~-15---------------rhb15-13-15fb~~~----------------------|
|----17---------------------------------------------------------------|
|---------------------------------------------------------------------|
|---------------------------------------------------------------------|

|---------------------------------------------------------------------|
|------15-------15-------15-------15----------------------------15-18-|
|-17fb-----17fb-----17fb-----17fb-----17fbrp15-17----15~~~~-----------|
|-------------------------------------------------17--------17--------|
|---------------------------------------------------------------------|
|---------------------------------------------------------------------|

|------18-----------------------------------|
|-18fb----r18-15-18----18----18----------18-|
|----------------17fb--17fb--17----------17-|
|-------------------------------------------|
|-------------------------------------------|
|-------------------------------------------|

Build up to lyrics:

   Eb5    Bb5       F5
|---------------------------6----------------------------------------------|
|-----------------------9fb---9-6-8hbrp6---6----------------11~~~~~~(11)\8-|
|----------------------------------------8---7---8---7-8-7-----------------|
|----------------------------------------------8---8-----------------------|
|--------------------------------------------------------------------------|
|--------------------------------------------------------------------------|

Just use chords in verse:

|---8fb--8-6-8fb-6-------6--------------------------------------|
|-6----------------6-9fb---9-6----------------------------------|
|-------------------------------8fbrp6--------------------------|
|---------------------------------------8~~~~~~~~~~~~~~~~~~~~~~-|
|---------------------------------------------------------------|
|---------------------------------------------------------------|

  just before second verse:
|----------------------------------------|
|----------------------------------------|
|----------------------------------------|
|-8~~~-----------------------------------|
|------6-5-------5-6~~~~~-6fbrfbrfbr-0-8-|
|----------6-6-8-----------------------6-|

  Guitar solo:
|---------------------------------------------------------------------|
|-10--(10)h12-------10----10--10-------10---------13---------10-10----|
|-10--(10)h12-------10-12-10--10-12----10----12fb----12------10-10----|
|-------------12-12----12-----------12----12------------12---------12-|
|---------------------------------------------------------------------|
|---------------------------------------------------------------------|

|------------------------------------------------------------------------|
|-12hbr---------------10--------------------17hb-17-15-17-18-19-18-17-15-|
|-12hbr-(12)p10-12----10--17fb--17-17-17r17------------------------------|
|------------------12----------------------------------------------------|
|------------------------------------------------------------------------|
|------------------------------------------------------------------------|

|---------------------------------------(0)-20fb------(20)~~~~~~~~-|
|-------18-20-20hb-20fbr-19-20-19-20-19----------------------------|
|-17/19------------------------------------------------------------|
|------------------------------------------------------------------|
|------------------------------------------------------------------|
|------------------------------------------------------------------|


shotgun blues

Tune down 1/2 step.

Intro: (Drums and microphonic feedback)
|-------------------------------------------------------------------------|
|-------------------------------------------------------------------------|
|-------------------------------------------------------------------------|
|-------------------------------------------------------------------------|
|-------------------------------------------------------------------------|
|--------------x-------------------------------------------x-(pick slide)-|
               (percussive sound created by touching stg. w/side of pick)

CHROUS: (Two rhthym guitars)

E5    A/E    E5    C#5    F#/C#    C#5     D5      G      D5
E5    A/E    E5    C#5    F#/C#    C#5     D5      G      D5
E5    A/E    E5    D/A    A5       B5      E/B     B5
E5    A/E    E5    D/A    A5       B5      E/B     B5

PRE-CHROUS:

B5                                                              A5                       
                    G#5   A5  G#5  A5      B5
     Ah,_ well, you get what you pay for,                           An free-dom's real high priced.

     B5                  A#5  B5   A#5  B5  A5                                     G#5   A5   G#5   A5
 An while you're rippin' off children,                    somebody's fuckin your wife

D5                              C#5  D5  C#5   D5    E5                             D#5  E5  D#5  E5
Ooh,           it's never made a difference                        It's only how you survive


The Chrous and the Pre-Chrous is repeated again.

 BRIDGE:
|------------------------------------------------------------------------------------|
|---11---11-------6---(6)---6---6---------7---(7)---7----------9----(9)-----------9--|
|---11---11-------6---(6)---6---6---------7---(7)---7----------9----(9)-----------9--|
|---11---11-------6---(6)---6---6---------7---(7)---7----------9----(9)-----------9--|
|----9----9-------4---(4)---4---4---------5---(5)---5----------7----(7)-----------7--|
|------------------------------------------------------------------------------------|

|------------------------------------------------------------------------------------|
|---11--(11)-----11----6---(6)--6---------6----6----6----7----(7)----7-----9-----(9)-|
|---11--(11)-----11----6---(6)--6---------6----6----6----7----(7)----7-----9-----(9)-|
|---11--(11)-----11----6---(6)--6---------6----6----6----7----(7)----7-----9-----(9)-|
|----9---(9)------9----4---(4)--4---------4----4----4----5----(5)----5-----7-----(7)-|
|------------------------------------------------------------------------------------|

|---------------------------------------------------------------------------------|
|----9---9---9---(9)---9---9---9---9---9---9---9---9---9---9---9---9---9---9---9--|
|----9---9---9---(9)---9---9---9---9---9---9---9---9---9---9---9---9---9---9---9--|
|----9---9---9---(9)---9---9---9---9---9---9---9---9---9---9---9---9---9---9---9--|
|----7---7---7---(7)---7---7---7---7---7---7---7---7---7---7---7---7---7---7---7--|
|---------------------------------------------------------------------------------|

 Guitar solo:
|------------------------------------------------------------------------------|
|------------------------------------------------------------------------------|
|------------------------------------------------------------------------2-----|
|---------------------------------2--------2-----4---2h4p2-----2--4p2h4-----4--|
|----------------------2--0--2/4-----3--4-----4-------------4------------------|
|--19\sl---2--5--2--5----------------------------------------------------------|

|--------------------2---------------------------------------------------2-------|
|-----------------2-----2--5fb---5--2---------------------------------2-----2----|
|--2-----2--4fb------------------------4fb--4hb-p-2-----4-----2--4fb-------------|
|-----4----------------------------------------------4-----4---------------------|
|--------------------------------------------------------------------------------|
|--------------------------------------------------------------------------------|
                                                      /-------hold bend----------|
|-------5-----7------5h7p5\4-----5-----4h5p4-------------------------------------|
|--4/7-----7-----7------------7-----7---------7--5---12fb--(hold bend)-----------|
|--------------------------------------------------------------------------------|
|--------------------------------------------------------------------------------|
|--------------------------------------------------------------------------------|
|--------------------------------------------------------------------------------|
  ------------------\------------------------------------------------------------|
|---------12~~~~~------------12\-------------------------------------------------|
|--12*------------r12---fb-------------------------------------------------------|
|--------------------------------------------------------------------------------|
|--------------------------------------------------------------------------------|
|--------------------------------------------------------------------------------|
|--------------------------------------------------------------------------------|
    * (release 1/2 step and rebend half step again)

|------------------------------------------------------------------------------|
|------------------------------------------------------------------------------|
|-----------------------------------------------------9h11p9------9h11---------|
|------------------7--7--9p7-----7--9/11--9----/11------------11---------------|
|-----7--7--7h9p7-------------9------------------------------------------------|
|--7---------------------------------------------------------------------------|

|------------------------------------------------------------------------------|
|--10hb-------------------------------------------9-------------11-------------|
|--------11p9--11p9--11--11--(11)p9------11-------9-------------11--------9----|
|------------------------------------11------11--------------------------------|
|------------------------------------------------------------------------------|
|------------------------------------------------------------------------------|

|--9-------9----9----9----7--7--7\5--5--5--5\4--4--4--2------------------------|
|-10--10--10---10---10\9--9--9--9\7--7--7--7\5--5--5--4------------------------|
|--------------------------------------------------------4--4--4~~--4--4--2----|
|--------------------------------------------------------------4~~--4--4--2----|
|------------------------------------------------------------------------------|
|------------------------------------------------------------------------------|

|-------7-------9--------10---------11---------12~~~~~~----\sl-------------------|
|--------------------------------------------------------------------------------|
|--4/8-----8/9-----9/10------10/11------11/13------------------------------------|
|--------------------------------------------------------------------------------|
|------------------------------------------------------------------12fb---\------|
|--------------------------------------------------------------------------------|

The Chorus is repeated.
Then the rhthym changes to:
(over the part where Axl sings 'I know, there's ways, that we.'

G/D                  D5

This rhthym part is repeated 6 times more before the chords change for the outro.

OUTRO:
D5   C#5    B5   A5      PLAY THIS PART 4 TIMES

before finally hitting the open E5 chord once.

The two rhthym guitars play the chords shown above while the third guitar plays
|--9hb--------9hb--------9hb--------------------------------------------------|
|-------10fb-------10fb-------10fb--7hb--7------------------------------------|
|-------------------------------------------9fb--p7--9~~~~~-------------------|
|-----------------------------------------------------------------------------|
|-----------------------------------------------------------------------------|
|-----------------------------------------------------------------------------|

This fill is played right at the end:
|---------4-----3~~~~~~--|
|------------------------|
|--2 / 4-----4-----------|
|------------------------|
|------------------------|
|------------------------|

Breakdown


he first part is maybe a mix of guitar and whistle.

   D                                     G
E----------------------------------------------------------|
B-----------10~---10-12------------------------------------|
G--7-7-9/11-------------11/9-7~---9-7----------------------|
D-------------------------------------/7-9~----------------|
A----------------------------------------------------------|
E----------------------------------------------------------|


                          A             G              A
E----------------------------------------------------------|
B----------------------10--------12-10-----10---10-12------|
G---7-9-9b-9-7-9-9b-9b----9r~----------/11------------/11--|
D----------------------------------------------------------|
A----------------------------------------------------------|
E----------------------------------------------------------|

                  F#         G                       A
E----------------------------------------------------------|
B-------------------------------------------------10-------|
G---9~----7-9-/11-9-9-9-9-7------------7---7/9/11----9-----|
D---------------------------9~-----7h9---9-----------------|
A----------------------------------------------------------|
E----------------------------------------------------------|

         D
E----------------------------------------------------------|
B------7---------------------------------------------------|
G---9----7~------------------------------------------------|
D----------------------------------------------------------|
A----------------------------------------------------------|
E----------------------------------------------------------|


Verse 1 Chords: D C Bm A

    D             C             Bm         A

E---10r~----12rp10-12~------12b-10~------------------------|
B--------------------------------------12r-10~-------------|
G----------------------------------------------------------|
D----------------------------------------------------------|
A----------------------------------------------------------|
E----------------------------------------------------------|


       G  G/F# G/B  D

E----------------------------------------------------------|
B------7b---7---5---3~-------------------------------------|
G----------------------------------------------------------|
D----------------------------------------------------------|
A----------------------------------------------------------|
E----------------------------------------------------------|


Riff B

    D      C        Bm       A

E---2------------------------0-----------------------------|
B---3------1--------3--------2-----------------------------|
G---2------0--------4--------2-----------------------------|
D---0------2--------4--------2-----------------------------|
A-------2--3----5---2----3---0-----------------------------|
E----------------------------------------------------------|

Repeat riff B twice


Then Riff C

    G    G/F#   G/B     D

E---3-----3------3------2----------------------------------|
B---3-----3------3------3----------------------------------|
G---0-----0------0------2----------------------------------|
D---0-----0------0------0----------------------------------|
A---2-----0------2-----------------------------------------|
E---3-----2------0-----------------------------------------|

Repear twice riff D:


    D

E-------3-------3--------5-5-------2--------2--------------|
B-----3---3---3---3-3/5----------3---3----3---3------------|
G---2-------2------------------2--------2-------2----------|
D---0-------0------------------0--------0-------0----------|
A----------------------------------------------------------|
E----------------------------------------------------------|


Verse 2 and 3 progress: D A G D G A F# G A D

D                          A

Just like children hiding... What's going on outside

G                            D

Sometimes we're so far off...  We'll get taken for a ride

G                      A

By a parlor trick or a word of wit

F#                 G                      G

A Hidden hand up a sleeve to think that...

G                      A

...Is so little hard to believe... But everybody darlin...

A                             D

Sometimes bites the hand that feeds

G

Chorus: D G D G A

Solo 1:

E--------10--------10-----10----------------10----12b------|
B----13b----10-13b----13b----13b-13b-----13----13----------|
G----------------------------------------------------------|
D----------------------------------------------------------|
A----------------------------------------------------------|
E----------------------------------------------------------|

E-----12-10-12----10-12-12brp10-12~-------10-12-13b-13-12--|
B--------------13------------------------------------------|
G----------------------------------------------------------|
D----------------------------------------------------------|
A----------------------------------------------------------|
E----------------------------------------------------------|

E-----13--10-----10-----12----10h12p10----10---------------|
B------------13b-----------13----------13----13b~----------|
G----------------------------------------------------------|
D----------------------------------------------------------|
A----------------------------------------------------------|
E----------------------------------------------------------|

E-------10-13-15-15br-13-15-13-15b~--15rp13-15-15brp13-----|
B----13----------------------------------------------------|
G----------------------------------------------------------|
D----------------------------------------------------------|
A----------------------------------------------------------|
E----------------------------------------------------------|

E------15----13---17b~-------------17----------------------|
B---15----15------------17b-15-17b----17r-15------15-18----|
G----------------------------------------------16----------|
D----------------------------------------------------------|
A----------------------------------------------------------|
E----------------------------------------------------------|

E----------------------------------------10-------10-------|
B----17h18p17p15-17-18-15~-----13-10-13b----13p10----13p10-|
G----------------------------------------------------------|
D----------------------------------------------------------|
A----------------------------------------------------------|
E----------------------------------------------------------|

E----10----------------------10----------------------------|
B-------10h13p10----10----------10h13p10----10-----10------|
G----------------12----12b---------------12----12b---------|
D----------------------------------------------------------|
A----------------------------------------------------------|
E----------------------------------------------------------|

E----------------------------------------------------------|
B-----------------------------10/--------------------------|
G---12b-12brp10-12~-----12----10/--------------------------|
D----------------------------------------------------------|
A----------------------------------------------------------|
E----------------------------------------------------------|

E----------------------------------------------------------|
B----12~---10h12---10b---10b---7~--------------------------|
G----12~---10h12---10b---10b---7~--------------------------|
D----------------------------------------------------------|
A----------------------------------------------------------|
E----------------------------------------------------------|


Riff B 4 times

Here's lead guitar during verse

     D             C          Bm            A

E----10~---12brp10-12~----12b-10~-------17b-17~---17b------|
B----------------------------------------------------------|
G----------------------------------------------------------|
D----------------------------------------------------------|
A----------------------------------------------------------|
E----------------------------------------------------------|


Then Repeat: D A G D G A F# G A D   then G

Then chorus: D G A D G A

On second time, lead plays this cool rythmm

     D           G                       A
E----------------------------------------------------------|
B----------------------------------------------------------|
G----------------------------------------------------------|
D----------------------------------------------------------|
A----5-3-5-3-5p3----------------------------------3b-------|
E----------------5-4-3-1-3-1-3-3-1-3-1-3-5-3-5~-3----5-----|

Then solo 2:

Repeat this line for a while...

E----------------------------------------------------------|
B-------10-10-----10-10-----10-----10-10-----10-10-----10--|
G---12b-------12b-------12b----12b-------12b-------12b-----|
D----------------------------------------------------------|
A----------------------------------------------------------|
E----------------------------------------------------------|

E----------------------------------------------------------|
B----------------------------------------------------------|
G---12brp10----10~-------------10----10br------------------|
D-----------12-----12-12----12----12------12-12~-----------|
A----------------------------------------------------------|
E----------------------------------------------------------|

E----------------------------------------------------------|
B--------------------------------------15---15-15-18b-18b--|
G----------------------------------/16----16-16------------|
D-----12-10-10/9-9/7-7/5-5/3-3~----------------------------|
A----------------------------------------------------------|
E----------------------------------------------------------|

E---------20--------------20b-22------22--------22---------|
B-----20b----20rp18----18-------20b~~~~-20b~~~~----20b~~~--|
G-------------------19-------------------------------------|
D----------------------------------------------------------|
A----------------------------------------------------------|
E----------------------------------------------------------|

E----------------------------------------------------------|
B----18----18h20--/18-18-18--------------------------------|
G-------19-------------------19-17-19-19-17----17~---------|
D-------------------------------------------19-------------|
A----------------------------------------------------------|
E----------------------------------------------------------|


E----------------------------------------------------------|
B------10-13-13-13-13-13-13-13-13-13-13-13p12p10-----------|
G---12-------------------------------------------12--------|
D----------------------------------------------------------|
A----------------------------------------------------------|
E----------------------------------------------------------|

E----------------------------------------13-12h13p12p10----|
B----10-13-13-13-13-13-13-13-13p12p10----------------------|
G-------------------------------------12-------------------|
D----------------------------------------------------------|
A----------------------------------------------------------|
E----------------------------------------------------------|


E------12----10h12p10----10-------10-----------10------10--|
B---13----13----------13----13b------------13b-----13b-----|
G----------------------------------------------------------|
D----------------------------------------------------------|
A----------------------------------------------------------|
E----------------------------------------------------------|

E----------------------------------------------------------|
B------10h13p10----10h13p10----13-13~-10-13~-------10-10---|
G---12----------12----------12-----------------12b---------|
D----------------------------------------------------------|
A----------------------------------------------------------|
E----------------------------------------------------------|


E----------------------------------------------------------|
B-------10-10-----10-----10-----10-10----etc...------------|
G---12b-------12b----12b----12b----------------------------|
D----------------------------------------------------------|
A----------------------------------------------------------|
E----------------------------------------------------------|

Repeat this for a while.

E----------------------------------------------------------|
B---13-12h13-10-13p10----13-12h13-10-13p10-----------------|
G---------------------10-------------------10--------------|
D----------------------------------------------------------|
A----------------------------------------------------------|
E----------------------------------------------------------|


E----------------------------------------------------------|
B---------------13---------12b--10----13p12p10-12-10-------|
G----12~-10-12b----12r-10--12b--10-------------12-10-------|
D----------------------------------------------------------|
A----------------------------------------------------------|
E----------------------------------------------------------|


E----------------------------------------------------------|
B----12--10----13p12p10-12-10-------10-10-----10-10-etc.---|
G----12--10-------------12-10---12b-------12b--------------|
D----------------------------------------------------------|
A----------------------------------------------------------|
E----------------------------------------------------------|



Pretty Tied Up


Tuning: 1/2 step down
Riff A: (0:23)
eb|---------------------------|
Bb|-----15---15------15---15x-|
Gb|--14---------14------------|
Db|---------------------------|
Ab|---------------------------|
Eb|---------------------------|

Riff B: (1:26)
eb|--2------------------------|
Bb|------3---1---3~~~~~~~~b4--|
Gb|---------------------------|
Db|---------------------------|
Ab|---------------------------|
Eb|---------------------------|

Intro:
eb|---------------------------|
Bb|------2-3-5-3-2-2h3-2------|
Gb|--0h3-----------------3-2--|
Db|---------------------------|
Ab|---------------------------|
Eb|---------------------------|

Repeat as many times needed:
(this is played before and after the drums start)
eb|----------------------------------|
Bb|----------------------------------|
Gb|--2---0-2---0-2-0-2--0-2-2h3p2-0--|
Db|--0---0-0---0-0-0-0--0-0-0-----0--|
Ab|----------------------------------|
Eb|----------------------------------|

Verse:
Repeat for the first two lines.(twice for each one)
eb|----------------------------------|
Bb|----------------------------------|
Gb|--2---0-2---0-2-0-2--0-2-2h3p2-0--|
Db|--0---0-0---0-0-0-0--0-0-0-----0--|
Ab|----------------------------------|
Eb|----------------------------------|
I know this chick she lives down on Melrose
She ain't satisfied without some pain

G5              E5         D5
Friday night is goin' up inside her... again
     G5                         F#5      E5     D5
Well crack the whip 'Cause that bitch is just insane
I'm serious

Chorus:
      A5     C5   D5
She's pretty tied up Hangin' upside down
      A5     C5   D5
She's pretty tied up An you can ride her


Guitar Solo:
|----------------10---------------------10------------------10------------|
|-13fb--------------13p10-13----(13)fb-----13p10-13p10-13fb----13p10-13fb-|
|-------------------------------------------------------------------------|
|-------------------------------------------------------------------------|
|-------------------------------------------------------------------------|
|-------------------------------------------------------------------------|

|-10--------------10-------13-----------10--------------------------------|
|----13p10-13fb------13p10----13fb~~~~~----13p10h12hb---rp10--------------|
|-------------------------------------------------------------------------|
|---------------------------------------------------------------12--12~~~-|
|-------------------------------------------------------------------------|
|-------------------------------------------------------------------------|

|-----------------------12hb--12~~~~-10-12-13fb--13-12-13-10h13p10----10-|
|-10-12-12hb--12----10---------------------------------------------13----|
|-10-12-12fb--12----10---------------------------------------------------|
|----------------12------------------------------------------------------|
|------------------------------------------------------------------------|
|------------------------------------------------------------------------|

|-------13-1515fb-15fb-15fb-15fb-15fb-15fbrp13-15-15fb-13hb--15-13-15fbrp13-|
|-13/15-12------------------------------------------------------------------|
|---------------------------------------------------------------------------|
|---------------------------------------------------------------------------|
|---------------------------------------------------------------------------|
|---------------------------------------------------------------------------|

|-15-15fb-13------------------19-(19)hb-19~~-15-17-19-17h19p17p15-------|
|------------15-15~~-15~~~-15-------------------------------------18~~~-|
|-----------------------------------------------------------------------|
|-----------------------------------------------------------------------|
|-----------------------------------------------------------------------|
|-----------------------------------------------------------------------|

|-10-13p12p10----12----10h12p10----10-------10-----------------------|
|-------------13----13----------13----12h13----13p12p10--------------|
|-------------------------------------------------------12/\/\/\/\/\-|
|--------------------------------------------------------------------|
|--------------------------------------------------------------------|
|--------------------------------------------------------------------|

|--------------------------12hb---r~~~~~~~~~~~~~~~~~~~~~~~-12fb--10~~~~-15\---|
|-10-----------------------------------------------------------------------\--|
|----12/\/\(12)p10-12-10------------------------------------------------------|
|-----------------------------------------------------------------------------|
|-----------------------------------------------------------------------------|
|-----------------------------------------------------------------------------|

      A5     C5   D5
She's pretty tied up Hangin' upside down
F5      G5                       D5
I can't tell you she's the right one (Oh no, oh no, oh no)

Locomotive


Intro:
|-------------------|-------------------------|--------------------------|
|-------------------|-------------------------|--------------------------|
|-------------------|-------------------------|--------------------------|
|-------------------|-------------------------|--------------------------|
|-0-0---0-0---0-0---|-0---0-0---0-0-0---0-----|-0---0-0---0-0-0---0-0----|
|-----3-----3-----2-|---2-----2-------2---3-5-|---3-----3-------0-----2--|

|--------------------------|-------------------------|-------------------|
|--------------------------|-------------------------|-------------------|
|------------------------5-|-2-----------------------|-------------------|
|------------------------5-|-2-----------------------|-------------------|
|-0---0-0---0-0-0---0------|---0-0-0---0-0-0---0-----|0---0-0---0-0------|
|---2-----2-------2---3----|---------3-------3---0-2-|--2-----2-----3-2-0|

|-------------------|-----|-----|----------------------------------------|
|-------------------|-----|-----|----------------------------------------|
|-7h9--7h9-7---7--9-|-----|-----|-9--7h9---------------------------------|
|-7h9--7h9-7---7--9-|--s--|--s--|-9--7h9---5----5------------------------|
|-7----7---7---7--7-|-----|-----|-7--7-----5----5------------------------|
|-------------------|-----|-----|----------3----3------------------------|


 rhy.fig.1
|----------------------------------------------------------------|---|---|
|----------------------------------------------------------------|---|---|
|----------------------------------------------------------------|-%-|-%-|
|----------------------------------------------------------------|---|---|
|------0-----0-----0-----0-----------0-----0-----0-----0---------|---|---|
|--3fb---3-5---3-5---3-5---0-3-0-3-5---3-5---3-5---3-5---0-0-3-0-|---|---|

verse:
w/rhy.fig.1

chorus:

   A5                                 A5
|------------------------------------------------------------------------|
|------------------------------------------------------------------------|
|------------------------------------------------------------------------|
|------------------------------------------------------------------------|
|------------------------------------------------------------------------|
|-5-5~~~------------------0-3-5-5-3---5-5~~~-------------------0-3-5-5-3-|
 my baby's got a locomotive        my baby's gone off the track

    A5                                      A5
|-----------------------------------------------------------------------|
|-----------------------------------------------------------------------|
|-----------------------------------------------------------------------|
|-----------------------------------------------------------------------|
|-----------------------------------------------------------------------|
|-----5-5~~~------------------0-3-5-5-3-5-5~~~~----------------0-3-5-5--|
   my baby's got a locomotive got ta peel the bitch off my back

 D5 A5  D5     A5     N.C.      D5 A5   D5 A5 N.C.    D5    A5   D5
   I  know it  looks like   i'm insane                  take a closer

 A5   N.C.     D5  A5   C5
look i'm   not to blame

 Interlude 1;
|-------------------------------------------------5-----5---5---------|
|-----------------------------------------------5-5-5-8---8---8-7-8-7-|
|-------------------------------------5-6---5h6-----------------------|
|-------------------------5---7---5h7-----7---------------------------|
|-----3-------3h4---3-5/7---7---7-------------------------------------|
|-3h5---5-5-5-----x---------------------------------------------------|

|-----------------------------------------------------------------------------|
|-8p7\6-6-5h6p5\4-5--5-4-3-4-3------------------------------------------------|
|------------------------------5---7---5--------------5h7p5-------------------|
|--------------------------------7---7----7-5-7hb-5---------7p5---------------|
|---------------------------------------------------7-----------7-5-3---------|
|---------------------------------------------------------------------5-3-5~~-|

 Interlude 2;
|--------------------------------------------------7--------8-7------|
|--------------------7---------8--7----7--10-8-7-----10-7-------10-7-|
|-8-7-------9-8-7-------9-7---------9------------9--------9----------|
|-----10-7--------10--------10---------------------------------------|
|--------------------------------------------------------------------|
|--------------------------------------------------------------------|

|-7---8-------------15----17----17-20-17----20----17-20-17----17------17-|
|---7---10-17-15-------17----20----------20----20----------20----20fb----|
|----------------17------------------------------------------------------|
|------------------------------------------------------------------------|
|------------------------------------------------------------------------|
|------------------------------------------------------------------------|

|-17-----------------------------------------------------------------|
|----20-17----17-20-17-----------------------------------------------|
|----------19----------17fbr-15----17-15-----------------------------|
|-------------------------------17-------17-15-----------------------|
|--------------------------------------------------------------------|
|--------------------------------------------------------------------|

 Interlude 3;
|----------------------------------------------------------------------------|
|----------------------------------------------------------------------------|
|-17p16p14-----------17p16p14-----------17p16p14-----------17p16p14----------|
|----------17p16p14-----------17p16p14-----------17p16p14-----------17p16p14-|
|----------------------------------------------------------------------------|
|----------------------------------------------------------------------------|

|-----------------------------------------------------------------------------------------------|
|----14-----------------------------------------------------------------------------------------|
|-17----14-17-14----14------14----14------------------------------15-------14----15-------14----|
|----------------17----17fb----17----17-14-17-14-17------17-14-17----14-17----17----14-17----14-|
|---------------------------------------------------17fb----------------------------------------|
|-----------------------------------------------------------------------------------------------|

|---------------------------------------------------------------------------------------|
|----16h17---17----17-------17----------------------------------------------------------|
|---------17----17----17-17----17-16-17-16-17p16--14----16\14-14-12-14--(14)~~~~-(14)\2-|
|-17-------------------------------------------------16---------------------------------|
|---------------------------------------------------------------------------------------|
|---------------------------------------------------------------------------------------|

 Guitar Solo;
|-------------------------------------------------------------------------------------|
|-----5---5-----------5---5-----------8---5-----5-----5-----5-----5-----------5---5---|
|-7fb---7---5-----7fb---7---5-----7fb---7---7fb---7fb---7fb---7fb---5-----7fb---7---5-|
|-------------7-5-------------7-5-------------------------------------7-5-------------|
|-------------------------------------------------------------------------------------|
|-------------------------------------------------------------------------------------|

|--------------------------5----5---5----------------------------------------|
|-----7hbrp5---5-------8fb---r8---8---8-5-8---5-----5----5~~-7-5-7-5-7-7-5-7-|
|------------7---5--------------------------8---7-8---7--5---7-5-7-5-7-7-5-7-|
|-7-5--------------7-5-----------------------------------5---7-5-7-5-7-7-5-7-|
|----------------------------------------------------------------------------|
|----------------------------------------------------------------------------|

|------------------------------------------------------------------------|
|------5-7-5h7p5---7---5h7p5---------------------------------------------|
|-5----5-7-5h7p5---7---5h7p5---------------------------------------------|
|---7--5-7-5h7p5-7---7-------5-7-5h7-5---7---5-7---5-7-5-5-5---7---7-5---|
|----------------------------5-7-5h7---7-7-7-5-7-7-5-7-5-7---7-7-7-5-7-7-|
|------------------------------------------------------------------------|

|------------------------------10--7------7~~~-7--------------------------|
|------------------------------10----10fb--------9-8-7rhb-----------------|
|----------------------7-9fb-9----------------------------9~~~-9-7--------|
|---------------6hb~~~----------------------------------------------9-8-7-|
|-------------------------------------------------------------------------|
|-5fb~~~-8fb~~~-----------------------------------------------------------|

|-------------------------------------------------------------------------------|
|------------------/14-14-x-x-13-12-12-x-x-11-10-9-8-7-7p5-----5-(5)~~~------x/-|
|------------------/14-14-x-x-13-12-12-x-x-11-10-9-8-7-7p5-----5-(5)~~~------x/-|
|------7---------------------------------------------------7-7----------/14\----|
|-10-7---10/11~~~---------------------------------------------------------------|
|-------------------------------------------------------------------------------|

Song Flow:

Intro
Verse1
Interlude1
Verse2
Chorus
Interlude 2
Cerse3
Interlude 3
Verse4
Chorus
Guitar solo
Verse
Chorus
Outro

So Fine

|---3---2--2----|-----0-----------------|---3---2--2--------|
|-0--3-3----3-0-|--------3--0------1----|-0--3-3----3--0----|
|-0---0------0--|----4----------0-----0-|-0---0------0------|
|-0-------------|--------------0--------|-0-----------------|
|---------------|-2---------------3-----|-------------------|
|-3-------------|-----------------------|-3-----------------|

|------0--------------|----3---2---2----|------0---------------|
|--------3------3-----|-----3-3-----3-0-|--------3--0-----1----|
|----4-------0------0-|------0-------0--|----4---------0-----0-|
|-----------2--0--0---|-3---------------|----------------------|
|-2--------3----------|-----------------|-2--------------------|
|---------------------|-0---------------|----------------------|

                                          1st, 2nd Verses
|----3---2-------|-------0--------------||----3---2---------|
|-0---3-3-----0--|---------3--------3---||o----3-3--------0-|
|-0----0-----0---|-----4-------0------0-||------0--------0--|
|-0--------------|------------2---0-----||--0---------------|
|----------------|-2---------3----------||o-----------------|
|-3--------------|----------------------||--3---------------|

|-----0------------|---3---2---2----|-----------------------|
|-------3--0---1---|-0--3-3-----3-0-|--------3----------3---|
|---4--------0---0-|-0---0-------0--|----4----------0-----0-|
|------------------|-0--------------|-------------2---0-----|
|-2----------------|----------------|-2---------3-----------|
|------------------|-3--------------|-----------------------|

|---3---2---2----|------0----------------|
|-0--3-3-----3-0-|--------3---0-----1----|
|-0---0-------0--|----4----------0-----0-|
|-0--------------|-----------------------|
|----------------|-2---------------------|
|-3--------------|-----------------------|

|-----3-------2--------|--------0---------------------|
|------3-----3-------0-|-----------3---------0--------|
|----------0-------0---|------4----------0---2---0----|
|--3-------------------|---------------2--------------|
|----------------------|-2-----------3----------------|
|--0-------------------|------------------------------|

|-----0-------------|------------------------0-----|
|-----0----------1--|---------------1--------------|
|-----0-0-----------|----------0-------------------|
|-----2--0----2-----|------2-----------------------|
|---------0---------|-3----------------------------|
|-0-----------------|------------------------------|
                    | 1.--                          |
|----0--------------|--------------------------0----||
|----0-----------1--|---------------1--------------o||
|----0-0------------|---------0---------------------||
|----2--0----2------|-----2-------------------------||
|--------0----------|-3----------------------------o||
|-0-----------------|-------------------------------||


|2.
|---------------------|----0-----------------|
|----------1--1h3--1--|----0----------------1|
|-------0-------------|----0-0---------------|
|----2----------------|----2-----0-----2-----|
|-3-------------------|-------------0--------|
|---------------------|-0--------------------|

|-----------------0-----------|----0---------------|---------0-----------|
|--------------1-----1--------|----0---------1-----|-------1---1---------|
|-----------0------------0----|----0-0-------------|-----0-------0-------|
|------2--------------------2-|----2---0---2---2-0-|---2-----------------|
|-3---------------------------|----------0---------|-3-------------------|
|-----------------------------|-0------------------|---------------------|

|------------------|-----------------|----------------|------------------|
|------------------|-----------------|----------------|------------------|
|------------------|-----------------|----------------|------------------|
|-7--9--7--7h9-----|-9---9-9-9----9--|--------------7-|-7--9--7--9-------|
|-5--5--5--5-----7-|-7---7-7-7----7s-|-5--7--5--5---5-|-5--5--5--5-------|
|------------------|-----------------|-3--3--3--3-----|------------------|

Solo:
|-----------------------|---------|---------------------|----------------|
|s12----12-12-12s15--12-|-10s12---|-12s-12-12-12s15--12-|-12s11-12s17-15-|
|-----------------------|---------|---------------------|----------------|
|-----------------------|---------|---------------------|----------------|
|-----------------------|---------|---------------------|----------------|
|-----------------------|---------|---------------------|----------------|

|-15-15-15s14-14-14s12-12-12s10-10s|14--14-10s-s10-|-10------------------|
|----------------------------------|---------------|----12-12-12s15-12---|
|----------------------------------|---------------|---------------------|
|----------------------------------|---------------|---------------------|
|----------------------------------|---------------|---------------------|
|----------------------------------|---------------|---------------------|

|----------------||------------------------------------------------------|
|s12--12s17-17s--||------------------------------------------------------|
|-----------17s--||------------------------------------------------------|
|----------------||------------------------------------------------------|
|----------------||------------------------------------------------------|
|----------------||------------------------------------------------------|

|-----0----------------|------------3---|-0--0--0--------------|---------|
|--------3-------------|---------3------|-3--3--3--------------|-3-------|
|----4---------0-------|-------0--------|-4--4--4-----0--------|-0-------|
|------------2---------|-----0----------|-4--4--4---2----------|-0-------|
|-2--------3-----3-2-0-|---2------------|---------3-----3-2-0--|---------|
|----------------------|-3--------------|----------------------|-3-------|



Estranged


Gm7         C              Gm7         C
|--|----|------|--------|-----|----|------|--------|--------------------||
|--|----|------|--------|-----|----|------|--------|--------------------||
|--|----|------|--------|-----|----|------|--------|-----12b------------||
|--|----|------|--------|-----|----|------|--------|--------------------||
|--|-10-|-(10)-|-(10)s3-|--3--|-10-|-(10)-|-(10)s3-|-(3)----------------||
|--|----|------|--------|-----|----|------|--------|--------------------||

 G5                                 C5
|------------|-------13b----10-----|----------------13-----|-------------|
|----11--15b-|----11------------13-|-13--13-----13b----13b-|-13---(13)s--|
|-12---------|-12------------------|-----------------------|-------------|
|------------|---------------------|-----------------------|-------------|
|------------|---------------------|-----------------------|-------------|
|------------|---------------------|-----------------------|-------------|

 G5                                      C5
|------------------|-------13b---10-----|-------------13----|
|-----11--15b-(15)-|----11----------13b-|-13-(13)-13b----13-|
|-s12--------------|-12-----------------|-------------------|
|------------------|--------------------|-------------------|
|------------------|--------------------|-------------------|
|------------------|--------------------|-------------------|

                             Bb5             C5                G5
|------------------------||---------13----|-----------------|------------|
|-13---13b15p11-13p11----||-11--13b----13-|-13------13--12b-|--(12)bbbb--|
|---------------------12-||---------------|-----------------|------------|
|------------------------||---------------|-----------------|------------|
|------------------------||---------------|-----------------|------------|
|------------------------||---------------|-----------------|------------|

                       Bb5                C5             G5
|---------------------|------------13----|--------------|------|---------|
|(12)-13p12--13b13p12-|-11----13b-----13-|---13--13-----|------|---------|
|---------------------|------------------|----------14b-|-(14)-|-(14)----|
|---------------------|------------------|--------------|------|---------|
|---------------------|------------------|--------------|------|---------|
|---------------------|------------------|--------------|------|---------|

                      Riff A
 Eb5  F5              G5                   C5           Eb5   F5
|----|--------------||----------------------|------------------------|
|-11-|-(11)---(11)s-||----------13s15-(15)s-|-------13s15-(15)-13p12-|
|----|--------------||-------12-------------|----12------------------|
|----|--------------||----12----------------|-10---------------------|
|----|--------------||-10-------------------|------------------------|
|----|--------------||----------------------|------------------------|

 G5                                   Eb5  F5     G5
|-----------------------|------------------------|-----------------------|
|-13p12------(15)-(15)s-|-------13s15-(15)-13p12-|-13p12--------15-(15)--|
|-------12--------------|----12------------------|-------12--------------|
|----------12-----------|-10---------------------|----------12-----------|
|-----------------------|------------------------|-----------------------|
|-----------------------|------------------------|-----------------------|

                (end Riff A)
 Eb5 F5  G5     Eb5   F5      Gm   F      Eb     G
|-------|------|------------||----|------|------|------|---------15--17b-|
|-15s13-|-13b--|-11---11p10-||----|------|------|------|-----------------|
|-------|------|------------||-12-|-(12)-|-(12)-|-(12)-|-(12)------------|
|-------|------|------------||----|------|------|------|-----------------|
|-------|------|------------||----|------|------|------|-----------------|
|-------|------|------------||----|------|------|------|-----------------|

 F      Eb                           G5  F5           G5
|-(17)-|---------------------|----------|------------|-------------------|
|------|-s13--11-10---11br10s|8------8--|------------|-------------------|
|------|---------------------|----------|-10b---(10)-|-(10)--------------|
|------|---------------------|----------|------------|-------------------|
|------|---------------------|----------|------------|-------------------|
|------|---------------------|----------|------------|-------------------|

F5                                   G5
And what more could you ask from me?

F5
How could you say that I never need-

G5          Eb5                   D5
-ed you_    when you took everything

F5
said you took everything from me?

 w/Riff A
 G5           C5  Eb5    F5  G5             C5   Eb5     F5 G5   Eb5 F5
|------------|--------------|--------------|---------------|----|--------|
|------------|--------------|--------------|---------------|----|--------|
|------------|--------------|--------------|---------------|----|--------|
|------------|----1-1-1-1-3-|--5-----------|-----1-1-1-1-3-|-5--|--(5)---|
|-----5--6-5-|-3------------|------5---6-5-|--3------------|----|--------|
|-3----------|--------------|--------------|---------------|----|--------|

 G5    Eb5   Gm    F      Eb     Gm                     F
|-----|-----||-----|------|------|------|-----15--15s17-|-18----18s20-|
|-----|-----||-----|------|------|------|---------------|-------------|
|-----|-----||-12--|-(12)-|-(12)-|-(12)-|-(12)----------|-------------|
|-(5)-|-(5)-||-----|------|------|------|---------------|-------------|
|-----|-----||-----|------|------|------|---------------|-------------|
|-----|-----||-----|------|------|------|---------------|-------------|

 Eb                     Gm     Gm7                C
|-(20)---18--17-18--15-|-15--||-(15)-----|-(15)--|-------------|--------||
|----------------------|-----||----------|-------|-------------|--------||
|----------------------|-----||----------|-------|-------------|----12b-||
|----------------------|-----||----------|-------|-------------|--------||
|----------------------|-----||-------10-|-(10)--|-(10)--10-s3-|-(3)----||
|----------------------|-----||----------|-------|-------------|--------||

 G5                                C5
|-------------|-------13b--10-----|---------------13----|
|----11--15b--|----11---------13b-|-13--(13)-13b-----13-|
|-12----------|-12----------------|---------------------|
|-------------|-------------------|---------------------|
|-------------|-------------------|---------------------|
|-------------|-------------------|---------------------|

                                  Bb5               C5
|-----------13------------------||-----------13----|---------------------|
|-13----13b-----13br(13)p11-----||-11---13b-----13-|-(13)---13---12b-----|
|----------------------------12-||-----------------|---------------------|
|-------------------------------||-----------------|---------------------|
|-------------------------------||-----------------|---------------------|
|-------------------------------||-----------------|---------------------|

 G5                           Bb5               C5
|----------|-----------------|------------13---|------------13--15-------|
|-(12)-----|-------13p12--12-|-11----13b----13-|--13---13b---------------|
|-------14b|-(14)------------|-----------------|-------------------------|
|----------|-----------------|-----------------|-------------------------|
|----------|-----------------|-----------------|-------------------------|
|----------|-----------------|-----------------|-------------------------|

 G5                    C5
|-(15)-|-(15)---13p12-|-----|------||
|------|--------------|-13--|--13--||
|------|--------------|-----|------||
|------|--------------|-----|------||
|------|--------------|-----|------||
|------|--------------|-----|------||

 (Bass gtr & piano)
|------------------------------------------------------------------------|
|------------------------------------------------------------------------|
|------------------------------------------------------------------------|
|------------------------------------------------------------------------|
|------------------------------------------------------------------------|
|------------------------------------------------------------------------|

 C5           Eb5                    C5            Eb5
|------------|----------------------|-------------|----------------------|
|------------|----------4---4p3-----|-3-----------|---------4--4p3-4p3---|
|-----5------|--------3---------5p3-|-----5-------|-------3-----------5p3|
|---5--------|----3h5---------------|---5---------|---3h5----------------|
|-3------3-5-|-6--------------------|---------3-5-|-6--------------------|
|------------|----------------------|-------------|----------------------|

 C5           Eb5                   Bb      F              C
|------------|---------------------|----|--|-1------------|-0------------|
|-3----------|-----------4--3------|-3--|--|-1------------|-1--------1---|
|-----5------|--------3-------5--3-|----|--|-2---------2--|-0------0-----|
|---5--------|---3--5--------------|----|--|-3-------3----|-2----2-------|
|--------3-5-|-6-------------------|----|--|-3-----3------|-3--3---------|
|------------|---------------------|----|--|-1---1--------|--------------|

 G             Bb   C     Bb    C     Bb    F             G/F
|-------------|----|-----|-----|--0--|-----|-------------|---------------|
|-3-----------|-3--|--1--|--3--|--1--|--3--|--1----------|-3-------------|
|-0---------0-|-3--|--0--|--3--|--0--|--3--|--2--------2-|-0--------0----|
|-0-------0---|-3--|--2--|--3--|--2--|--3--|--3------3---|-0------0------|
|-2-----2-----|-1--|--3--|--1--|--3--|--1--|--3----3-----|-2----2--------|
|-3---3-------|----|-----|-----|-----|-----|--1--1-------|-3--3----------|

 Bb/F          F               C            G              Bb/F
|------------|---------------|-------------|--------------|----|
|-3--------3-|-1---------1---|-1---------1-|-3------------|-1--|
|-3------3---|-2-------2---0-|-0-------0---|-0--------0-0-|-3--|
|-3----3-----|-3-----3-------|-2-----2-----|-0------0-----|-3--|
|-1--1-------|-3---3---------|-3---3-------|-2----2-------|-3--|
|------------|-1-------------|-------------|-3--3---------|-1--|

                             C    G           F
|-------------------------|-0--|-----------|---------|
|-------------------------|-1--|-----------|---------|
|-------------------------|-0--|-----------|---------|
|-------3-------------3---|-2--|-----------|---------|
|-------------------------|-3--|-----------|---------|
|-1--1----1--1--1--1----1-|----|-----------|---------|

                            C                         G
|-------------------------|-0--|-----------|-0--------|------------------|
|-------------------------|-0--|--1--1-----|-1--------|-3----------------|
|-------------------------|-0--|--0-----0--|-0------0-|-0--------0-------|
|-------3-------------3---|-2--|--2--------|-2----2---|-0------0---------|
|-------------------------|-3--|--3--------|-3--3-----|-2----2-----------|
|-1--1----1--1--1--1----1-|----|-----------|----------|-3--3-------------|


  F            C            G             F             C
|------------|--0--------|-------------|-------------|--0----------------|
|-1--------1-|--1--------|--3----------|--1--------1-|--1--------1-------|
|-2------2---|--0------0-|--0--------0-|--2------2---|--0------0---------|
|-3----3-----|--2----2---|--0------0---|--3----3-----|--2----2-----------|
|-3--3-------|--3--3-----|--2----2-----|--3--3-------|--3--3-------------|
|-1----------|-----------|--3--3-------|--1----------|-------------------|


  G   F     C              G            F            C
|--------|--0-----------|-------------|------------|-0-------------------|
|-3---1--|--1---------1-|--3----------|-1--------1-|-1---------1---------|
|-0---2--|--0-------0---|--0--------0-|-2------2---|-0-------0-----------|
|-0---3--|--2-----2-----|--0------0---|-3----3-----|-2-----2-------------|
|-2---3--|--3---3-------|--2----2-----|-3--3-------|-3---3---------------|
|-3---1--|--------------|--3--3-------|-1----------|---------------------|

 G             F            C           G   F
|------------|------------|-----------|-------||
|-3----------|-1--------1-|-1-------1-|-3---1-||
|-0--------0-|-2------2---|-0-----0---|-0---2-||
|-0------0---|-3----3-----|-2---2-----|-0---3-||
|-2----2-----|-3--3-------|-3-3-------|-2---3-||
|-3--3-------|-1----------|-0---------|-3---1-||


 Guitar solo I
 C                           Am
|---------------------------|---------------------------|
|---------------------------|---------------------------|
|-5----------------5h7p5----|--5b---5-----------5h7p5---|
|-------------5h7--------(7)|--------------5h7-------(7)|
|---------------------------|---------------------------|
|---------------------------|---------------------------|

 C                            F
|---------------------------|------------------------------|
|-8-------------------------|----------------------------6-|
|-----7b---7--5h7p5s4-5p4---|------------------------5s7---|
|-------------------------5-|--5b-3-5---3--5--3--5s7-------|
|---------------------------|---------5--------------------|
|---------------------------|------------------------------|

                                        C
|-----6---6------8-8-8-----8-----8----|-------------------------------|
|-6s8---8---8s10-------11b---11b---11b|-11----------------------------|
|-------------------------------------|------------------17h19p17-----|
|-------------------------------------|------------17h19---------(19)-|
|-------------------------------------|-------------------------------|
|-------------------------------------|-------------------------------|

      G                                      F
|--------------------------------------|-----------------------------------|
|--------------------------------------|-----20---------------------20p18--|
|--17b-----17----------17h19p17--------|-19b-------17------17--19----------|
|--------------17h19-------------(19)--|-----------------------------------|
|--------------------------------------|-----------------------------------|
|--------------------------------------|-----------------------------------|

|----------------------------------------------|-----------------------------------|
|--18p17---18p17-18p17----17-----17------------|--------------17--18--20--18b------|
|----------------------19----19b----19--17-----|--19b~---19-------------------17b~-|
|------------------------------------------19--|-----------------------------------|
|----------------------------------------------|-----------------------------------|
|----------------------------------------------|-----------------------------------|

Pre-solo
   /-w/delay-------F5------------\------------------------------------------|
|------------------------------------|--------------------------------------|
|--13b---13b------------------13b----|15b-15-p13--15b--15b-15-13--13-15-13--|
|--------------12b--12b--12b---------|----------14---14---------14----------|
|------------------------------------|--------------------------------------|
|------------------------------------|--------------------------------------|
|------------------------------------|--------------------------------------|

 Guitar solo II
 C5                              G5
|------18----------18-----------|----18----------18----------------------|
|-18b-----18----18----18--16----|-18b---18----18----18--16---------------|
|----------------------------17-|--------------------------17------------|
|-------------------------------|----------------------------------------|
|-------------------------------|----------------------------------------|
|-------------------------------|----------------------------------------|


 F5                          C5        G5            C5
|---------------------------|----------------------|---------------------|
|-15--15--------------------|----------------------|---------------------|
|--------17----15-----------|----------------------|--------15-----------|
|------------------17-15-13-|-----15b-----------13-|(13)--15b-15b-13-15b-|
|---------------------------|-15----------13h15----|---------------------|
|---------------------------|----------15----------|---------------------|

 G5
|---------------------------------------15---|
|---------------------15h16p15--15-16-18--18-|
|------15-17-17--15-17--------17-------------|
|-15-17--------17----------------------------|
|--------------------------------------------|
|--------------------------------------------|

 F5
|-18--15h18p15--15---------------------|---------------------------------|
|---18--------15---18b--18--16--16-----|---------------------------------|
|-----------------------------17--17p15|-17-17-15--15--------------------|
|--------------------------------------|---------17--17-15-13-15-13----15|
|--------------------------------------|---------------------------15-13-|
|--------------------------------------|---------------------------------|

 C5
|------------|-----------------------------|----------------------------||
|------------|-----------------------------|----------------------13----||
|------------|-----------------------------|-------------------12-------||
|-(15)-------|-(15)------------------------|----------------14----------||
|------------|-----------------------------|-------------15-------------||
|------------|-----------------------------|----------------------------||

 G               F             C
|--------------|-------------|---------10s12-----|
|-12--------12-|-10-------10-|-8-----------------|
|-12------12---|-10-----10---|-9-----------------|
|-12----12-----|-10---10-----|-10----------------|
|-10--10-------|-8---8-------|-------------------|
|--------------|-------------|-------------------|

 G                 F            C                G5
|--10------------|------------|-0------------|-0--||
|----------13s15-|--10--13s15-|-1s13---------|-1--||
|-------12-------|------------|-0------------|-0--||
|-----10---------|------------|-2------------|-2--||
|----------------|------------|-3----0-------|-3--||
|----------------|------------|---------3--0-|----||

 A5               G5                 F5           G5
 I knew the storm was getting clo-        er

 A5                G5               F5             G5
 And all my friends said I was high._________

 A5            G5             F5         G5 A5     G5            F5      E
 But evrything we've ever known's here.     I never wanted it to die


 D5  C5   F            C
|---|---|-1---|-(1)--|-0-||
|---|---|-1---|-(1)--|-1-||
|---|---|-2---|-(2)--|-0-||
|---|---|-3---|-(3)--|-2-||
|---|---|-3---|-(3)--|-3-||
|---|---|-1---|-(1)--|---||

You could be mine

Intro
  Q=152
  N.C.
 4/4
  Gtr I
    PM---------------------------------------------------------------------
    S    S    S    S    S    S    S    S   S   S   S   S   S   S   S   S
|-------------------------------------------------------------------------|
|-------------------------------------------------------------------------|
|-------------------------------------------------------------------------|
|-------------------------------------------------------------------------|
|-------------------------------------------------------------------------|
|-<12>-<12>-<12>-<12>-<12>-<12>-<12>-<12>-<9>-<9>-<9>-<9>-<9>-<9>-<7>-<7>-|


 -------------------------------------------------------------|
   S   S   S   S   S   S   S   S   S   S   S   S   S   S   S   S    H    Q   Q
|-----------------------------------------------------------------|-------------|
|-----------------------------------------------------------------|-------------|
|-----------------------------------------------------------------|-------------|
|-----------------------------------------------------------------|------x/-----|
|-----------------------------------------------------------------|------x/-----|
|-<7>-<7>-<7>-<7>-<7>-<7>-<7>-<7>-<5>-<5>-<4>-<4>-<3>-<3>-<3>-<3>-|-------------|


  N.C(F#m)
  Gtr II
                  >       <
                                                  ~~~~
  Q   H.         +H      +H        +W            +W
|----14-------|-(14)----(14)----|-(14)--------|-(14)----|
|----14-------|-(14)----(14)----|-(14)--------|-(14)----|
|----14-------|-(14)----(14)----|-(14)--------|-(14)----|
|-------------|-----------------|-------------|---------|
|-------------|-----------------|-------------|---------|
|-------------|-----------------|-------------|---------|
|
| Gtr I
|                                                 <
|                                                 ~~~~
| W               W                 W             W
|-------------|-----------------|-------------|---------|
|-------------|-----------------|-------------|---------|
|-------------|-----------------|-------------|---2-----|
|-------------|-----------------|-------------|---2-----|
|-------------|-----------------|-------------|---------|
|-------------|-----------------|-------------|---------|


  N.C.
   ~~~~~~~~~~~~~~~~~~~~~~~~~~~~~~~~~~~~~~~~~~~~~~~~~~~~~~~~~~~~~~~~~
   S    S   S   S   S   S   S   S   S   S   S   S   S   S   S   S
|-14--(17)-14-(17)-14-(17)-14-(17)-14-(17)-14-(17)-14-(17)-14-(17)-|
|------------------------------------------------------------------|
|------------------------------------------------------------------|
|------------------------------------------------------------------|
|------------------------------------------------------------------|
|------------------------------------------------------------------|
|
|  ~~~~~~~~~~~~~~~~~~~~~~~~~~~~~~~~~~~~~~~~~~~~~~~~~~~~~~~~~~~~~~~~~
| +W
|------------------------------------------------------------------|
|------------------------------------------------------------------|
|-(2)--------------------------------------------------------------|
|-(2)--------------------------------------------------------------|
|------------------------------------------------------------------|
|------------------------------------------------------------------|


 ~~~~~~~~~~~~~~~~~~~~~~~~~~~~~~~~~~
   S    S   S   S   S   S   S   S    H         +H..         E
|-14--(17)-14-(17)-14-(17)-14-(17)---------|--------------[14]-|
|----------------------------------[14]----|-([14])------------|
|------------------------------------------|-------------------|
|------------------------------------------|-------------------|
|------------------------------------------|-------------------|
|------------------------------------------|-------------------|
|
|~~~~~~~~~~~~~~~~~~~~~~~~~~~~~~~~~~~~~~~~~~~~~~~~~~~
|  W                                           +W
|------------------------------------------|-------------------|
|------------------------------------------|-------------------|
|-[2]--------------------------------------|--([2])------------|
|------------------------------------------|-------------------|
|------------------------------------------|-------------------|
|------------------------------------------|-------------------|


  N.C.
  Gtr III
    W                  W               W
|-----------------|---------------|----------------------------------|
|-----------------|---------------|----------------------------------|
|-----------------|---------------|----------------------------------|
|-----------------|---------------|----------------------------------|
|-----------------|---------------|----------------------------------|
|-----------------|---------------|----------------------------------|
|
| Gtr II
|   W                 +W              +E     Q     E    +Q.        E
|-----------------|---------------|--------[14]-------------------14-|
|-----------------|---------------|-------------------------------14-|
|-[14]------------|-([14])--------|-([14])-------[14]-([14])------14-|
|-----------------|---------------|----------------------------------|
|-----------------|---------------|----------------------------------|
|-----------------|---------------|----------------------------------|
|
| Gtr I
|  +Q     H.          +W              +H                +E    Q.
|-----------------|---------------|----------------------------------|
|--------[2]------|--([2])--------|--([2])-------------([2])-[2]-----|
|-([2])-----------|---------------|----------------------------------|
|-----------------|---------------|----------------------------------|
|-----------------|---------------|----------------------------------|
|-----------------|---------------|----------------------------------|


    H              E   E           +S   S  E
|--------------------------------------------------|
|--------------------------------------------------|
|---------------------16b18r======(16)p14-14-------|
|--------------------------------------------------|
|--------------------------------------------------|
|--------------------------------------------------|
|
|                                   ~~~~~
|  +E     E   E E  E   E            E.          S
|-(14)---------------------------------------------|
|-(14)----------------16-----------16----------14--|
|-(14)----------------16-----------16----------14--|
|------------16s9s20-------------------------------|
|-------(14)---------------------------------------|
|--------------------------------------------------|
|
|             TP   TP
|                                   |---3----|
|  +Q         Q    E.       S       Q        E
|--------------------------------------------------|
|-([2])---------------------4b4.5---4p=======2-----|
|---------------------------4b4.5---4p=======2-----|
|-------------xs===x\------------------------------|
|--------------------------------------------------|
|--------------------------------------------------|


  N.C.
   E  Q.    +H        +H      +E   S        +S    +S   S  E
|------------------|-------------------------------------------|
|----14----(14)----|-(14)----(14)-14b14.5==(14)r=(14)----------|
|----14----(14)----|-(14)----(14)-14b14.5==(14)r=(14)p12-12----|
|-16-14----(14)----|-(14)----(14)------------------------------|
|------------------|-------------------------------------------|
|------------------|-------------------------------------------|
|
|  E  Q.    +H        +H      +E.            S    +E.        S
|----14----(14)----|-(14)----(14)------------------------------|
|----14----(14)----|-(14)----(14)-----------14---(14)p======12-|
|----14----(14)----|-(14)----(14)-----------14---(14)p======12-|
|-16---------------|-------------------------------------------|
|------------------|-------------------------------------------|
|------------------|-------------------------------------------|
|
|  E  Q.    +H        +H      +E   S         S    +E      E
|------------------|-------------------------------------------|
|-----2-----(2)----|--(2)-----(2)------------2b3r=(2)p====0----|
|-----2-----(2)----|--(2)-----(2)--x---------2b3r=(2)p====0----|
|--4--2-----(2)----|--(2)-----(2)--x---------------------------|
|------------------|-------------------------------------------|
|------------------|-------------------------------------------|


                                    PM
   E  Q.    +H        +Q    +Q      E   S        +S   +E   E
|------------------|-------------------------------------------|
|----12----(12)----|-(12)--(12)\--------------------------14---|
|----12----(12)----|-(12)--(12)\---13--16b18====(16)r(16)-14---|
|-14---------------|-------------------------------------------|
|------------------|-------------------------------------------|
|------------------|-------------------------------------------|
|
|     ~~~~~~~~~~~~~~~~~~~~
|  E  Q.    +H        +H           +E   S        +S   +E   E
|------------------|-------------------------------------------|
|----12----(12)----|-(12)---------(12)-16b16.5==(16)r(16)p14---|
|----12----(12)----|-(12)---------(12)-16b17====(16)r(16)p14---|
|-14---------------|-------------------------------------------|
|------------------|-------------------------------------------|
|------------------|-------------------------------------------|
|
|            ~~~~~~~~~~~~~
|  E  Q.    +H        +H           +E   S        +S   +E   S S
|-----3-----(3)----|--(3)----------(3)-------------------------|
|-----3-----(3)----|--(3)----------(3)--4b5======(4)r=(4)--4p2-|
|------------------|--------------------4b5======(4)r=(4)--4p2-|
|--2---------------|-------------------------------------------|
|------------------|-------------------------------------------|
|------------------|-------------------------------------------|


  N.C.
   E  Q.    +H        +E   +E   E E   E   S        +S   +E        E
|------------------|--------------------------------------------------|
|----14----(14)----|-(14)-(14)\----------14b14.5==(14)r(14)-----------|
|----14----(14)----|-(14)-(14)\---x---x--14b14.5==(14)r(14)------12h==|
|-16---------------|--------------------------------------------------|
|------------------|--------------------------------------------------|
|------------------|--------------------------------------------------|
|
|  E  Q.    +H        +H             +E   S        +S   +E        E
|----14----(14)----|-(14)-----------(14)------------------------------|
|----14----(14)----|-(14)-----------(14)-14b14.5==(14)r(14)p=====12---|
|----14----(14)----|-(14)-----------(14)-14b15====(14)r(14)p=====12---|
|-16---------------|--------------------------------------------------|
|------------------|--------------------------------------------------|
|------------------|--------------------------------------------------|
|
|  E  Q.    +H        +H             +E   E              S   +E     S
|------------------|--------------------------------------------------|
|-----2-----(2)----|--(2)------------(2)--2--------------2b3r(2)------|
|-----2-----(2)----|--(2)------------(2)--2--------------2b3r(2)p===0-|
|--4--2-----(2)----|--(2)------------(2)------------------------------|
|------------------|--------------------------------------------------|
|------------------|--------------------------------------------------|


   E  Q.    +H         +E   E Q   E     E         +E.  S
|-------------------|------------------------------------|
|----12----(12)-----|-(12)\------------16b17r====(16)p14-|
|-14-12----(12)-----|-(12)\-------x----------------------|
|-------------------|------------------------------------|
|-------------------|------------------------------------|
|-------------------|------------------------------------|
|
|     ~~~~~~~~~~~~~~~~~~~~~~                       ~~~~~
|  E  Q.    +H         +H         E.          S   +E.  S
|-------------------|------------------------------------|
|----12----(12)-----|-(12)--------x\---------16--(16)----|
|----12----(12)-----|-(12)--------x\---------16--(16)p14-|
|-14----------------|------------------------------------|
|-------------------|------------------------------------|
|-------------------|------------------------------------|
|
|                 ~~~~~~~~~~
|  E  Q.     Q.   E    +H        +S  S  S    +S   +E.  S
|-----3------3----3-|--(3)-------(3)---------------------|
|-----3------3----3-|--(3)-------(3)-x--4b5==(4)r=(4)----|
|-------------------|----------------x--4b5==(4)r=(4)--2-|
|--2----------------|------------------------------------|
|-------------------|------------------------------------|
|-------------------|------------------------------------|


  N.C.
   E  Q          E  E  S      +S   +S   S  E       E  Q.                  E  S        +S   +S   S  E
|-----------------------------------------------|-------------------------------------------------------|
|----14-----------------------------------------|---------------------------14b14.5==(14)r(14)p12-------|
|----14---------------16b18==(16)r(16)p14-14----|----14-------------------x-14b14.5==(14)r(14)p12-12----|
|-16-14-----------------------------------------|-16-14-------------------------------------------------|
|-----------------------------------------------|-------------------------------------------------------|
|-----------------------------------------------|-------------------------------------------------------|
|
|                                   ~~~~~                                    ~~~~~~~~~~~~~~~~~~~
|  E  E  E       E  E  E           +E.        S    E  E   +E        +E    E  E             +E.        S
|-----------------------------------------------|-------------------------------------------------------|
|----14--x------14--x-16----------(16)p======14-|----14--(14)b14.5-(14)-----14------------(14)p======12-|
|----14--x------14--x-16----------(16)p======14-|----14--(14)b15---(14)-----14------------(14)p======12-|
|-16--------------------------------------------|-16----------------------------------------------------|
|-----------------------------------------------|-------------------------------------------------------|
|-----------------------------------------------|-------------------------------------------------------|
|
|                   PM
|  E  E +E      +E  E  E           +E.        S    E  Q.                a E  E             +E.        S
|-----------------------------------------------|-------------------------------------------------------|
|-----2-(2)b2.5-(2)----4b5r========(4)----------|-----2----------------------2b3r==========(2)----------|
|-----2-(2)b3---(2)-3--4b5r========(4)p=======2-|-----2-------------------2--2b3r==========(2)p=======0-|
|--4--------------------------------------------|--4--2-----------------x-------------------------------|
|-----------------------------------------------|-------------------------------------------------------|
|-----------------------------------------------|-------------------------------------------------------|


   E  Q              E  E  E         +E   E       E  Q              E  E  S        +S   +E   E
|----------------------------------------------|-------------------------------------------------|
|----12----------------------------------------|-------------------------------------------------|
|----12--------------x--x-14b16r====(14)-12----|----12\------------------16b18====(16)r(16)p14---|
|-14-----------------x--x--x-------------------|-14----------------------------------------------|
|----------------------------------------------|-------------------------------------------------|
|----------------------------------------------|-------------------------------------------------|
|
|                          ~~~~~~~~~~~~~~~
|  E  E   +E        +E  E  E         +E.     S    E  E   +E        +E  E  S        +S   +E   E
|----------------------------------------------|-------------------------------------------------|
|----12--(12)b12.5-(12)---14--------(14)p===12-|----12--(12)b12.5-(12)---16b16.5==(16)r(16)p14---|
|----12--(12)b13---(12)---14--------(14)p===12-|----12--(12)b12.5-(12)---16b17====(16)r(16)p14---|
|-14-------------------------------------------|-14----------------------------------------------|
|----------------------------------------------|-------------------------------------------------|
|----------------------------------------------|-------------------------------------------------|
|
|  E  Q.                E  S    +S   +E.     S    E  Q.                E  E             +E.    S
|-----3----------------------------------------|-----3-------------------------------------------|
|-----3--------------------2b3==(2)r=(2)-----0-|-----3--------------------4b5r==========(4)------|
|--------------------------------------------0-|--------------------------4b5r==========(4)p===2-|
|--2-------------------------------------------|--2----------------------------------------------|
|----------------------------------------------|-------------------------------------------------|
|----------------------------------------------|-------------------------------------------------|


  N.C.
   E  E   E       E  E  S        +S   +S   S  E      E  E   +Q     E   S        +S   +S   S  S  S
|-------------------------------------------------|-----------------------------------------------|
|----14\-------------x-16b16.5==(16)r(16)p14------|----14----------x--14b14.5==(14)r(14)----------|
|----14\---------------16b16.5==(16)r(16)p14-14---|----14--(14)\---x--14b14.5==(14)r(14)p12-12-12-|
|-16-----(0)--------------------------------------|-16--------------------------------------------|
|-------------------------------------------------|-----------------------------------------------|
|-------------------------------------------------|-----------------------------------------------|
|
|                                                                                     ~~~~~
|  E  Q.             E  S        +S   +S   S  E      E  Q.         E   E             +E.        S
|----14-------------------------------------------|-----------------------------------------------|
|----14--------------x-16b16.5==(16)r(16)p14------|----14-------------14------------(14)p======12-|
|----14--------------x-16b17====(16)r(16)p14-14---|----14-------------14------------(14)p======12-|
|-16----------------------------------------------|-16--------------------------------------------|
|-------------------------------------------------|-----------------------------------------------|
|-------------------------------------------------|-----------------------------------------------|
|
|                    PM                ~~~~~         PM                               ~~~~~
|  E  E  +E      +E  E  E             +E.       S    E  Q.         E   E             +E.        S
|-------------------------------------------------|-----------------------------------------------|
|-----2--(2)b2.5-(2)----4b5r==========(4)---------|-----2--------------2b3r==========(2)----------|
|-----2--(2)b3---(2)-3--4b5r==========(4)-------2-|-----2--------------2b3r==========(2)p=======0-|
|--4----------------------------------------------|--4------------(0)-----------------------------|
|-------------------------------------------------|-----------------------------------------------|
|-------------------------------------------------|-----------------------------------------------|


   E  Q   E  Q        E  E         +E   E  Q        E  E       +Q
|-------------------------------|---------------------------------------|
|----12-----12b12.5-----12b12.5-|-(12)----12b12.5-----12b12.5r(12)------|
|----12-----12b13-------12b13---|-(12)----12b13-------12b12.5r(12)------|
|-14-----14----------14---------|------14----------14-------------------|
|-------------------------------|---------------------------------------|
|-------------------------------|---------------------------------------|
|
|  E  Q   E  Q        E  E         +E   E  Q        E  Q.
|-------------------------------|---------------------------------------|
|----12-----12b12.5-----12b12.5-|-(12)----12b12.5-----12\---------------|
|----12-----12b13-------12b13---|-(12)----12b13-------12\---------------|
|-14-----14----------14---------|------14----------14-------------------|
|-------------------------------|---------------------------------------|
|-------------------------------|---------------------------------------|
|
|  E  Q   E  Q        E  E         +E   E  Q        E  E       +E   E
|-----3------3-----------3------|--(3)-----3-----------3-------(3)\-----|
|-----3------3-----------3------|--(3)-----3-----------3-------(3)\-----|
|-------------------------------|---------------------------------------|
|--2------2-----------2---------|-------2-----------2-------------------|
|-------------------------------|---------------------------------------|
|-------------------------------|---------------------------------------|


  E5        E7              E5
   ~~~                       ~~~
   H.           +S  +S  E    H.            +S   +S  S +S
|-------------------------|-------------------------------|
|-------------------------|-------------------------------|
|-/9------------(9)-(9)S2S|=13------------(13)-(13)S2-(2)S|
|-------------------------|-------------------------------|
|-------------------------|-------------------------------|
|-------------------------|-------------------------------|
|
|                                 PM----------------|
|  W                         Q    E E E E   E       E
|-------------------------|-------------------------------|
|-------------------------|-------------------------------|
|-------------------------|--1----------------------------|
|-------------------------|--2----2-2-2-2---2-------2-----|
|--2----------------------|-------------------------------|
|--0----------------------|-------------------------------|
|
|  E  E E E E E  E      E    E  E E E E E   E       E
|-------------------------|-------------------------------|
|-------------------------|-------------------------------|
|-----------7-7--7------7-|--9--9-9-9-9-9---9-------9-----|
|--9--9-9-9-9-9--9------9-|--9--9-9-9-9-9---9-------9-----|
|--7--7-7-7-7-7--7------7-|--7--7-7-7-7-7---7-------7-----|
|--0--0-0-0-0-0--0------0-|--0--0-0-0-0-0---0-------0-----|


                                        A5B5A5B5A5F#5  E5
   ~~~~~~~~~~~~~
   H        +E   +E  E.    S        +H.            +E.    +S
|--------------------------------|----------------------------|
|-------------------------10b12==|=(10)-----------(10)r==(10)-|
|-14-------(14)-(14)S2-----------|----------------------------|
|--------------------------------|----------------------------|
|--------------------------------|----------------------------|
|--------------------------------|----------------------------|
|
|                                                      PM
|  Q   E E   E    E  E  E            E  E E E E E   E  E
|--------------------------------|----------------------------|
|--------------------------------|----------------------------|
|--2---2-2---2----2--2--2--------|------2-4-2-4-2-------------|
|--2---2-2---2----2--2--2--------|------2-4-2-4-2---4--2------|
|--------------------------------|------------------4--2------|
|--------------------------------|----------------------------|
|
|                                                      PM
|  E E E E   E    E  E  E            E  E E E E E   E  E
|--------------------------------|----------------------------|
|--------------------------------|----------------------------|
|--9-9-9-9---9----9--9--9--------|---9--2-4-2-4-2-------------|
|--9-9-9-9---9----9--9--9--------|---9--2-4-2-4-2---4--2------|
|--7-7-7-7---7----7--7--7--------|---7--------------4--2------|
|--0-0-0-0---0----0--0--0--------|---0------------------------|


  F#5        E5   F#E5F#5      A5   B5A5B5     A5F#E5
  Gtr III
               ~~~~~~~~~~~~~~~~~~~~~~~~~~~~~~~~~~~~~~~
   H          +H           +E    Q.       +H
|-----------------------|----------------------------|
|-12b14======(12)-------|-(12)-[12]-----([12])-------|
|-----------------------|----------------------------|
|-----------------------|----------------------------|
|-----------------------|----------------------------|
|-----------------------|----------------------------|
|
| Gtr IV
|  W                        W
|-----------------------|----------------------------|
|-----------------------|----------------------------|
|-----------------------|----------------------------|
|-----------------------|----------------------------|
|-----------------------|----------------------------|
|-----------------------|----------------------------|
|
| Gtrs I, II
|                   PM
|  Q      q    E  E E E    +E    E  E E    E   E E E
|-----------------------|----------------------------|
|-----------------------|----------------------------|
|-----------------------|--------2--4-2----4---2-----|
|---------4----2--4-2-4-|--(4)---2--4-2----4---2-4-2-|
|--4------4----2--4-2-4-|--(4)-------------------4-2-|
|--2--------------------|----------------------------|


  F#5                         A5B5A5    B5  A5F#E5
 ~~~~~~~~~~~~~~~~~~~~~~~~~~~~~
    +W                   +W
|--------------------|-----------------------------|
|-([12])-------------|-([12])----------------------|
|--------------------|-----------------------------|
|--------------------|-----------------------------|
|--------------------|-----------------------------|
|--------------------|-----------------------------|
|
|    W                    Q     E E     +Q.     E
|--------------------|-----------------------------|
|--------------------|------------5pb7==(5)-----5--|
|--------------------|-----------------------------|
|--------------------|-----------------------------|
|--------------------|-----------------------------|
|--------------------|-----------------------------|
|
|    Q    Q  E E E E     +E   E E E      E  E E E
|--------------------|-----------------------------|
|--------------------|-----------------------------|
|--------------------|--------2-4-2------4--2------|
|--------------------|--------2-4-2------4--2-4-2--|
|----4----4--x-4---4-|---(4)------------------4-2--|
|----2----2--x-2---2-|---(2)-----------------------|


  E5                                A5B5A5B5    A5F#5    E5
     ~~~~~~~~~~~~~~~~~~~~~~~~~~~~~~~~~~~~~~~~~~~~~~~~~~~~~~~
    +W                         +W
|--------------------------|-------------------------------|
|-([12])-------------------|-([12])------------------------|
|--------------------------|-------------------------------|
|--------------------------|-------------------------------|
|--------------------------|-------------------------------|
|--------------------------|-------------------------------|
|
|                                                  \1/
|                               ~~~~~~
|                   |-3--|
|   +H.          a +Q    E     +H         +Q      +E     E
|--------------------------|-----------------------------2-|
|---(5)----------5r(5)---5-|---(5)--------(5)b6---(5)pb7---|
|--------------------------|-------------------------------|
|--------------------------|-------------------------------|
|--------------------------|-------------------------------|
|--------------------------|-------------------------------|
|
|    Q    Q  e E    E  E       +E   E E E  E    E  E     E
|---------0----------------|-------------------------------|
|---------0----------------|-------------------------------|
|--------------------------|----------4-2--4----2----------|
|----2----2----------------|----------4-2--4----2--4-----2-|
|----2----2--5-5s===4--4---|---(4)--0--------------4-----2-|
|----0----0----------------|-------------------------------|


  F#5                                              A5       B5      A5B5A5F#E5
 ~~~~~~~~~~~~~~~~~~~~~~~~~~~~~~~~~~~~~~~~~~~~~~~~~~~~~~~~~
    +W                                      +E       +E       +Q      H
|---------------------------------------|-------------------------------------|
|-([12])--------------------------------|-([12])r==([12])---([12])\-----------|
|---------------------------------------|-------------------------------------|
|---------------------------------------|-------------------------------------|
|---------------------------------------|-------------------------------------|
|---------------------------------------|-------------------------------------|
|
|                     ~~~
|    S   E. E   +S  S E.    S S S S S       +S   S    S   S    E    E E E E E
|-----------------------------2---------|--------2----------------------------|
|----5p==2------------------2---5p2-----|-------------5p==2-------------------|
|-----------4b6r(4)p2-4b6-----------4b6-|---(4)----------------4----2-4-2-----|
|---------------------------------------|---------------------------------4-2-|
|---------------------------------------|-------------------------------------|
|---------------------------------------|-------------------------------------|
|
|    Q      Q         E   E   E   E         +E        E        E    E E E E E
|---------------------------------------|-------------------------------------|
|---------------------------------------|-------------------------------------|
|---------------------------------------|-------------2--------4----2-4-2-----|
|---------------------------------------|-------------2--------4----2-4-2-4-2-|
|----4------4---------x---4-------4-----|---(4)---------------------------4-2-|
|----2------2---------x---2-------2-----|---(2)-------------------------------|


 1st Verse
  F#5
  Gtr I
  W                      +W
|----------------------|---------------------|
|----------------------|---------------------|
|----------------------|---------------------|
|----------------------|---------------------|
|-4--------------------|-(4)-----------------|
|-2--------------------|-(2)-----------------|
|
| Gtr II
| PM     PM|              PM   PM|
| Q   E  S S  E  E E E    E  E E E  E  E E E
|-----2----------2---2-|---------------------|
|-----2----------2---2-|-----2------4--------|
|--------------------2-|-----2-4-2--4--2-----|
|-4------4-4--4--------|--4--2-4---------4-2-|
|----------------------|---------------------|
|----------------------|---------------------|
|
| Gtr IV
|     ~~~~~~~~~~~~~~~~~~~~~~~~~~~~~~~~~
| Q  +Q      +Q.     E   +H        +E  E Q
|----------------------|---------------------|
|--------------------2-|-(2)-------(2)-------|
|--------------------2-|-(2)-------(2)-------|
|-4--(4)-----(4)-----2-|-(2)-------(2)-------|
|----------------------|---------------------|
|----------------------|---------------------|


   (2nd Verse cont)
                                         F5E5
                                           PM
    +W                   +H        +E  E E E
||---------------------|----------------------|
||o--------------------|----------------------|
||---------------------|----------------------|
||---------------------|----------------------|
||o-(4)----------------|-(4)-------(4)-4-3-2--|
||--(2)----------------|-(2)-------(2)-2-1-0--|
|
|    ~~~     PM|   PM     PM        PM-|
|    Q   E S S E E E E    E  E E E  E  E E E
||-------2-------2---2-|----------------------|
||o------2-------2---2-|-----2-4-2--4--2------|
||---------------------|-----2-4-2--4--2------|
||---4-----x-4-4---4---|--4--------------4-0--|
||o--------------------|----------------------|
||---------------------|----------------------|
|
|    W                    W
||---------------------|----------------------|
||o--------------------|----------------------|
||---------------------|----------------------|
||---------------------|----------------------|
||o--------------------|----------------------|
||---------------------|----------------------|


  E5
                                        PM
  H..              E   +H..             E
|------------------0-|-(0)----------------|
|------------------0-|-(0)----------------|
|--------------------|--------------------|
|--------------------|------------------4-|
|-2------------------|--------------------|
|-0------------------|--------------------|
|
|                               PM--|   PM
| Q    E S S E E E E   +E   E E E E E E E
|------0-------0---0-|-(0)----------------|
|------0-----0---2-0-|-(0)--2-4-2-4-2-----|
|-1------x-x-1-------|------2-4-2-4-2-----|
|-2------x-x---------|----------------4-2-|
|--------------------|--------------------|
|--------------------|--------------------|


  F#5                    A5B5A5B5A5F#E5
  W                  +E  E E E E E E E
|------------------|--------------------|
|------------------|--------------------|
|------------------|-----2-4-2-4-2------|
|------------------|-----2-4-2-4-2-4-2--|
|-4----------------|-(4)-----------4-2--|
|-2----------------|-(2)----------------|
|
| ~
| Q  E S S E E E E    E  E E E E E E E
|----2-------2---2-|--------------------|
|----2-x-x-2-2---2-|--4-----------------|
|------------------|--4--2-4-2-4-2------|
|-4----------------|-----2-4-2-4-2-4-2--|
|------------------|---------------4-2--|
|------------------|--------------------|


  F#5                  A5B5A5B5A5F#E5  F#5                    A5B5A5B5A5F#E5
  Q  Q   E E E E   +E  E E E E E E E   Q  Q     E E E E   +E  E E E E E E E
|----------------|-------------------|------------------|-------------------|
|----------------|-------------------|------------------|-------------------|
|----------------|-----2-4-2-4-2-----|------------------|-----2-4-2-4-2-----|
|----------------|-----2-4-2-4-2-4-2-|------------------|-----2-4-2-4-2-4-2-|
|-4--4---x-4---4-|-(4)-----------4-2-|-4--4-----x-4---4-|-(4)-----------4-2-|
|-2--2---x-2---2-|-(2)---------------|-2--2-----x-2---2-|-(2)---------------|
|
|            PM                  PM|   ~        PM
| Q  E E E E E E    E  E E E E E E E   Q  E S S E E E E    E  E E E E E E E
|----------2---2-|-------------------|----2-------2---2-|-------------------|
|----2-x---2-2-2-|-----2-4-2-4-2-----|----2-x-x---2---2-|-----2-4-2-4-2-----|
|----2-x---------|-----2-4-2-4-2-----|------x-x---------|-----2-4-2-4-2-----|
|----------------|---------------4-2-|-4--------4-------|---------------4-0-|
|-4------x-------|-------------------|------------------|-------------------|
|-2------x-------|-------------------|------------------|-------------------|


  E5
  Q  Q   e E E E   +E  E E E E     E   E E
|----0-----------|-------------------------|
|----0-----------|-------------------------|
|----------------|-----2-4-2---------------|
|-2--2-----------|-----2-4-2-4-----2-------|
|-2--2---5-5s4-4-|-(4)-----------------4-0-|
|-0--0-----------|-------------------------|
|
|                   PM-----|
| Q  E E E E E E    E  E E E E     E   E E
|----0-----0---0-|-------------------------|
|----0---0---2---|-----2-----4b4.5---------|
|-1----x-1-------|-----2-4-2-4b4.5-2b3-----|
|-2----x---------|--2----4-------------4-2-|
|----------------|-------------------------|
|----------------|-------------------------|


  F#5                  A5B5A5B5A5
  Q  E E   E E E E   E E E E E E E E
|------------------|-----------------|
|------------------|-----------------|
|------------------|---2-4-2-4-2-----|
|------------------|---2-4-2-4-2-----|
|-4--4-x---x-4---4-|-------------4-0-|
|----2-x---x-2---2-|-----------------|
|
| ~        PM                    PM
| Q  E S S E E E E   E E E E E E E E
|----2-------2---2-|-----------------|
|----2-x-x---2---2-|-----------------|
|------x-x---------|---2-4-2-4-2-----|
|-4--------4-------|---2-4-2-4-2-2---|
|------------------|---------------0-|
|------------------|-----------------|


 Chorus
  A5               B5               F#5
  W                W                W              +W
|----------------|----------------|--------------|--------|
|----------------|----------------|--------------|--------|
|----------------|----------------|--------------|--------|
|-2--------------|-4--------------|--------------|--------|
|-0--------------|-2--------------|-4------------|-(4)----|
|----------------|----------------|-2------------|-(2)----|
|
| Q  H.       a    Q  H.       a    E. S H.        +W
|----------------|----------------|--------------|--------|
|----------------|----------------|--------------|--------|
|----2-------(2)-|----4-------(4)-|--------------|--------|
|-2--2-------(2)-|-4--------------|------4-------|-(4)----|
|-0--------------|-2--------------|----4---------|--------|
|----------------|----------------|-2------------|--------|


  A5             B5                F#5
  W              W                 W              +E  Q  E Q  E E
|--------------|-----------------|--------------|-----------------|
|--------------|-----------------|--------------|-----------------|
|--------------|-----------------|--------------|-----------------|
|-2------------|-4---------------|--------------|-----------------|
|-0------------|-2---------------|-4------------|-(4)-4--x-4--4-0-|
|--------------|-----------------|-2------------|-(2)-2--x-2--2---|
|
|                                                               PM
| E. S H.        E E H.       a    E. S H.         E  Q  E Q  E E
|--------------|-----------------|--------------|-----------------|
|----2-2-------|-----------------|--------------|-----------------|
|----2-2-------|-----4-------(4)-|--------------|-----------------|
|-2----2-------|---4-------------|------4-------|-----4--x-4--4---|
|-0----0-------|-2---------------|----4---------|--4-------4--4-0-|
|--------------|-----------------|-2------------|--2-------2--2---|


  A5                 B5
  W                  W
|------------------|--------------------|
|------------------|--------------------|
|------------------|--------------------|
|-2----------------|-4------------------|
|-0----------------|-2------------------|
|------------------|--------------------|
|
|                        ~~~~~~~~~
| E. S H.       a    E E H    +S   E  S
|------------------|--------------------|
|------------------|--------------------|
|------2-------(2)-|-----4----(4)-(0)-x-|
|-2--2-------------|---4----------(0)-x-|
|-0----------------|-2------------------|
|------------------|--------------------|
|
| Gtr III
| W                  W
|------------------|--------------------|
|------------------|--------------------|
|------------------|--------------------|
|------------------|--------------------|
|------------------|--------------------|
|------------------|--------------------|


  F#5
                    PM
   Q  E E     E E E E    Q  E E +E  +E   E E
|---------------------|----------------------|
|---------------------|----------------------|
|---------------------|----------------------|
|---------------------|----------------------|
|--4--4-x-----4-4---4-|--4--4-4-(4)-(4)\-x-x-|
|--2--2-x-----2-2---2-|--2--2-2-(2)-(2)\-x-x-|
|
|  H          H          H       E   E   E E
|---------------------|----------------------|
|---------------------|----------------------|
|---------------------|----------------------|
|--7----------6-------|--4-------------------|
|---------------------|----------------------|
|--5----------4-------|--2-------0---1---2-4-|
|
|  H       a  H          H       H
|---------------------|----------------------|
|---------------------|----------------------|
|-14------11s13-------|-11-------------------|
|---------------------|----------------------|
|-12-------9s11-------|--9-------------------|
|---------------------|----------------------|


               1.
  A5            B5              F#5            A5B5A5B5A5F#E5
  W             Q.   E +H       W          +E  E E E E E E E
|-------------|---------------|----------|--------------------|
|-------------|---------------|----------|--------------------|
|-------------|---------------|----------|-----2-4-2-4-2------|
|-2-----------|-4----4-(4)----|-4--------|-(4)-2-4-2-4-2-4-2--|
|-0-----------|-2----2-(2)----|-4--------|-(4)-----------4-2--|
|-------------|---------------|-2--------|-(2)----------------|
|
|                       ~~~
| E E H.        H      +H       W          +E  E E E E E E E
|-------------|---------------|----------|--------------------|
|-------------|---------------|----------|--------------------|
|-----2-------|-4------(4)----|----------|-----2-4-2-4-2------|
|---2---------|-4------(4)----|-4--------|-(4)-2-4-2-4-2-4-2--|
|-0-----------|-2------(2)----|-4--------|-(4)-----------4-2--|
|-------------|---------------|-2--------|-(2)----------------|


 Interlude
  F#5   E5F#E5F#5     A5B5A5B5A5F#E5  F#5
  Gtrs I, II
            PM
  Q  q  E E E E   +E  E E E E E E E   Q  Q   E  E E E
|---------------|-------------------|-----------------|
|---------------|-------------------|-----------------|
|---------------|-----2-4-2-4-2-----|-----------------|
|----4--2-4-2-4-|-(4)-2-4-2-4-2-4-2-|-----------------|
|-4--4--2-4-2-4-|-(4)-----------4-2-|-4--4---x--4---4-|
|-2-------------|-------------------|-2--2---x--2---2-|
|
| Gtr III
| W                W                  H      H
|---------------|-------------------|-----------------|
|---------------|-------------------|-----------------|
|---------------|-------------------|-------[0]-------|
|---------------|-------------------|-----------------|
|---------------|-------------------|-----------------|
|---------------|-------------------|-----------------|


        A5B5  A5B5    A5F#E5
   +E   E  E  E   E   E E  E
|------------------------------------|
|------------------------------------|
|-------2--4--2---4---2--------------|
|-------2--4--2---4---2-4--2---------|
|--(4)------------------4--2---------|
|--(2)-------------------------------|
|
|  +Q      Q     +E   E E  E
|------------------------------------|
|---------------------x-x-17pb19.5===|
|-([0])------------------------------|
|------------------------------------|
|---------[0]---([0])----------------|
|---------[0]---([0])----------------|


  E5                                          A5B5A5B5A5F#5   E5
    Q     Q          e    E   E    E      +E  E E E E E  E     E
|---------0-----------------------------|------------------------------|
|---------0-----------------------------|------------------------------|
|---------------------------------------|-------4-2-4-2----------------|
|---2-----2-----------------------------|-------4-2-4-2--4-----2-------|
|---2-----2----------5----5s==4----4----|-(4)-0----------4-----2-------|
|---0-----0-----------------------------|------------------------------|
|
|                                          ~~~
|                             |---3---|
|  +Q    +Q         +E   +E   E  E    E    H.            S  S  S  S
|---------------------------------------|---------------14-------17b19-|
|-(17)r=(17)pb19===(17)r(17)-14---------|-17---------------17p14-------|
|------------------------------------14-|------------------------------|
|-------------------------------16------|------------------------------|
|---------------------------------------|------------------------------|
|---------------------------------------|------------------------------|


  F#5                                       A5B5      A5   B5    A5   F#5   E5
    Q    Q          E  E     E     E    +E  E   E       E   E    E     E      E
|------------------------------------|--------------------------------------------|
|------------------------------------|--------------------------------------------|
|------------------------------------|------2---4-------2---4----2----------------|
|------------------------------------|------2---4-------2---4----2-----4------2---|
|---4----4----------x--4-----------4-|--(4)----------------------------4------2---|
|---2----2----------x--2-----------2-|--(2)---------------------------------------|
|
|                                                           |---3---|
|  +Q    E     +E   E  S  S  E     E    +Q     +E      +E   E  E    E  E     +E
|-(17)--17b18-(17)-14-------16b17-16-|-(16)---(16)b17r(16)p14---------------------|
|---------------------17-14----------|------------------------17p==14-------------|
|------------------------------------|--------------------------------16b18r(16)--|
|------------------------------------|--------------------------------------------|
|------------------------------------|--------------------------------------------|
|------------------------------------|--------------------------------------------|


 2nd Verse
  F#5
  Gtr I
   W                                     +W
|-------------------------------------|--------------------------||
|-------------------------------------|-------------------------o||
|-------------------------------------|--------------------------||
|-------------------------------------|--------------------------||
|--4----------------------------------|--(4)--------------------o||
|--2----------------------------------|--(2)---------------------||
|
| Gtr II
|  PM           PM|                       PM        PM|
|  Q          E S S   E  E E  E           E     E   E E E E E E
|-------------2----------2----2-------|--------------------------||
|-------------2----------2----2-------|---------2-------4-------o||
|-----------------------------2-------|---------2---4-2-4-2------||
|--4------------4-4---4---------------|---4-----2---4-------4-2--||
|-------------------------------------|-------------------------o||
|-------------------------------------|--------------------------||
|
| Gtr III
|             ~~~~~~~~~~~
|  E       E  Q      +Q.      E          +E    +E   Q   H
|-------------------------------------|--------------------------||
|----------------------------14b14.5==|=(14)r-(14)\-------------o||
|-14b14.5--------------------14b14.5==|=(14)r-(14)\--------------||
|---------16-16-----(16)--------------|--------------------------||
|-------------------------------------|-------------------------o||
|-------------------------------------|--------------------------||


  2.
  B5            C#5                      N.C.
          PM|   ~
  H    Q  E E   W              +Q    E E   E    E             +S   S  E
|-------------|-------------|-------------------------------------------|
|-------------|-------------|-------------------------------------------|
|---------4-4-|-6-----------|--(6)\--x-x--14---16b18r========(16)p14-14-|
|-------------|-------------|-------------------------------------------|
|-------------|-------------|-------------------------------------------|
|-------------|-------------|-------------------------------------------|
|
| W             W               Q    Q     E    S        +S   +E      E
|-------------|-------------|-------------------------------------------|
|-------------|-------------|------------------16b16.5==(16)r(16)-------|
|-4-----------|-6-----------|---6\-------------16b16.5==(16)r(16)----14-|
|-4-----------|-6-----------|---6\--------------------------------------|
|-2-----------|-4-----------|---4\--------------------------------------|
|-------------|-------------|-------------------------------------------|
|
| W             Q   H.         +H         +E    E             +E      E
|-------------|----[7]------|-([7])------([7])--------------------------|
|-------------|-------------|-------------------------------------------|
|-4-----------|-6-----------|--(6)--------(6)---4b4.5r========(4)-----2-|
|-4-----------|-6-----------|--(6)--------(6)---4b4.5r========(4)-----2-|
|-2-----------|-4-----------|--(4)--------(4)---------------------------|
|-------------|-------------|-------------------------------------------|
                W              +H         +E    E              Q


 Interlude
  N.C.
   E  Q.    +H        +H      +E   S        +S    +S   S  E
|------------------|-------------------------------------------|
|----14----(14)----|-(14)----(14)-14b14.5==(14)r=(14)----------|
|----14----(14)----|-(14)----(14)-14b14.5==(14)r=(14)p12-12----|
|-16-14----(14)----|-(14)----(14)------------------------------|
|------------------|-------------------------------------------|
|------------------|-------------------------------------------|
|
|  E  Q.    +H        +H      +E.            S    +E.        S
|----14----(14)----|-(14)----(14)------------------------------|
|----14----(14)----|-(14)----(14)-----------14---(14)p======12-|
|----14----(14)----|-(14)----(14)-----------14---(14)p======12-|
|-16---------------|-------------------------------------------|
|------------------|-------------------------------------------|
|------------------|-------------------------------------------|
|
|  E  Q.    +H        +H      +E   S         S    +E      E
|------------------|-------------------------------------------|
|-----2-----(2)----|--(2)-----(2)------------2b3r=(2)p====0----|
|-----2-----(2)----|--(2)-----(2)--x---------2b3r=(2)p====0----|
|--4--2-----(2)----|--(2)-----(2)--x---------------------------|
|------------------|-------------------------------------------|
|------------------|-------------------------------------------|


                                    PM
   E  Q.    +H        +Q    +Q      E   S        +S   +E   E
|------------------|-------------------------------------------|
|----12----(12)----|-(12)--(12)\--------------------------14---|
|----12----(12)----|-(12)--(12)\---13--16b18====(16)r(16)-14---|
|-14---------------|-------------------------------------------|
|------------------|-------------------------------------------|
|------------------|-------------------------------------------|
|
|     ~~~~~~~~~~~~~~~~~~~~
|  E  Q.    +H        +H           +E   S        +S   +E   E
|------------------|-------------------------------------------|
|----12----(12)----|-(12)---------(12)-16b16.5==(16)r(16)p14---|
|----12----(12)----|-(12)---------(12)-16b17====(16)r(16)p14---|
|-14---------------|-------------------------------------------|
|------------------|-------------------------------------------|
|------------------|-------------------------------------------|
|
|            ~~~~~~~~~~~~~
|  E  Q.    +H        +H           +E   S        +S   +E   S S
|-----3-----(3)----|--(3)----------(3)-------------------------|
|-----3-----(3)----|--(3)----------(3)--4b5======(4)r=(4)--4p2-|
|------------------|--------------------4b5======(4)r=(4)--4p2-|
|--2---------------|-------------------------------------------|
|------------------|-------------------------------------------|
|------------------|-------------------------------------------|


  N.C.
   E  Q.    +H        +E   +E   E E   E   S        +S   +E        E
|------------------|--------------------------------------------------|
|----14----(14)----|-(14)-(14)\----------14b14.5==(14)r(14)-----------|
|----14----(14)----|-(14)-(14)\---x---x--14b14.5==(14)r(14)------12h==|
|-16---------------|--------------------------------------------------|
|------------------|--------------------------------------------------|
|------------------|--------------------------------------------------|
|
|  E  Q.    +H        +H             +E   S        +S   +E        E
|----14----(14)----|-(14)-----------(14)------------------------------|
|----14----(14)----|-(14)-----------(14)-14b14.5==(14)r(14)p=====12---|
|----14----(14)----|-(14)-----------(14)-14b15====(14)r(14)p=====12---|
|-16---------------|--------------------------------------------------|
|------------------|--------------------------------------------------|
|------------------|--------------------------------------------------|
|
|  E  Q.    +H        +H             +E   E              S   +E     S
|------------------|--------------------------------------------------|
|-----2-----(2)----|--(2)------------(2)--2--------------2b3r(2)------|
|-----2-----(2)----|--(2)------------(2)--2--------------2b3r(2)p===0-|
|--4--2-----(2)----|--(2)------------(2)------------------------------|
|------------------|--------------------------------------------------|
|------------------|--------------------------------------------------|


   E  Q.    +H         +E   E Q   E     E         +E.  S
|-------------------|------------------------------------|
|----12----(12)-----|-(12)\------------16b17r====(16)p14-|
|-14-12----(12)-----|-(12)\-------x----------------------|
|-------------------|------------------------------------|
|-------------------|------------------------------------|
|-------------------|------------------------------------|
|
|     ~~~~~~~~~~~~~~~~~~~~~~                       ~~~~~
|  E  Q.    +H         +H         E.          S   +E.  S
|-------------------|------------------------------------|
|----12----(12)-----|-(12)--------x\---------16--(16)----|
|----12----(12)-----|-(12)--------x\---------16--(16)p14-|
|-14----------------|------------------------------------|
|-------------------|------------------------------------|
|-------------------|------------------------------------|
|
|                 ~~~~~~~~~~
|  E  Q.     Q.   E    +H        +S  S  S    +S   +E.  S
|-----3------3----3-|--(3)-------(3)---------------------|
|-----3------3----3-|--(3)-------(3)-x--4b5==(4)r=(4)----|
|-------------------|----------------x--4b5==(4)r=(4)--2-|
|--2----------------|------------------------------------|
|-------------------|------------------------------------|
|-------------------|------------------------------------|


  N.C.
   E  Q          E  E  S      +S   +S   S  E       E  Q.                  E  S        +S   +S   S  E
|-----------------------------------------------|-------------------------------------------------------|
|----14-----------------------------------------|---------------------------14b14.5==(14)r(14)p12-------|
|----14---------------16b18==(16)r(16)p14-14----|----14-------------------x-14b14.5==(14)r(14)p12-12----|
|-16-14-----------------------------------------|-16-14-------------------------------------------------|
|-----------------------------------------------|-------------------------------------------------------|
|-----------------------------------------------|-------------------------------------------------------|
|
|                                   ~~~~~                                    ~~~~~~~~~~~~~~~~~~~
|  E  E  E       E  E  E           +E.        S    E  E   +E        +E    E  E             +E.        S
|-----------------------------------------------|-------------------------------------------------------|
|----14--x------14--x-16----------(16)p======14-|----14--(14)b14.5-(14)-----14------------(14)p======12-|
|----14--x------14--x-16----------(16)p======14-|----14--(14)b15---(14)-----14------------(14)p======12-|
|-16--------------------------------------------|-16----------------------------------------------------|
|-----------------------------------------------|-------------------------------------------------------|
|-----------------------------------------------|-------------------------------------------------------|
|
|                   PM
|  E  E +E      +E  E  E           +E.        S    E  Q.                a E  E             +E.        S
|-----------------------------------------------|-------------------------------------------------------|
|-----2-(2)b2.5-(2)----4b5r========(4)----------|-----2----------------------2b3r==========(2)----------|
|-----2-(2)b3---(2)-3--4b5r========(4)p=======2-|-----2-------------------2--2b3r==========(2)p=======0-|
|--4--------------------------------------------|--4--2-----------------x-------------------------------|
|-----------------------------------------------|-------------------------------------------------------|
|-----------------------------------------------|-------------------------------------------------------|


   E  Q              E  E  E         +E   E       E  Q              E  E  S        +S   +E   E
|----------------------------------------------|-------------------------------------------------|
|----12----------------------------------------|-------------------------------------------------|
|----12--------------x--x-14b16r====(14)-12----|----12\------------------16b18====(16)r(16)p14---|
|-14-----------------x--x--x-------------------|-14----------------------------------------------|
|----------------------------------------------|-------------------------------------------------|
|----------------------------------------------|-------------------------------------------------|
|
|                          ~~~~~~~~~~~~~~~
|  E  E   +E        +E  E  E         +E.     S    E  E   +E        +E  E  S        +S   +E   E
|----------------------------------------------|-------------------------------------------------|
|----12--(12)b12.5-(12)---14--------(14)p===12-|----12--(12)b12.5-(12)---16b16.5==(16)r(16)p14---|
|----12--(12)b13---(12)---14--------(14)p===12-|----12--(12)b12.5-(12)---16b17====(16)r(16)p14---|
|-14-------------------------------------------|-14----------------------------------------------|
|----------------------------------------------|-------------------------------------------------|
|----------------------------------------------|-------------------------------------------------|
|
|  E  Q.                E  S    +S   +E.     S    E  Q.                E  E             +E.    S
|-----3----------------------------------------|-----3-------------------------------------------|
|-----3--------------------2b3==(2)r=(2)-----0-|-----3--------------------4b5r==========(4)------|
|--------------------------------------------0-|--------------------------4b5r==========(4)p===2-|
|--2-------------------------------------------|--2----------------------------------------------|
|----------------------------------------------|-------------------------------------------------|
|----------------------------------------------|-------------------------------------------------|


  N.C.
   E  E   E       E  E  S        +S   +S   S  E      E  E   +Q     E   S        +S   +S   S  S  S
|-------------------------------------------------|-----------------------------------------------|
|----14\-------------x-16b16.5==(16)r(16)p14------|----14----------x--14b14.5==(14)r(14)----------|
|----14\---------------16b16.5==(16)r(16)p14-14---|----14--(14)\---x--14b14.5==(14)r(14)p12-12-12-|
|-16-----(0)--------------------------------------|-16--------------------------------------------|
|-------------------------------------------------|-----------------------------------------------|
|-------------------------------------------------|-----------------------------------------------|
|
|                                                                                     ~~~~~
|  E  Q.             E  S        +S   +S   S  E      E  Q.         E   E             +E.        S
|----14-------------------------------------------|-----------------------------------------------|
|----14--------------x-16b16.5==(16)r(16)p14------|----14-------------14------------(14)p======12-|
|----14--------------x-16b17====(16)r(16)p14-14---|----14-------------14------------(14)p======12-|
|-16----------------------------------------------|-16--------------------------------------------|
|-------------------------------------------------|-----------------------------------------------|
|-------------------------------------------------|-----------------------------------------------|
|
|                    PM                ~~~~~         PM                               ~~~~~
|  E  E  +E      +E  E  E             +E.       S    E  Q.         E   E             +E.        S
|-------------------------------------------------|-----------------------------------------------|
|-----2--(2)b2.5-(2)----4b5r==========(4)---------|-----2--------------2b3r==========(2)----------|
|-----2--(2)b3---(2)-3--4b5r==========(4)-------2-|-----2--------------2b3r==========(2)p=======0-|
|--4----------------------------------------------|--4------------(0)-----------------------------|
|-------------------------------------------------|-----------------------------------------------|
|-------------------------------------------------|-----------------------------------------------|


   E  Q   E  Q        E  E         +E   E  Q        E  E       +Q
|-------------------------------|---------------------------------------|
|----12-----12b12.5-----12b12.5-|-(12)----12b12.5-----12b12.5r(12)------|
|----12-----12b13-------12b13---|-(12)----12b13-------12b12.5r(12)------|
|-14-----14----------14---------|------14----------14-------------------|
|-------------------------------|---------------------------------------|
|-------------------------------|---------------------------------------|
|
|  E  Q   E  Q        E  E         +E   E  Q        E  Q.
|-------------------------------|---------------------------------------|
|----12-----12b12.5-----12b12.5-|-(12)----12b12.5-----12\---------------|
|----12-----12b13-------12b13---|-(12)----12b13-------12\---------------|
|-14-----14----------14---------|------14----------14-------------------|
|-------------------------------|---------------------------------------|
|-------------------------------|---------------------------------------|
|
|  E  Q   E  Q        E  E         +E   E  Q        E  E       +E   E
|-----3------3-----------3------|--(3)-----3-----------3-------(3)\-----|
|-----3------3-----------3------|--(3)-----3-----------3-------(3)\-----|
|-------------------------------|---------------------------------------|
|--2------2-----------2---------|-------2-----------2-------------------|
|-------------------------------|---------------------------------------|
|-------------------------------|---------------------------------------|


 Bridge
  G5         F#5  G5   A              D   A             G5
  Gtrs I, II
  W          H    Q.   S S   H    +E  E E E   H..       S S
|----------|---------------|----------2-----|----------------|
|----------|-----------2-2-|-2----(2)-3---2-|-2--------------|
|-0--------|------0----2-2-|-2----(2)-2---2-|-2---------0-0--|
|-0--------|------0----2-2-|-2----(2)-0---2-|-2---------0-0--|
|----------|-4---------0-0-|-0----(0)-----0-|-0--------------|
|-3--------|-2----3--------|----------------|-----------3-3--|


  G5         F#5  G5   A              D   A             G5
  W          H    Q.   S S   H    +E  E E E   H..       S S
|----------|---------------|----------2-----|----------------|
|----------|-----------2-2-|-2----(2)-3---2-|-2--------------|
|-0--------|------0----2-2-|-2----(2)-2---2-|-2---------0-0--|
|-0--------|------0----2-2-|-2----(2)-0---2-|-2---------0-0--|
|----------|-4---------0-0-|-0----(0)-----0-|-0--------------|
|-3--------|-2----3--------|----------------|-----------3-3--|


  G5         F#5  G5       B5         A
                                                PM
  W          H    Q.   E   Q  Q  E Q  E   Q  Q  E Q.
|----------|-------------|--------------|---------------|
|----------|-------------|------------2-|-2--2--2-2-----|
|-0--------|------0------|------------2-|-2--2--2-2-----|
|-0--------|------0------|-4--4--4-4--2-|-2--2--2-2-----|
|----------|-4---------0-|-2--2--2-2--0-|-0--0--0-0-----|
|-3--------|-2----3------|--------------|---------------|


  G             F#5   D5  A5B5
  H..       E   Q  Q  E E E E
|-------------|---------------|
|-------------|-------3-3-----|
|-4---------x-|-------2-2-----|
|-5---------x-|-------0-0-2-4-|
|-5---------x-|-4--4------0-2-|
|-3---------x-|-2--2----------|
|
| Gtr III
| W             H     E E E E
|-------------|---------------|
|-------------|-------7-7-7---|
|-------------|-------7-7-7---|
|-------------|-------------9-|
|-------------|---------------|
|-------------|---------------|


 Guitar Solo
  B5                                          D5  A5B5
  +Q    Q   E      E  E E        +Q   Q       E E E E
|------------------------------|----------------------|
|------------------------------|--------------3-3-----|
|------------------------------|--------------2-2-----|
|-(4)---4---4------4----4------|-(4)--4-------0-0-2-4-|
|-(2)---2---2------2----2------|-(2)--2-----------0-2-|
|------------------------------|----------------------|
|
| +E  E E E E     +E  E E        +Q   S +S  E E E E E
|------------------------------|----------------------|
|-------7---9b9.5-(9)---9b9.5==|=(9)--9r(9)p7-9-7-----|
|-------7---9b10--(9)---9b10===|=(9)--9r(9)p7-9-7-----|
|-(9)-9---9--------------------|------------------9-7-|
|------------------------------|----------------------|
|------------------------------|----------------------|


                                           D5    A5
  +Q   Q     E E E E   +Q           Q      E E E E
|--------------------|----------------------------------|
|--------------------|---------------------3-3-3--------|
|--------------------|---------------------2-2-2--------|
|-(4)--4-----4-4---4-|-(4)----------4------0-0-0-2------|
|-(2)--2-----2-2---2-|-(2)----------2------------0------|
|--------------------|----------------------------------|
|
|  ~~~
|  Q   E S S E E E E    E      +E  +E  S S E E E S S
|--------------------|----------------------------------|
|------7-9-9-9-7-9---|--9b9.5==(9)r(9)---------7--------|
|------7-9-9-9-7-9-7-|--9b10===(9)r(9)-7-9-9---7-9p7s===|
|--9---------------7-|-----------------------7----------|
|--------------------|----------------------------------|
|--------------------|----------------------------------|


  A5                                           D5      A5B5
  +Q    Q   E   E   E E      +Q         Q      E   E   E E
|--------------------------|-------------------------------|
|--------------------------|-------------------3---3-------|
|--------------------------|-------------------2---2-------|
|-(2)---2---2---2-----2----|-(2)--------2------0---0---2-4-|
|-(0)---0---0---0-----0----|-(0)--------0--------------0-2-|
|--------------------------|-------------------------------|
|
|                                    ~~~~~~
|                                              |--3--|
|  E  E E E S S S S E S. T   +S  S S S +E  S S E E   E E E
|--------------------------|-------------------------------|
|--------------------------|-------------------------------|
|--6--7-6-7-6h7p6---6----6-|-(6)---------------------------|
|-----------------9---9----|-----9---9-(9)-7---9-----7-----|
|--------------------------|-----------------9---9-----9-8-|
|--------------------------|-------------------------------|


                                                      D5        A5    B5
  +Q                 Q      E E   E E   +Q     Q       E   E    E     E
|-------------------------------------|------------------------------------------|
|-------------------------------------|----------------3---3---------------------|
|-------------------------------------|----------------2---2---------------------|
|-(4)----------------4------4-4-----4-|-(4)----4-------0---0----2-----4----------|
|-(2)----------------2------2-2-----2-|-(2)----2----------------0-----2----------|
|-------------------------------------|------------------------------------------|
|
|                    ~~~~
|  S    +S  S   +S  +E  S S E E   E E    Q     Q      +E  +E    S  E     S
|-------------------------------------|------------------------------------------|
|-------------------------------------|---------------------------------10b12====|
|-------------------------------------|------------------------------------------|
|---------------------------7---------|---------------------------[9]------------|
|--8pb9r(8)-7b8r(7)-(7)p5---7-5b6-----|------------------------------------------|
|-------------------------7-------7-7-|-10b11--7b12===(7)-(7)r\------------------|


  B5                                                         D5        A5   B5
   +Q            Q    E  E       E      E    +Q        Q      E   E    E    E
|------------------------------------------|------------------------------------|
|------------------------------------------|------------------3---3-------------|
|------------------------------------------|------------------2---2-------------|
|--(4)-----------4----4--4--------------4--|-(4)-------4------0---0----2----4---|
|--(2)-----------2----2--2--------------2--|-(2)-------2---------------0----2---|
|------------------------------------------|------------------------------------|
|
|                ~~~~~~~~
|                        |-3--|               |--3--|  |-3-|
|  +E    +E      Q   +E  S  S S  E     +E     E   E E  e E e  S S S  S S  S S S
|------------------------7------10b11-(10)-|--x-------10---9h10p9p7----9----7h9p|
|-(10)r-(10)b13-10--(10)---10p7------------|--x--10p7---------------10---10-----|
|------------------------------------------|------------------------------------|
|------------------------------------------|------------------------------------|
|------------------------------------------|------------------------------------|
|------------------------------------------|------------------------------------|


                                                                D5         A5
  +Q           Q        E       E   E      E      +Q    Q        E E  E     E
|-----------------------------------------------|----------------------------------|
|-----------------------------------------------|----------------3-3--3------------|
|-----------------------------------------------|----------------2-2--2------------|
|-(4)----------4--------4-------4----------4----|-(4)---4--------0-0--0-----2------|
|-(2)----------2--------2-------2----------2----|-(2)---2-------------------0------|
|-----------------------------------------------|----------------------------------|
|
|                                                                ~~
|              |--3--|                                  |--3--|
|  S   S  S S  E  E  E  S  E.      +S   S  S  S    Q    E  E  E  Q    S  S  S  S
|--7-----10------10-------12b14---(12)-10-------|-14------------17---14-17---------|
|-----10----8s12----12-10-----------------12-10-|------17-14---------------14-17---|
|-----------------------------------------------|------------16--------------------|
|-----------------------------------------------|----------------------------------|
|-----------------------------------------------|----------------------------------|
|-----------------------------------------------|----------------------------------|


  A5                                                       D5        A5    B5
  +Q    Q        E  E     E     E    +Q         Q            E  E     E    E
|---------------------------------|-------------------------------------------------|
|---------------------------------|--------------------------3--3-------------------|
|---------------------------------|--------------------------2--2-------------------|
|-(2)---2--------2--2-----------2-|--(2)--------2------------0--0-----2----4--------|
|-(0)---0--------0--0-----------0-|--(0)--------0---------------------0----2--------|
|---------------------------------|-------------------------------------------------|
|
|  ~~~                          ~~~~~~~~~
|       |--3--|                                                       |---3---|
|  Q    E  E  E  E.    S  S  S  E    +E   S  S  S  S  S  S  +E.    S  E  E    E
|------14-------17----14----------|------14-------17----17-(17)---14-17------17b19==|
|-17------17-14----------17p14-17-|-(17)----17p14----14-----------------14----------|
|---------------------------------|-------------------------------------------------|
|---------------------------------|-------------------------------------------------|
|---------------------------------|-------------------------------------------------|
|---------------------------------|-------------------------------------------------|


                      A5    B5
   +Q     Q             E    E        E          E    +W
|--------------------------------------------------|------------------------------------|
|--------------------------------------------------|------------------------------------|
|--------------------------------------------------|------------------------------------|
|--(4)----4-------------2----4-------------------4-|--(4)-------------------------------|
|--(2)----2-------------0----2-------------------2-|--(2)-------------------------------|
|--------------------------------------------------|------------------------------------|
|
|              ~~~~~~~
|  +Q    +S    E.      +E    E       +S    E.         +E   E  E  E  S  S  S  S  E  E
|-(17)--(17)r-17pb19==(17)r-17pb19==(17)r-17pb19r==|=(17)-------------------------------|
|-----------------------------------------17pb18r==|=(17)-16----------------------------|
|--------------------------------------------------|---------16-14----------------------|
|--------------------------------------------------|---------------16p15p14-12-14-12----|
|--------------------------------------------------|------------------------------------|
|--------------------------------------------------|------------------------------------|


 Bridge
     B               C#                D
                                       Gtr I
      W                H.      +E. S   W
|------------------|-----------------|-----------------|
|-----4------------|---6-------(6)-6-|-7---------------|
|-----4------------|---6-------(6)-6-|-7---------------|
|-----4------------|---6-------(6)-6-|-7---------------|
|-----2------------|---4-------(4)-4-|-5---------------|
|------------------|-----------------|-----------------|
|
|                                      Gtr II
|            ~~~~~~~~~~~~~
|  a  H     +H        +W               H.      +E.  S
|------------------|-----------------|-----------------|
|------------------|-----------------|-7-------(7)-----|
|-14s16----(16)----|-(16)------------|-7-------(7)-----|
|------------------|-----------------|-7-------(7)-<7>-|
|------------------|-----------------|-5-------(5)-----|
|------------------|-----------------|-----------------|


   +H               Q         Q
|--------------------------------------|
|--(7)--------------7------------------|
|--(7)--------------7------------------|
|--(7)--------------7---------7\-------|
|--(5)--------------5------------------|
|--------------------------------------|
|
|           \0.5__________/        |
|  +Q.     +E      +E    +Q       +E
|--------------------------------------|
|--------------------------------------|
|--------------------------------------|
|-(<7>)---(<7>)---(<7>)-(<7>)----(<7>)-|
|--------------------------------------|
|--------------------------------------|


  B          C#         D                       C#
  Gtrs I, II
  W          W          Q.   E H      +H     Q  Q
|----------|----------|-------------|---------------|
|-4--------|-6--------|-7----7-7----|-(7)----7--6---|
|-4--------|-6--------|-7----7-7----|-(7)----7--6---|
|-4--------|-6--------|-7----7-7----|-(7)----7--6---|
|-2--------|-4--------|-5----5-5----|-(5)----5--4---|
|----------|----------|-------------|---------------|


  B          C#         D                                            C#
  Gtr I
  W          W          W                      +H               Q    Q
|----------|----------|---------------------|----------------------------|
|-4--------|-6--------|-7-------------------|--(7)--------------7----6---|
|-4--------|-6--------|-7-------------------|--(7)--------------7----6---|
|-4--------|-6--------|-7-------------------|--(7)--------------7----6---|
|-2--------|-4--------|-5-------------------|--(5)--------------5----4---|
|----------|----------|---------------------|----------------------------|
|
| Gtr II
|                                               \0.5______/0____|
| W          W          Q  +E.  S   +H         +Q.       +E    +H
|----------|----------|---------------------|----------------------------|
|-4--------|-6--------|-7--(7)-<7>-(<7>)----|-(<7>)-----(<7>)-(<7>)------|
|-4--------|-6--------|-7--(7)-<7>-(<7>)----|-(<7>)-----(<7>)-(<7>)------|
|-4--------|-6--------|-7--(7)--------------|----------------------------|
|-2--------|-4--------|-5--(5)--------------|----------------------------|
|----------|----------|---------------------|----------------------------|


  B          C#         D                             C#
  W          W          W          +H.                Q
|----------|----------|----------|------------------------|
|-4--------|-6--------|-7--------|-(7)----------------6---|
|-4--------|-6--------|-7--------|-(7)----------------6---|
|-4--------|-6--------|-7--------|-(7)----------------6---|
|-2--------|-4--------|-5--------|-(5)----------------4---|
|----------|----------|----------|------------------------|
|
| W          W          W          +E  E    +E  E E E Q
|----------|----------|----------|------------------------|
|-4--------|-6--------|-7--------|-(7)--------------------|
|-4--------|-6--------|-7--------|-(7)-9b10r(9)-9---------|
|-4--------|-6--------|-7--------|-(7)-9b10r(9)-9---------|
|-2--------|-4--------|-5--------|-(5)------------5-5-----|
|----------|----------|----------|--------------------5---|


 Chorus
  A5               B5               F#5
  W                W                W              +W
|----------------|----------------|--------------|--------|
|----------------|----------------|--------------|--------|
|----------------|----------------|--------------|--------|
|-2--------------|-4--------------|--------------|--------|
|-0--------------|-2--------------|-4------------|-(4)----|
|----------------|----------------|-2------------|-(2)----|
|
| Q  H.       a    Q  H.       a    E. S H.        +W
|----------------|----------------|--------------|--------|
|----------------|----------------|--------------|--------|
|----2-------(2)-|----4-------(4)-|--------------|--------|
|-2--2-------(2)-|-4--------------|------4-------|-(4)----|
|-0--------------|-2--------------|----4---------|--------|
|----------------|----------------|-2------------|--------|


  A5             B5                F#5
  W              W                 W              +E  Q  E Q  E E
|--------------|-----------------|--------------|-----------------|
|--------------|-----------------|--------------|-----------------|
|--------------|-----------------|--------------|-----------------|
|-2------------|-4---------------|--------------|-----------------|
|-0------------|-2---------------|-4------------|-(4)-4--x-4--4-0-|
|--------------|-----------------|-2------------|-(2)-2--x-2--2---|
|
|                                                               PM
| E. S H.        E E H.       a    E. S H.         E  Q  E Q  E E
|--------------|-----------------|--------------|-----------------|
|----2-2-------|-----------------|--------------|-----------------|
|----2-2-------|-----4-------(4)-|--------------|-----------------|
|-2----2-------|---4-------------|------4-------|-----4--x-4--4---|
|-0----0-------|-2---------------|----4---------|--4-------4--4-0-|
|--------------|-----------------|-2------------|--2-------2--2---|


  A5             B5                   F#5
                                                     PM
  W              W                     Q  E E  E E E E    Q  E E +E +E    E  E
|--------------|--------------------|------------------|-----------------------|
|--------------|--------------------|------------------|-----------------------|
|--------------|--------------------|------------------|-----------------------|
|-2------------|-4------------------|------------------|-----------------------|
|-0------------|-2------------------|--4--4-x--4-4---4-|--4--4-4-(4)(4)\--x--x-|
|--------------|--------------------|--2--2-x--2-2---2-|--2--2-2-(2)(2)\--x--x-|
|
|                    ~~~~~~~~~
| E. S H.        E E H    +S   E  S    H       H          H       E  E    E  E
|--------------|--------------------|------------------|-----------------------|
|--------------|--------------------|------------------|-----------------------|
|------2-------|-----4----(4)-(0)-x-|------------------|-----------------------|
|-2--2---------|---4----------(0)-x-|--7-------6-------|--4--------------------|
|-0------------|-2------------------|------------------|-----------------------|
|--------------|--------------------|--5-------4-------|--2-------0--1----2--4-|
|
| Gtr III
| W              W                     H       H          H       E  E    E  E
|--------------|--------------------|------------------|-----------------------|
|--------------|--------------------|------------------|-----------------------|
|--------------|--------------------|-14------13-------|-11-------9s11---11s14-|
|--------------|--------------------|------------------|-----------------------|
|--------------|--------------------|-12------11-------|--9-------7s=9----9s12-|
|--------------|--------------------|------------------|-----------------------|


  A5                             B5
  Gtrs I, II
   W                              W
|------------------------------|---------------------|
|------------------------------|---------------------|
|------------------------------|---------------------|
|--2---------------------------|--4------------------|
|--0---------------------------|--2------------------|
|------------------------------|---------------------|
|
| Gtr III
|  ~~~~~~~~~~~~~~~~~~~~~~~~~      ~~~~~~~~~~~~~~   PM
|      |--3--|          |-3--|
|  Q   E  E  E  E E    +E  E E    Q   E  E  +Q   E E
|------------------------------|---------------------|
|--------10--------------------|-----10--------------|
|-11--11----11-11--------------|-11-----11-(11)------|
|-----------------9b11r(9)p7---|---------------------|
|----------------------------9-|-----------------9-9-|
|------------------------------|---------------------|


  A5                  B5
   W                   W
|-------------------|--------------------|
|-------------------|--------------------|
|-------------------|--------------------|
|--2----------------|--4-----------------|
|--0----------------|--2-----------------|
|-------------------|--------------------|
|
|  ~~~~~~~~~~~~        ~~~~~~~~~~~~
|  Q   E  E  Q  E E    Q   E  E  Q  E E
|-------------------|--------------------|
|-----10------------|-----10-------------|
|-11-----11-11------|-11-----11-11-------|
|---------------9---|---------------9----|
|-----------------9-|-----------------9--|
|-------------------|--------------------|


  A5                      B5 A5 B5 A5 B5 A5      F#5E5
   W                       E  E  E  E  E  E       E  E
|-----------------------|------------------------------|
|-----------------------|------------------------------|
|-----------------------|-----2--4--2--4--2------------|
|--2--------------------|--4--2--4--2--4--2-------4--2-|
|--0--------------------|--2----------------------4--2-|
|-----------------------|----------------------------0-|
|
|  ~~~~~~~~~~~~~~
|  Q   E  E  +E  E  E E    E  E  E  E  E  E       E  E
|-----------------------|------------------------------|
|-----10----------------|----14-16-14-16-14b14.5-------|
|-11-----11-(11)---11---|-11-14-16-14-16-14b14.5-------|
|-----------------------|------------------------16-14-|
|----------------9----9-|------------------------------|
|-----------------------|------------------------------|


 Chorus
  F#5       E5 F#5E5 F#5       A5 B5 A5 B5 A5      F#5E5
                   PM
   Q   q     E  E  E  E    +E   E  E  E  E  E       E  E
|-----------------------|--------------------------------|
|-----------------------|--------------------------------|
|-----------------------|-------2--4--2--4--2------------|
|------4-----2--4--2--4-|--(4)--2--4--2--4--2-------4--2-|
|--4---4-----2--4--2--4-|--(4)----------------------4--2-|
|--2--------------------|--------------------------------|
|
|  ~~                 ~~~~~~~~~
|  Q   E  E  E  E  E  E    +E   E  E  E  E  E       E  E
|-----------------------|--------------------------------|
|-----------16----------|------14-16-14-16---------------|
|-----14----16----------|------14-16-14-16-14b14.5-------|
|-16--14-16----16-16-16-|-(16)---------------------16-14-|
|-----------------------|--------------------------------|
|-----------------------|--------------------------------|


  F#5                          A5 B5 A5 B5 A5 F#5E5
   Q   Q     E  E  E  E    +E   E  E  E  E  E  E  E
|-----------------------|----------------------------|
|-----------------------|----------------------------|
|-----------------------|-------2--4--2--4--2--------|
|-----------------------|-------2--4--2--4--2--4--2--|
|--4---4-----x--4-----4-|--(4)-----------------4--2--|
|--2---2-----x--2-----2-|--(2)-----------------------|
|
|  ~~                 ~~~~~~~~~
|  Q   E  E  E  E  E  E    +E   E  E  E  E  E  E  E
|-----------------------|----------------------------|
|-----------16-14-------|---------14----16-14--------|
|-----14----16-14-14----|---------14----16-14--------|
|-16--14-16----------16-|-(16)-16----16-------16-14--|
|-----------------------|----------------------------|
|-----------------------|----------------------------|


  F#5       E5 F#5E5 F#5       A5 B5 A5 B5 A5      F#5E5
                   PM
   Q   q     E  E  E  E    +E   E  E  E  E  E       E  E
|-----------------------|--------------------------------|
|-----------------------|--------------------------------|
|-----------------------|-------2--4--2--4--2------------|
|------4-----2--4--2--4-|--(4)--2--4--2--4--2-------4--2-|
|--4---4-----2--4--2--4-|--(4)----------------------4--2-|
|--2--------------------|--------------------------------|
|
|  ~~                 ~~~~~~~~~
|  Q   E  E  E  E  E  E    +E   E  E  E  E  E       E  E
|-----------------------|--------------------------------|
|-----14----------------|---------16----16---------------|
|-----14----16-14-------|------14-16-14-16-14b14.5-------|
|-16-----16-------16-16-|-(16)-14------------------16-14-|
|-----------------------|--------------------------------|
|-----------------------|--------------------------------|


  F#5                               A5B5 A5 B5 A5 F#5        E5
   Q   Q     E  E  E  E         +E  E  E  E  E  E  E          E
|----------------------------|----------------------------------|
|----------------------------|----------------------------------|
|----------------------------|------2--4--2--4--2---------------|
|----------------------------|------2--4--2--4--2--4----------2-|
|--4---4-----x--4-----4------|--(4)----------------4----------2-|
|--2---2-----x--2-----2------|--(2)-----------------------------|
|
|  ~~
|  Q   E  E  E  E  E  E         +Q     E  E  E  E  S     +S   E
|----------------------------|----------------------------------|
|-----------16-14----16b16.5-|-(16)---16-14-16-14-16b17r(16)-14-|
|-----14----16-14----16b16.5-|-(16)---16-14-16-14-16b17r(16)-14-|
|-16-----16-------16---------|----------------------------------|
|----------------------------|----------------------------------|
|----------------------------|----------------------------------|


  F#5          E5    F#5E5 F#5             A5B5    A5      B5   A5 F#5E5
                         PM
   Q      q     E     E  E  E         +E   E  E      E       E   E  E  E
|----------------------------------|-------------------------------------|
|----------------------------------|-------------------------------------|
|----------------------------------|-------2--4------2-------4---2-------|
|---------4-----2-----4--2--4------|--(4)--2--4------2-------4---2--4--2-|
|--4------4-----2-----4--2--4------|--(4)---------------------------4--2-|
|--2-------------------------------|-------------------------------------|
|
|                           ~~~~~~~~~~~~~~~
|  Q      E  E  E     E  E  E         +Q      E     +E      +E   E  E  E
|--------14----------14------------|---------17b19r(17)b19-(17)-17-14----|
|-17b19-----14-17b19----14-17pb19==|=(17)r----------------------------14-|
|----------------------------------|-------------------------------------|
|----------------------------------|-------------------------------------|
|----------------------------------|-------------------------------------|
|----------------------------------|-------------------------------------|


  F#5                                     A5 B5    A5      B5   A5 F#5E5
   Q      Q     E     E  E  E        +E    E  E      E       E   E  E  E
|---------------------------------|---------------------------------------|
|---------------------------------|---------------------------------------|
|---------------------------------|--------2--4------2-------4---2--------|
|---------------------------------|--------2--4------2-------4---2--4--2--|
|--4------4-----x-----4-----4-----|--(4)----------------------------4--2--|
|--2------2-----x-----2-----2-----|--(2)----------------------------------|
|
|                           ~~~~~~~~~~~~~~
|  Q      E  E  E     E  E  E        +E    E  E     +E      +E   E  E  E
|--------14----------14-----------|-------14-17b19r(17)b19-(17)-17-14-----|
|-17b19-----14-17b19----14-17b19==|=(17)r-----------------------------14--|
|---------------------------------|---------------------------------------|
|---------------------------------|---------------------------------------|
|---------------------------------|---------------------------------------|
|---------------------------------|---------------------------------------|


  F#5          E5    F#5E5 F#5            A5 B5    A5      B5   A5 F#5E5
                         PM
   Q      q     E     E  E  E        +E    E  E      E       E   E  E  E
|---------------------------------|--------------------------------------|
|---------------------------------|--------------------------------------|
|---------------------------------|--------2--4------2-------4---2-------|
|---------4-----2-----4--2--4-----|--(4)---2--4------2-------4---2--4--2-|
|--4------4-----2-----4--2--4-----|--(4)----------------------------4--2-|
|--2------------------------------|--------------------------------------|
|
|                           ~~~~~~~~~~~~~~
|  Q      E  E  E     E  E  E        +E    E  E     +E      +E   E  E  E
|--------14----------14-----------|-------14-17b19r(17)b19-(17)-17-14----|
|-17b19-----14-17b19----14-17b19==|=(17)r-----------------------------14-|
|---------------------------------|--------------------------------------|
|---------------------------------|--------------------------------------|
|---------------------------------|--------------------------------------|
|---------------------------------|--------------------------------------|


  F#5                                         A5    B5 A5 B5 A5    F#5E5
   Q      Q        E       E      E  E    +E   E     E  E  E  E     E  E
|--------------------------------------|---------------------------------|
|--------------------------------------|---------------------------------|
|--------------------------------------|-------2-----4--2--4--2----------|
|--------------------------------------|-------2-----4--2--4--2-----4--2-|
|--4------4--------x-------4---------4-|--(4)-----------------------4--2-|
|--2------2--------x-------2---------2-|--(2)----------------------------|
|
|                                    ~~~~~~~~~
|  Q      E  S  S  E      +S   S  E  E    +E   E  a  E  E  E  E     E  E
|--------14----------------------------|---------------------------------|
|-17b19-----17-14----------------------|---------------------------------|
|-----------------16pb17r(16)-14-------|---------------------------------|
|--------------------------------16-16-|-(16)-14-------------------------|
|--------------------------------------|---------16s14-12-14-12b13-------|
|--------------------------------------|---------------------------14-12-|


  F#5
   Q.       +E   H        Wx4
|-----------------------|--------*|
|-----------------------|--------*|
|-----------------------|--------*|
|-----------------------|--------*|
|--4--------(4)\--------|--------*|
|--2--------(2)\--------|--------*|
|
|  ~~~~~~~~~~
|  Q    +Q       E E Q    Wx4
|-----------------------|--------*|
|-----------------------|--------*|
|-----------------------|--------*|
|-----------------------|--------*|
|-----------------------|--------*|
|-14---(14)s=====1h2-2--|--------*|

Don't Cry


Intro: Clean Electric
          Am            Dm            G
E|-----|--------0-------------1---------------3-----------------------|
B|-----|----------1---------3---3---------------3---------------------|
G|-----|------2-----2-----2-------2---------0-----0-------0-----0-----|
D|-----|----2---------0-0-----------------0-------------0-----0-------|
A|-----|--0-------------------------0---2-----------0-3-----2-----3-2-|
E|--3--|------------------------------3-------------------------------|


   Am            Dm            G
E|-------0-------------1--------------------------|
B|---------1---------3---3------------------------|
G|-----2-----2-----2-------2---------0------------|
D|---2---------0-0-----------------0-----------2--|
A|-0-------------------------0---2-------------0--|
E|-----------------------------3---------2-3-4----|


Verse: Clean Electric
 Rhy. Fig. 1                                     End Rhy. Fig. 1
   Am            Dm            G             *
E|-------0-------------1---------------3-----------------------|
B|---------1---------3---3---------------3---------------------|
G|-----2-----2-----2-------2---------0-----0-------0-----0-----|
D|---2---------0-0-----------------0-------------0-----0-------|
A|-0-------------------------0---2-----------0-3-----2-----3-2-|
E|-----------------------------3-------------------------------|

 * Last time before 2nd and 3rd chorus replace remainder of Rhy. Fig. 1 with
   Rhy. Fill 1.


 Rhy. Fill 1          End Rhy. Fill 1
   C       G/B     Am      G
E|----------------------------------|
B|-------1-------3-------1----------|
G|-----0-------0-------2---------0--|
D|---2-------0-------2---------0----|
A|-3-------2-------0---------2------|
E|-------------------------3--------|

 (w/Rhy. Fig. 1)
 Talk to me softly
 There's something in your eyes
 Don't hang your head in sorrow
 And please don't cry
 I know how you feel inside I've
 I've been there before
 Somethin's changin' inside you
 And Don't you know

Chorus: Clean Electric
    F                    G           Am
E|--------------------------------|------------------0--|--------------------|
B|--1-------1-----1----------3-3--|--------0-h-1--------|--1-----0-h-1-------|
G|--0-h-2---0-h-2-0-h-2------0-0--|------2-------2------|----2---------2-p-0-|
D|--3-------3-----3--------0------|----2-----------2----|------2-------------|
A|--------------------------------|--0------------------|--------------------|
E|-----------------------3--------|---------------------|--------------------|

    F           G           Am                            F           G
|--------1-------------|------------0--0-------------|------1-----------3------|
B|------1---1-------3---|------0----------3--3-1------|----1---1-----3-3---3---|
G|----2-------2---0-----|----2-----2-------------2----|--2-------2---0---------|
D|--3-----------0-----0-|--------2-----------------2--|--3-----------0---------|
A|----------------------|--0--------------------------|------------------------|
E|----------------------|-----------------------------|------------------------|

    C**     G/B     Am      G           F        G           Am
E|-----------------------------------|------1--------3----|--0-------|
B|--------1-------1-------1----------|----1---1--3-3---3--|--1-------|
G|------0-------0-------2---------0--|--2--------0--------|--2----2--|
D|----2-------0-------2---------0----|--3--------0--------|--2--2----|
A|--3-------2-------0---------2------|--------------------|--0-------|
E|--------------------------3--------|--------------------|----------|

Repeat Verse w/Additional Lyrics: Verse: 2
Repeat Chorus w/Rhy. Fill 2 at **

Rhy. Fill 2                  End Rhy. Fill 2
   C5   G5      A5   G5      F5   G5   A5
E|-----------|------------|-----------------|
B|-----------|------------|-----------------|
G|--5--------|------------|-----------------|
D|--5----5---|---7----5---|---3----5----7---|
A|--3----5---|---7----5---|---3----5----7---|
E|-------3---|---5----3---|---1----3----5---|

Chord progression over the solo:
 D5      F5      | G5      A5G5    | F5      G5      | A5            G5|
 / . / . / . / . | / . / . / . / . | / . / . / . / . | / . / . / . / . |

 F5      G5      | E5      F5      | F5      G5      | A5
 / . / . / . / . | / . / . / . / . | / . / . / . / . | /...............|

  Solo:
E|---------------------------------------------------------------------|
B|---------------------------------------8~~-----------8-8-------------|
G|------------7^rp5--7-(7)~~~--r7p5--7^-------r7p5--7^-----r7----5^\/\-|
D|-7~~~~~~~~~----------------------------------------------------------|
A|---------------------------------------------------------------------|
E|---------------------------------------------------------------------|

E|---------------------------------------------------------------------|
B|-----------------------------------------13^(2 steps)--13^(1/4 step)-|
G|-7/9-9/10--------------------------12h14-----------------------------|
D|----------------------10h12-12/14------------------------------------|
A|-5/7--7/8--8h10-10/12------------------------------------------------|
E|---------------------------------------------------------------------|

E|-------------------------------------------------------------------|
B|-------------------------------------------------------------------|
G|-14~~~--12---------------------------------------------------------|
D|-----------14-13h14p13p12-13p12-10-12p10---------10^---------------|
A|------------------------------------------12p10------12p10-12-(12)-|
E|-------------------------------------------------------------------|

E|-----15-15-15-------------15-15------------------------------------------|
B|-15^----------r15p13--15^-------r15--13-12---------12/15-13-12-13--------|
G|------------------------------------------------13-----------------14----|
D|---------------------------------------------14-----------------------15-|
A|-------------------------------------------------------------------------|
E|-------------------------------------------------------------------------|

E|-13-----------------------------5----------------------------------------------|
B|----13--15^--15~~~--r15p13--8^-----8-5--------x-x--8---------------5^r^(5)r--5-|
G|----------------------------------------r7p5--x-x--7^--(7)-----r7--------------|
D|-------------------------------------------------------------------------------|
A|-------------------------------------------------------------------------------|
E|-------------------------------------------------------------------------------|

Verse:
                                               trem. bar
      Feedback---------------------------------------|  Harm
                                             \\\\\3.5   8va
E|---------------------------------|---------------------------------|
B|---------5-b-6---------r-5-b-6---|-------r-5-----------5-----------|
G|-(7)-----------------------------|---------------------------------|
D|---------------------------------|---------------------------------|
A|---------------------------------|---------------------------------|
E|---------------------------------|---------------------------------|
    and please remem-ber             that  I never  lied

Chorus 3: Lead Part

 Double regular chorus with power chords, or 5 (ie: F5, G5, A5, etc)

F G Am                                                  F    G
E|--12~~~--12--12--12--12-------|-------------------|------------|
B|-------------------------13---|--15-p-13----------|------------|
G|------------------------------|-----------14~~~~--|------------|
D|------------------------------|-------------------|------------|
A|------------------------------|-------------------|------------|
E|------------------------------|-------------------|------------|

    Am                                    F      G
E|--15b-------r15--15----------|-------------------|-------------|
B|---------------------17--15--|--15--p--13~~~~~~--|--15--13--15-|
G|-----------------------------|-------------------|-------------|
D|-----------------------------|-------------------|-------------|
A|-----------------------------|-------------------|-------------|
E|-----------------------------|-------------------|-------------|

    C     G/B    Am     G          F
E|------------------------------|------------------------------|
B|--15----15-----12-----12------|------------------------------|
G|------------------------------|--14~~~~~~--------------------|
D|------------------------------|------------------------------|
A|------------------------------|------------------------------|
E|------------------------------|------------------------------|

Outro Chorus: Distorted Guitar

 F5            G5
 And don't you cry...

 F5             G5
 Don't you ever cry...

 F5        G5    ***     (E5) (F5)
 Don't you cry tonight... baby maybe someday...

 F5        G5
 Don't you cry...

 F5             G5
 Don't you ever cry...

 F5        G5     C5
 Don't you cry... TONIGHT... ****


*** Fill in with Rhy. Fill 3


 Rhy. Fill 3                           End Rhy. Fill 3
    E5                         F5
E|--------------------------|--------------------------|
B|--------------------------|--------------------------|
G|--------------------------|--------------------------|
D|--2--2--2--2--2--2--2--2--|--3--3--3--3--3--3--3--3--|
A|--2--2--2--2--2--2--2--2--|--3--3--3--3--3--3--3--3--|
E|--0--0--0--0--0--0--0--0--|--1--1--1--1--1--1--1--1--|
                baby...        maybe...    someday...

**** Play Riff 1

  Riff 1
E|-12--12--------------------------12--12----------13--------------|
B|---------13------13------13--------------13----------------sl----|
G|---------------------------------------------------------12-/14--|
D|-----------------------------------------------------------------|
A|-----------------------------------------------------------------|
E|-----------------------------------------------------------------|

E|-13--------------12----------10----------8-----------------------|
B|-----------------------------------------------------------------|
G|---------12--------------10----------9---------5h7-------5-------|
D|-----------------------------------------------------------------|
A|-----------------------------------------------------------------|
E|-----------------------------------------------------------------|

E|-----------------------------------------------------------------|
B|-----------------------------------------------------------------|
G|---------5-------------------------------------------------------|
D|-5-h-7-----------------------------------------------------------|
A|---------------6h7-----------------------------------------------|
E|-----------------------------------------------------------------| End Riff 1
2 comments total.
+1 reply
AxlRose88 wrote on October 7 2008, 02:16 am

no My World ;)

0 reply
joe-smoe wrote on August 19 2009, 09:03 am

awesome!

I want to post or [tab]
guest
You may want to rate the tab now too:
select rating
Please do not post tabs as comments. Select "correction" instead!