Oops, an error
Loading. Please wait.

Welcome To The Jungle Tab

ver4
ver4
More versions @911Tabs.com
161,295 views 481 this week
14 commentsread comments
1 2 3 4 5
accurate
x 14
Autoscroll
+/-
esc
set tempo
stop
Contributor
Hey! There's an official Ultimate Guitar app which is ideal
for learning songs when you're away from computer. Get the app
WARNING: You are trying to view
                                    content from Ultimate-Guitar.com
                                    in an unauthorized application,
                                    which is prohibited.

                                    Please use an official Ultimate
                                    Guitar Tabs application for iPhone,
                                    iPad or Android to access legitimate
                                    chords, guitar, bass, and drum tabs
                                    from Ultimate-Guitar.com database.

                                    Type "ultimate guitar tabs" in Apple
                                    App Store's or Android Market's
                                    search to find the application.
Welcome to the Jungle
Guns N' Roses
Appetite for Destruction

Tom Clark
Email: shadow51t@aol.com

Yeah most of the tabs on "Welcome to the Jungle" on the net are mostly correct, this
just has al the corrections in it, and some of the fills in it too.  Oh and, yes Slash
does play the more boring rhythm during the verse, but this allows him to play all the
fills while Izzy rocks out with the cool rhythm.


Tuning: Eb Ab Db Gb Bb Eb

Intro

Guitar 1
E|----------------------|
B|--------------0-------|
G|-4==4=======4===4-----|
D|----------------------|
A|----------------------|
E|----------------------|

E|------------------------------------------|
B|----0-------0------0-------0------0----0--|
G|-4----4--2----2---------------------------|
D|-----------------4----4--2----2-0---------|   x6
A|-------------------------------------2----|
E|------------------------------------------|

E|--------------------------|
B|--------------------------|
G|--444-222-----------------|
D|----------444-222-00------|   x3
A|---------------------2-2--|
E|--------------------------|
 
E|----------------------------------------------------------------------|
B|----------------------------------------------------------------------|
G|---7--------4---4---4---4---4---4---4---4---4---4---4---4---4---4---4-|
D|---7---7----4---4---4---4---4---4---4---4---4---4---4---4---4---4---4-|
A|---5---7----2---2---2---2---2---2---2---2---2---2---2---2---2---2---2-|
E|-------5--------------------------------------------------------------|
Pm            .   .   .   .   .   .   .   .   .   .   .   .   .   .   .

E|--------------------------|---------------------------|
B|--------------------------|---------------------------|
G|--------------------------|---------------------------|
D|--------------------------|---------------------------|
A|-7--7--5--7--7--7-5--4--2-|-7--7--5--7--7--7--5--4--2-|
E|-5--5--3--5--5--5-3--2--0-|-5--5--3--5--5--5--3--2--0-|

e|----------------------------------|
B|----------------------------------|
G|-7brp5---7-5----------------------|
D|-------7-----7-5------------------|
A|-----------------7-6-5p3-5p3------|
E|-----------------------------5p3--|


Guitar 2
E|------------------------------------7--7/5--5-0---------|
B|------------------------------------7--7/5--5-0---7--5--|
G|------------7-9-9b---7b---------------------------7--6--|
D|---7h9--9-----------------7h9—9/2-----------------7--7--|
A|-----------------------------------------------------0--|
E|--------------------------------------------------------|

E|------------------------------------5--5------------|
B|-----------------------3---5-----5b----5b---3-------|
G|----------------2--4----------------------------4\--|
D|---------2--4---------------------------------------|
A|--2--4----------------------------------------------|
E|----------------------------------------------------|

E|-------------------------|--------------------------|
B|-------------------------|--------------------------|
G|--2------2--2--0---------|--2-x-x-----2-2--0--------|
D|--2------2--2--0---------|--2-x-x-----2-2--0--------|
A|--0------0--0----------0-|--0-x-x-----0-0---------0-|
E|----3b-----------3--2----|--------3b--------3--2----|
Pm         .  .    .  .

Guitar 2
E|--------------------x--5--------------------|------------------------|
B|--------------------------------------------|------------------------|
G|---2-----------x----------------------------|--2-x-x-----2-2--0------|
D|---2-----------x----------------------------|--2-x-x-----2-2--0------|
A|---0-----0-----x------------------3p0-------|--0-x-x-----0-0-------0-|
E|----------------------------------------2---|--------3b--------3-2---|
 
Verse

Guitar 1
E|------------------------------|---------------------------|
B|------------------------------|---------------------------|
G|------------------------------|---------------------------|
D|------------------------------|---------------------------|    x2
A|------------------------------|---------------------------|
E|-5--5---3---5--5--5-3--2--0-0-|-5--5--3--5--5--5--2--0--0-|
Pm .  .       .  .  .       . .   .  .     .  .  .     .  .

E|--------------------------|-------------------------------|
B|--------------------------|-------------------------------|
G|----------x---------------|-------------------------------|
D|--9--9--7-x-9--9--7--6--4-|-------------------------------|    x2
A|--7--7--5-x-7--7--5--4--2-|-------------------------------|
E|--------------------------|-------------------------------|


Guitar 2 
E|-------------------------|--------------------------|
B|-------------------------|--------------------------|
G|--2------2--2--0---------|--2-x-x-----2-2--0--------|
D|--2------2--2--0---------|--2-x-x-----2-2--0--------|    x2
A|--0------0--0----------0-|--0-x-x-----0-0---------0-|
E|----3b-----------3--2----|--------3b--------3--2----|
Pm         .  .    .  .

E|--------------------------|--------------------------|
B|--------------------------|--------------------------|
G|--9--9--7-x-9--9----------|--2-x-x-----2-2--0--------|
D|--9--9--7-x-9--9--7--6--4-|--2-x-x-----2-2--0--------|    x2
A|--7--7--5-x-7--7--5--4--2-|--0-x-x-----0-0---------0-|
E|--------------------------|--------3b--------3--2----|

Chorus

Guitar 1
E|--------------------------------------| 
B|--------------------------------------| 
G|--------5-------------------------7---| 
D|--------5-------------------------7---| 
A|--------3-------------------------5---| 
E|--------------------------------------|

E|-------------------------| 
B|-------------------------| 
G|-------------------------|
D|-------------------------|   x3
A|--7--7--5----------------| 
E|-----------6—6--5--3--0--|

Guitar 2
E|----------------------------------------------------------------| 
B|----------------------------------------------------------------| 
G|--------5-------------------------7-----------------------------| 
D|--------5-------------------------7-----------------------------| 
A|--------3----2--------------------5------4----------------------| 
E|------------------5------3-----------------------7---------5----| 

E|-------------------------------| 
B|-------------------------------| 
G|--9--9-------------------------|
D|--9--9-------------------------|   x3
A|--7--7--5----------------------| 
E|-----------6--6--5--5--3--0----| 

E|-----------------------------------------| 
B|-----------------------------------------| 
G|-----------------------------------------| 
D|-----------------------------------------| 
A|--------7----5---------------------------| 
E|-----------------------6------5---3---4--| 

Random Fills

Fill 1 (1:09)
Guitar 3 studio, Guitar 1 live
E|---------------------------------------|
B|---------------------------------------|
G|---------------------------------------|
D|----------------7p5--7-5---------------|
A|--------------------------7-6—5/3------|
E|-5--5--5---3-----------------------5p3-|
Pm .  .


Fill 2 (1:25)
Guitar 3 studio, Guitar 1 live
E|-12//--|
B|-12//--|
G|-12//--|
D|-------|
A|-------|
E|-------|

Fill 3  (1:31, 1:56)
Guitar 3 studio, Guitar 1 live
E|----------------------------------------------|
B|----------------------------------------------|
G|----------------------------------------------|
D|-------------------------------------7p5-—5/6-|
A|----------------3h4---5--------3h4------------|
E|-5---5---5---5-----------5--5-----------------|
Pm .   .   .   .


Fill 4 (1:52)
Guitar 3 studio, Guitar 1 live
E|--------------------------------------|
B|--------------------------------------|
G|--------------------------------------|
D|-7p5----------------------------------|
A|-----7-6---5-7—6—5-5b-5-3---5---3h4---|
E|--------------------------5---5-------|

First Solo

Guitar 1
E|-------|
B|-------|
G|-----7-|
D|-9-9-7-|
A|-9-9-7-|
E|-7-7---|

E|---------------------------------------|
B|-----------------------12----------12~-|
G|---12/13---x-13----13~-12--13-x--x—12~-|
D|---11/12---x-14----14~-----12-x--x—12~-|
A|---------------------------------------|
E|-0-------------------------------------|

E|---------------------------------------------15--|
B|---------------15--x—-15~----11-/-12-/-x—-x--15--|
G|---12/13-------13--x—-13~----x--/-x--/-x--x--13--|
D|---11/12-------14--x—-14~--—-11-/-12-/-x--x------|
A|-------------------------------------------------|
E|-0-------0--0------------------------------------|
Pm .          .      .

E|---------19b--r19-18-17b--r-15-16-----|
B|------17--------------------------15~-|
G|-5/18---------------------------------|
D|--------------------------------------|
A|--------------------------------------|
E|--------------------------------------|

E|--------------------------------------------------------------|
B|-15br-15-12---------------------------------------------------|
G|------------14br-br-p12-14-12---------------------------------|
D|------------------------------14-12---------------14-13-12//--|
A|-------------------------------------14-13-12/10--------------|
E|--------------------------------------------------------------|

Guitar 2
E|-7--77------|
B|-7--77-7----|
G|------------|
D|------------|
A|------------|
E|------------|

E|---------------------------------------------------|
B|---------------------------------------------------|
G|---------------9--------9/-------------------------|
D|----9--x--x----9-----9—-9/-------------------------|
A|----7--x--x----7-----7—-7/-------------------------|
E|-0--0-------0-----0--------0--0-0-0-0-3p2p0/12-----|

E|---------------------------------------------------|
B|---------------------------------------------------|
G|---------------9--------9/-------------------------|
D|----9--x--x----9-----9—-9/-------------------------|
A|----7--x--x----7-----7—-7/-------------------------|
E|-0--0-------0-----0--------0--0-0-0-0-3p2p0--0-----|

E|------------------------------------------------|
B|------------------------------------------------|
G|-------------7--9-----9---------7------7---12~--|
D|-------9-----7--9-----9---------7------7---12~--|
A|-------7------------------------7------7---10~--|
E|-0--0-----0--------0--------0-----0-------------|

E|---------------------------------------------------|
B|---------------------------------------------------|
G|-7--8--9--7--8--9--7--8----9-----7--8---9---9---9--|
D|-7--8--9--7--8--9--7--8----9-----7--8---9---9---9--|
A|-5—-6—-7—-5—-6—-7—-5—-6----7-----5--6---7---7---7--|
E|---------------------------------------------------|


Bridge

Guitar 1
E|-2-------3-------2--------3----------------3--------2-------|
B|-3-------3-------3--------3------7---------3--------3-------|
G|-2---6---0----6--2---6----0---6----7---7---0---6----2---6---|
D|-0---5---0----5--0---5----0---5------7-----0---5----0---5---|
A|-0-------x-------0--------x----------------x--------0-------|
E|---------3----------------3----------------3----------------|

E|----------------------------------------------------------|
B|----------------------------------------------------------|
G|----------------------------------------------------------|
D|-5-5-5-5-5-x-x-3----5-5-5-5-5-5/8-3----5-5-5-5-5-3----7---|
A|-5-5-5-5-5-x-x-3----5-5-5-5-5-5/8-3----5-5-5-5-5-3----7---|
E|-3-3-3-3-3-x-x-1----3-3-3-3-3-3/6-1----3-3-3-3-3-1----5---|
Pm   . .


Guitar 2
e|-------------------------------------------------------------------|
B|-7------------7—-8p7---------13p12-----7--------13p12------7-------|
G|-7--5--12--5--7-----------12-----------7—--5--12-----------7---10--|
D|-7-----12-----7-----7/10--12-----12p10-7------12-----12p10-7----8--|
A|-5-----10-----5-----------10-----------5------10-----------5-------|
E|-------------------------------------------------------------------|

E|------------------------------------------------------------------|
B|-12-12-12-12-12-10-----------------------12-12-12-12-12-10--------|
G|-12-12-12-12-12-10---12-12-12-12-12-10---12-12-12-12-12-10---14---|
D|-12-12-12-12-12-10---12-12-12-12-12-10---12-12-12-12-12-10---14---|
A|-10-10-10-10-10-8----10-10-10-10-10-8----10-10-10-10-10-8----12---|
E|------------------------------------------------------------------|


Pre-solo:

Guitar 1
E|-------------------------------------------12---------------------------|
B|-15b=======r-15b-15b-15b=======r-15-11/12-----15-12----------15b-15-----|
G|----------------------------------------------------15-14-12------------|
D|------------------------------------------------------------------------|
A|------------------------------------------------------------------------|
E|-------------------------------------------------------------------12/0-|

Guitar 2
E|------------------------------------------------------------------------| 
B|------------------------------------------------------------------------| 
G|-------6/7-------------9-------9-----9---6/7------------------12---12---| 
D|-------5/6-------------9-------9-----9---5/6------------------12---12---| 
A|------------------------------------------------------------------------| 
E|---0---------0----0---------0-------------------0-------0---------------| 

E|------------------------------------------------------------------------| 
B|------------------------------------------------------------------------| 
G|-------6/7-------------9-------9-----9---6/7------------------12---12---| 
D|-------5/6-------------9-------9-----9---5/6------------------12---12---| 
A|------------------------------------------------------------------------| 
E|---0---------0----0---------0-------------------0-------0---------------| 

Solo 2: 

Guitar 1
E|-------------------------------------------------------------------------| 
B|---------------------------------------------------12b~-—-12br-----------| 
G|---------------------------9b------11br—-11br/9b---11b~---11br/9---------| 
D|-------------------9b/11-------11--------------------------------11p9/6--| 
A|------7----9fb/11--------------------------------------------------------| 
E|--9------9---------------------------------------------------------------| 


E|--------0-0-0-0----------------------------------------------------------| 
B|---5----5-3-2-0-2br-0-2-0---0------0===0--0--0--0------------------------| 
G|-6---6----------2br-0-2-0p1-1--2-/-4===4--2--2--1--4---------------------| 
D|------------------------------------------------------4---2br—p0--2-0-4/-| 
A|-------------------------------------------------------------------------| 
E|-------------------------------------------------------------------------|  
 
E|----------------------------------------------| 
B|--15-15b--15b-------------------------14\12---| 
G|--------------14b-14b--14bp12-----------------| 
D|-------------------------------14-12--14\12---| 
A|----------------------------------------------| 
E|----------------------------------------------| 

E|-------------------------------------------| 
B|-------------------------------------------| 
G|--6b--4------------------------------------| 
D|---------6b---4----------------------------| 
A|-----------------4---2---------------------| 
E|------------------------4b----0—2~~~~~~~---| 


Guitar 2
E|------------------------------------------------------------------------|
B|------------------------------------------------------------------------|
G|-6-6-6-6-6---4------4-----4------4--5----6-6-6-6-6----4-----4-4-4-------|
D|-6-6-6-6-6-2-4------4-----4------4--5----6-6-6-6-6--2-4-----4-4-4-------|
A|-4-4-4-4-4---2------2-----2------2—-3----4-4-4-4-4----2-----2-2-2-------|
E|-----------------0-----0-------0-------------------------0---------0-0--|
Pm   . . . . .     .  .  .  .    . .  .      . . . .  .    .  . . .  . .

e|--------------------------------------------------------------------------|
B|--------------------------------------------------------------------------|
G|-----------------------------------4---4-4-4-4-4-4-4-4-4-4-4-4---2--------|
D|-2-2-2-2-2-2-2-2-2-2-2-2-----------4---4-4-4-4-4-4-4-4-4-4-4-4---2-----2--|
A|-2-2-2-2-2-2-2-2-2-2-2-2-----------2---2-2-2-2-2-2-2-2-2-2-2-2---0-----2--|
E|-0-0-0-0-0-0-0-0-0-0-0-0---0---0------------------------------------3—-0--|
Pm   . . . . . . . . . . .                . . . . . . . . . . . .

E|------------------------------------------------------------------|
B|------------------------------------------------------------------|
G|-9--7-----7--9-----9-------------------4--4--4-4-----4-4-4-4-4----|
D|-9--7-----7--9-----9--9--7-------------4--4--4-4-----4-4-4-4-4----|
A|-7--7--x-----------7--7--7-------0--1--2--2--2-2-----2-2-2-2-2----|
E|---------------0---0-------0—3/4------------------0---------------|

E|------------------------------|
B|------------------------------|
G|------------------------------|
D|--------4--4--4--4--4--4—-4---|
A|--------4--4--4--4--4--4--4---|
E|-12/----2--2--2--2--2--2--2---|


Breakdown

Guitar 1
E|------------(34)—-(31)—-(30)--(28)—(26)—(24)-//-(19)///-------------------|
B|---------------------------------------------------------12----12---------|
G|-4/////--x-----------------------------------------------14b---14b--------|
D|-4/////--x----------------------------------------------------------------|
A|-2/////--x----------------------------------------------------------------|
E|--------------------------------------------------------------------------|

E|---------------------------|
B|---------------------------|
G|---------------------------|
D|-4--3--4--5---7--6--7--8---|
A|-4--3--4--5---7--6--7--8---|
E|-2--1--2--3---5--4--5--6---|

Guitar 2
E|-------------------------------------------------------------------|
B|-------------------------------------------------------------------|
G|-------------------------------------------------------------------|
D|---------------------------------5-5-5-5-4-4-4-3-3-3-2-2-1-1-0-0---|
A|-7-7-7-6-6-6-5-5-5-4-4-3-3-2-2---7-7-7-7-6-6-6-5-5-5-4-4-3-3-2-2---|
E|-------------------------------------------------------------------|

E|--------------------------------------------------------------------|
B|--------------------------------------------------------------------|
G|--------------------------------------------------------------------|
D|-5-5-5-5-4-4-4-3-3-3-2-2-1-1-0-0---5-5-5-5-4-4-4-3-3-3-2-2-1-1-0-0--|
A|-7-7-7-7-6-6-6-5-5-5-4-4-3-3-2-2---7-7-7-7-6-6-6-5-5-5-4-4-3-3-2-2--|
E|--------------------------------------------------------------------|

E|----------------------------------------------------------------------|
B|----------------------------------------------------------------------|
G|----------------------------------------------------------------------|
D|-6-6-6-6—5-5-5-4-4-4-3-3-2-2-1-1----6-6-6-6—5-5-5-4-4-4-3-3-2-2-1-1---|
A|-7-7-7-7-6-6-6—5-5-5-4-4-3-3-2-2----7-7-7-7-6-6-6—5-5-5-4-4-3-3-2-2---|
E|----------------------------------------------------------------------|

E|----------------------------------------------------------------|
B|----------------------------------------------------------------|
G|----------------------------------------------------------------|
D|--6-6-6-6—5-5-5-4-4-4-3-3-2-2-1---6-6-6-6—5-5-5-4-4-4-3-3-2-2-1-|
A|--7-7-7-6-6-6—5-5-5-4-4-3-3-2-2---7-7-7-6-6-6—5-5-5-4-4-3-3-2-2-|
E|----------------------------------------------------------------|

E|---------------------------|
B|---------------------------|
G|---------------------------|
D|-4--3--4--5---7--6--7--8---|
A|-4--3--4--5---7--6--7--8---|
E|-2--1--2--3---5--4--5--6---|

Final Chorus

Guitar 1
E|--------------------------------------||-------------------------| 
B|--------------------------------------||-------------------------| 
G|--------5-------------------------7---||-------------------------| 
D|--------5-------------------------7---||-------------------------|   x2 
A|--------3-------------------------5---||--7--7--5----------------|
E|--------------------------------------||-----------6—6--5--3--0--|

E|--------------------------------------||-------------------------| 
B|--------------------------------------||-------------------------| 
G|--------5-------------------------7---||-------------------------| 
D|--------5-------------------------7---||-------------------------|   x2 
A|--------3-------------------------5---||--7--7--5----------------|
E|--------------------------------------||-----------6—6--5--3--0--|

E|--------------------------------------||-------------------------| 
B|--------------------------------------||-------------------------| 
G|--------5-------------------------7---||-------------------------| 
D|--------5-------------------------7---||-------------------------|   x2 
A|--------3-------------------------5---||--7--7--5----------------|
E|--------------------------------------||-----------6—6--5--3--0--|

E|---------------------------||------------------------------------------3-| 
B|---------------------------||-9---7------------------------------------3-| 
G|--------5--------------7---||-9---7---7---6---4-------2---4------------1-| 
D|--------5--------------7---||-9---7---8---7---5---2---2---5---2--------2-|
A|--------3--------------5---||-7---5---8---7---5---0---0---5---2--------2-|
E|---------------------------||---------6---5---3---0-------3---0--------0-|

                                             Slowly detune low E string  ^

Guitar 2
E|-----------------------------------||-------------------------------|  
B|-----------------------------------||-------------------------------|  
G|----5--------------7---------------||--9--9-------------------------| 
D|----5--------------7---------------||--9--9-------------------------|   x2 
A|----3---2----------5---4-----------||--7--7--5----------------------|  
E|-----------5---3----------7----5---||-----------6--6--5--5--3--0----|  

E|-----------------------------------||-------------------------------|  
B|-----------------------------------||-------------------------------|  
G|----5--------------7---------------||--9--9-------------------------| 
D|----5--------------7---------------||--9--9-------------------------|   x2 
A|----3---2----------5---4-----------||--7--7--5----------------------|  
E|-----------5---3----------7----5---||-----------6--6--5--5--3--0----|  

E|-----------------------------------||-------------------------------|  
B|-----------------------------------||-------------------------------|  
G|----5--------------7---------------||--9--9-------------------------| 
D|----5--------------7---------------||--9--9-------------------------|   x2 
A|----3---2----------5---4-----------||--7--7--5----------------------|  
E|-----------5---3----------7----5---||-----------6--6--5--5--3--0----|  

E|-----------------------------------------|  
B|-----------------------------------------|  
G|----5-----------------7------------------| 
D|----5-----------------7------------------| 
A|----3---2-------------5----4-------------| 
E|-----------5---3---------------7----5----| 
  
E|------------------------------------------3-| 
B|-9---7------------------------------------3-| 
G|-9---7---7---6---4-------2---4------------1-| 
D|-9---7---8---7---5---2---2---5---2--------2-|
A|-7---5---8---7---5---0---0---5---2--------2-|
E|---------6---5---3---0-------3---0--------0-|




r  release
b  bend
/  slide
h  hammer-on
p  pull-off
~  vibrato
x  Mute note
comments
print report bad tab
14 comments total. Showing first comments.
0 reply
atc228 wrote on February 28 2005, 12:00 am

excellent...

0 reply
atc228 wrote on February 28 2005, 12:00 am

could be more organized tho

+1 reply
Zenyth wrote on June 28 2005, 12:00 am

How does he reach up to 34th fret and such?

I want to post or [tab]
guest
You may want to rate the tab now too:
select rating
Please do not post tabs as comments. Select "correction" instead!