Oops, an error
Loading. Please wait.

Welcome To The Jungle Tab

ver5
ver5
More versions @911Tabs.com
97,610 views 145 this week
20 commentsread comments
1 2 3 4 5
excellent!
x 29
Autoscroll
+/-
esc
set tempo
stop
NEW! There's an official Ultimate Guitar app which is ideal
for learning songs when you're away from computer. Get the app
WARNING: You are trying to view
                                    content from Ultimate-Guitar.com
                                    in an unauthorized application,
                                    which is prohibited.

                                    Please use an official Ultimate
                                    Guitar Tabs application for iPhone,
                                    iPad or Android to access legitimate
                                    chords, guitar, bass, and drum tabs
                                    from Ultimate-Guitar.com database.

                                    Type "ultimate guitar tabs" in Apple
                                    App Store's or Android Market's
                                    search to find the application.
Classic track, Welcome To The Jungle, Guns N Roses. 
Explosive opener from Appetite For Destruction.

Tuning: Half step down.

Intro: 
Delayed guitar. set to 16th notes [123ms at 122bpm]                        
eb|--------------------------| |-----------------------------------|
Bb|--------------------------| |-----------------------------------|
Gb|--4---4-4-4-----4---4-4-4-| |-4---4--2---2----------------------|
Db|--------------------------| |---------------4---4--2---2--0-----|
Ab|--------------------------| |---------------------------------2-|
Eb|--------------------------| |-----------------------------------| x6

"Oh my God"

Guitar 1 [Izzy-still rythm, just not this part]
eb|---------------------------------------|
Bb|---------------------------------------|
Gb|---------7-9-9b---7\-------------------|
Db|--7h9------------------7h9----9\-------|
Ab|----------------------------------7----|
Eb|---------------------------------------|

Guitar 2 [Slash-gets into lead bit later]
eb|---------------------------------------|
Bb|---------------------------------------|
Gb|---------------------------------------|
Db|----9--------7---------5----------2----|
Ab|----9--------7---------5----------2----|
Eb|----7--------5---------3----------0----|

Delayed guitar 
eb|---------------------------------------|
Bb|---------------------------------------|
Gb|--4-4-4--2-2-2-------------------------|
Db|----------------4-4-4--2-2-2--0-0------|
Ab|-----------------------------------2-2-|
Eb|---------------------------------------| x3

Gtr 1 Turn volume up
eb|----------------------------------|----------------------------5--------|
Bb|----------------------------------|-------------------3-5--5b-----3-----|
Gb|--x-11-----x-9--------------------|-------------2-4---------------------|
Db|--x--9-----x-7-----x-9-----7---2--|-------2-4---------------------------|
Ab|-------------------x-7-----5---0--|--2-4--------------------------------|
Eb|----------------------------------|----------------------------------7\-|

Gtr 2 Turn volume up
eb|----------------------------------|-------------------------------------|
Bb|----------------------------------|-------------------------------------|
Gb|---------------------9-----7------|-------------------------------------|
Db|-----9-------7-------9-----7---7--|--4-4-4-4-4-4-4-4-4-4-4-4-4-4-4------|
Ab|-----9-------7-------7-----5---7--|--2-2-2-2-2-2-2-2-2-2-2-2-2-2-2------|
Eb|-----7-------5-----------------5--|----------------------------------7\-|

Gtr 1
eb|-------------------------------|----------------------------------|
Bb|-------------------------------|----------------------------------|
Gb|-2-------------2---2-----------|-2--x-x----------2--x-x-----------|
Db|-2----------2--2---2-----------|-2--x-x-------2--2--x-x-----------|
Ab|-0----------0---------------0--|-0--x-x-------0----------------0--|
Eb|-------3h4------------3--2-----|---------3h4-------------3--2-----|

Gtr 2
eb|-------------------------------|----------------------------------|
Bb|-------------------------------|----------------------------------|
Gb|-------------------------------|----------------------------------|
Db|-------------------------------|----------------------------------|
Ab|-7--7--5----x--7---7--5--4-----|-7--7----5----x--7---7---5--4-----|
Eb|-5--5--3----x--5---5--3--2--0--|-5--5----3----x--5---5---3--2--0--|

Gtr 1
eb|----------------------------------|--------------5------------------|
Bb|----------------------------------|------------x--------------------|
Gb|-2--x-x----------2--x-x-----------|--2------------------------------|
Db|-2--x-x-------2--2--x-x-----------|--2------------------------------|
Ab|-0--x-x-------0----------------0--|--0------x-----------------------|
Eb|---------3h4-------------3--2-----|----------------------------7\---|

Gtr 2
eb|----------------------------------|---------------------------------|
Bb|----------------------------------|---------------------------------|
Gb|----------------------------------|--7p5---7p5----------------------|
Db|----------------------------------|------7-----7-5------------------|
Ab|-7--7----5----x--7---7---5--4-----|----------------7-6-5\3-5-3------|
Eb|-5--5----3----x--5---5---3--2--0--|----------------------------5-3--|

Verse 1:
Gtr 1
eb|----------------------------------|----------------------------------|
Gb|-2--x-x----------2--x-x-----------|-2--x-x----------2--x-x-----------|
Db|-2--x-x-------2--2--x-x-----------|-2--x-x-------2--2--x-x-----------|
Ab|-0--x-x-------0-------------------|-0--x-x-------0-------------------|
Eb|---------3b--------------3--2--0--|---------3b--------------3--2--0--| x2

Gtr 2
eb|----------------------------------|----------------------------------|
Bb|----------------------------------|----------------------------------|
Gb|----------------------------------|----------------------------------|
Db|----------------------------------|----------------------------------|
Ab|-7--7----5----5--7-x-x---5--4-----|-7--7----5----5--7-x-x---5--4-----|
Eb|-5--5----3----3--5-x-x---3--2--0--|-5--5----3----3--5-x-x---3--2--0--| x2

Gtr 1
eb|------------------------------|------------------------------|
Bb|------------------------------|-------7----------------------|
Gb|------------------------------|-------7----------------------|
Db|-9-----7--x--9----------------|-9-x-x-7--x--9----------------|
Ab|-7-----5--x--7--x-x--5--4--2--|-7-x-x----x--7--x-x--5--4--2--|
Eb|------------------------------|------------------------------| x2

Gtr 2
eb|------------------------------|------------------------------|
Bb|------------------------------|------------------------------|
Gb|------------------------------|------------------------------|
Db|-9--9--7--x--9----9--7--6--4--|-9--9--7--x--9----9--7--6--4--|
Ab|-7--7--5--x--7----7--5--4--2--|-7--7--5--x--7----7--5--4--2--|
Eb|------------------------------|------------------------------| x2

Chorus:
Gtr 1
eb|-------------------|----------------|
Bb|-------------------|-3--------------|
Gb|-------------------|-2--------------|
Db|-------------------|-0--------------|
Ab|-3---2---0---------|-----4---2---0--|
Eb|-------------3-----|----------------|

Gtr 2
eb|-------------------|----------------|
Bb|-------------------|----------------|
Gb|-------------------|----------------|
Db|-5-----------------|-7--------------|
Ab|-3-----------------|-5--------------|
Eb|--------------3p0--|----------------|

Gtr 1
eb|------------------------|         |--------------------|
Bb|------------------------|         |--------------------|
Gb|------------------------|         |--------------------|
Db|------------------------|         |--------------------|
Ab|-7--7--5--x-------------|         |-7--5---------------|
Eb|-------------6---5-3-0--| x3 then |-------6---5--3--4--|

Gtr 2
eb|------------------------|         |--------------------|
Bb|------------------------|         |--------------------|
Gb|------------------------|         |--------------------|
Db|------------------------|         |--------------------|
Ab|-7--7--5--x-------------|         |-7--5---------------|
Eb|-------------6---5-3-0--| x3 then |-------6---5--3--4--|

Verse 2:
Gtr 1
eb|----------------------------------|----------------------------------|
Gb|-2--x-x----------2--x-x-----------|-2--x-x----------2--x-x-----------|
Db|-2--x-x-------2--2--x-x-----------|-2--x-x-------2--2--x-x-----------|
Ab|-0--x-x-------0-------------------|-0--x-x-------0-------------------|
Eb|---------3b--------------3--2--0--|---------3b--------------3--2--0--| x2

Gtr 2 Minor change here for Slash:
eb|----------------------------------|---------------------------------|
Bb|----------------------------------|---------------------------------|
Gb|----------------------------------|---------------------------------|
Db|----------------------------------|---------------7--5--------------|
Ab|-7--7----5----5--7-x-x---5--4-----|-7--7----5--x-------7-6-5-3------|
Eb|-5--5----3----3--5-x-x---3--2--0--|-5--5----3--x---------------5-3--|
  |
eb|----------------------------------|----------------------------------|
Bb|----------------------------------|----------------------------------|
Gb|----------------------------------|----------------------------------|
Db|----------------------------------|------7---------------------7--5--|
Ab|-7--7----5----5--7-x-x---5--4-----|-0--0---0-3/4-x-5--x-x--3/4-------|
Eb|-5--5----3----3--5-x-x---3--2--0--|----------------------------------|

Gtr 1
eb|------------------------------|------------------------------|
Bb|------------------------------|-------7----------------------|
Gb|------------------------------|-------7----------------------|
Db|-9-----7--x--9----------------|-9-x-x-7--x--9----------------|
Ab|-7-----5--x--7--x-x--5--4--2--|-7-x-x----x--7--x-x--5--4--2--|
Eb|------------------------------|------------------------------| x2

Gtr 2
eb|------------------------------|------------------------------|
Bb|------------------------------|------------------------------|
Gb|------------------------------|------------------------------|
Db|-9--9--7--x--9----9--7--6--4--|-9--9--7--x--9----9--7--6--4--|
Ab|-7--7--5--x--7----7--5--4--2--|-7--7--5--x--7----7--5--4--2--|
Eb|------------------------------|------------------------------| x2

Chorus:
Gtr 1
eb|-------------------|----------------|
Bb|-------------------|-3--------------|
Gb|-------------------|-2--------------|
Db|-------------------|-0--------------|
Ab|-3---2---0---------|-----4---2---0--|
Eb|-------------3-----|----------------|

Gtr 2
eb|-------------------|----------------|
Bb|-------------------|----------------|
Gb|-------------------|----------------|
Db|-5-----------------|-7--------------|
Ab|-3-----------------|-5--------------|
Eb|--------------3p0--|----------------|

Gtr 1
eb|------------------------|         |--------------------|
Bb|------------------------|         |--------------------|
Gb|------------------------|         |--------------------|
Db|------------------------|         |---4---4--4---4--7--|
Ab|-7--7--5--x-------------|         |---2---2--2---2--5--|
Eb|-------------6---5-3-0--| x3 then |--------------------|

Gtr 2
eb|------------------------|         |--/7--/7-------------|
Bb|------------------------|         |--/7--/7--7\---------|
Gb|------------------------|         |---------------------|
Db|------------------------|         |---------------------|
Ab|-7--7--5--x-------------|         |---------------------|
Eb|-------------6---5-3-0--| x3 then |---------------------|

Solo 1:
Gtr 2 [Slash]
eb|------------------------------------|--------------------------------|
Bb|----------------------12---------12-|-------------12-----15----------|
Gb|-x--12/13--x--9---13--12--13--x--12-|-x-12/13--x--13--x--13--14--15--|
Db|-x--11/12--x--9---12------12--x-----|-x-11/12--x--12--x--12--12--13--|
Ab|------------------------------------|--------------------------------|
Eb|------------------------------------|--------------------------------|

eb|----15\--|-------19b---19-18-17---16-15------|
Bb|----15\--|----17------------------------15\--|
Gb|-x-------|-18--------------------------------|
Db|-x-------|-----------------------------------|
Ab|---------|-----------------------------------|
Eb|---------|-----------------------------------|

eb|-/12-10---------------------------------------------------|
Bb|--------12-11--10h11p10-----10----------------------------|
Gb|-------------------------12----12-9-7---------------9-8-7-|
Db|--------------------------------------9-8--7h8p7-5--------|
Ab|----------------------------------------------------------|
Eb|----------------------------------------------------------|

Verse 3:
Gtr 1
eb|----------------------------------|----------------------------------|
Gb|-2--x-x----------2--x-x-----------|-2--x-x----------2--x-x-----------|
Db|-2--x-x-------2--2--x-x-----------|-2--x-x-------2--2--x-x-----------|
Ab|-0--x-x-------0-------------------|-0--x-x-------0-------------------|
Eb|---------3b--------------3--2--0--|---------3b--------------3--2--0--| x2

Gtr 2 Another slight change:
eb|----------------------------------|-----------------------------------|
Bb|----------------------------------|-----------------------------------|
Gb|----------------------------------|-----------------------------------|
Db|-------------------------------x--|--7--5-----------------------------|
Ab|-7--7----5----5--7-x-x---5--4--x--|-------7-6-5-3-6p5-6-5-3---5---3h4-|
Eb|-5--5----3----3--5-x-x---3--2-----|-------------------------5---5-----|
  |
eb|----------------------------------|----------------------------------|
Bb|----------------------------------|----------------------------------|
Gb|----------------------------------|----------------------------------|
Db|----------------------------------|----------------------------------|
Ab|-7--7----5----5--7-x-x---5--4-----|-7--7----5----5--7-x-x---5--4-----|
Eb|-5--5----3----3--5-x-x---3--2--0--|-5--5----3----3--5-x-x---3--2--0--|

Gtr 1
eb|------------------------------|------------------------------|
Bb|------------------------------|-------7----------------------|
Gb|------------------------------|-------7----------------------|
Db|-9-----7--x--9----------------|-9-x-x-7--x--9----------------|
Ab|-7-----5--x--7--x-x--5--4--2--|-7-x-x----x--7--x-x--5--4--2--|
Eb|------------------------------|------------------------------| x2

Gtr 2
eb|------------------------------|------------------------------|
Bb|------------------------------|------------------------------|
Gb|------------------------------|------------------------------|
Db|-9--9--7--x--9----9--7--6--4--|-9--9--7--x--9----9--7--6--4--|
Ab|-7--7--5--x--7----7--5--4--2--|-7--7--5--x--7----7--5--4--2--|
Eb|------------------------------|------------------------------| x2

Chorus:
Gtr 1
eb|-------------------|----------------|
Bb|-------------------|-3--------------|
Gb|-------------------|-2--------------|
Db|-------------------|-0--------------|
Ab|-3---2---0---------|-----4---2---0--|
Eb|-------------3-----|----------------|

Gtr 2
eb|-------------------|----------------|
Bb|-------------------|----------------|
Gb|-------------------|----------------|
Db|-5-----------------|-7--------------|
Ab|-3-----------------|-5--------------|
Eb|--------------3p0--|----------------|

Gtr 1
eb|------------------------|         |--------------------|
Bb|------------------------|         |--------------------|
Gb|------------------------|         |--------------------|
Db|------------------------|         |--------------------|
Ab|-7--7--5--x-------------|         |-7--5---------------|
Eb|-------------6---5-3-0--| x3 then |-------6---5--3--0--|

Gtr 2
eb|------------------------|         |--------------------|
Bb|------------------------|         |--------------------|
Gb|------------------------|         |--------------------|
Db|------------------------|         |--------------------|
Ab|-7--7--5--x-------------|         |-7--5---------------|
Eb|-------------6---5-3-0--| x3 then |-------6---5--3--0--|

Gtr 1 [Izzy and Slash swap here]
eb|-2---------|-3---------|-2---3p2-----|-3---8p7-----------------|
Bb|-3---------|-3----6----|-3--------6--|-3-----------8p7-------6-|
Gb|-2----5----|-0----5----|-2--------5--|-0-------7\5-----7-----5-|
Db|-0---------|-0---------|-0-----------|-------------------7-----|
Ab|-----------|-x---------|-------------|-------------------------|
Eb|-----------|-3---------|-------------|-------------------------|

Gtr 2
eb|-----------|-----------|-------------|-------------------------|
Bb|-----------|-----------|-------------|-------------------------|
Gb|-7---------|-----------|-7-----------|--------------7----------|
Db|-7---------|-5---------|-7-----------|-5------------7----------|
Ab|-5---------|-5---------|-5-----------|-5------------5----------|
Eb|-----------|-3---------|-------------|-3-----------------------|

Gtr 1
eb|-3----8p7--------|-2---------| |----------------------|
Bb|-3------------6--|-3---------| |-12-12-12-12-12---10--|
Gb|-0--------7\5----|-2---------| |-12-12-12-12-12---10--|
Db|-----------------|-0----10---| |-12-12-12-12-12---10--|
Ab|-----------------|-------8---| |-10-10-10-10-10-------|
Eb|-----------------|-----------| |----------------------| x3

Gtr 2
eb|-----------------|----------| |----------------------|
Bb|-----------------|----------| |----------------------|
Gb|-----------------|-7--------| |-12-12-12-12-12---10--|
Db|-5---------------|-7----10--| |-12-12-12-12-12---10--|
Ab|-5---------------|-5-----8--| |-10-10-10-10-10-------|
Eb|-3---------------|----------| |----------------------| x3

Both Guitars
eb|-----------------|
Bb|-14-14-14-14-14--|
Gb|-14-14-14-14-14--|
Db|-14-14-14-14-14--|
Ab|-12-12-12-12-12--|
Eb|-----------------|

Solo 2: [Slash]
eb|--------------------------------------12-----------------------------|
Bb|--15b-----15b--15b--15b---12-------12----12--15------------15/17--15-|
Gb|------------------------------14b----------------15-14-12------------|
Db|---------------------------------------------------------------------|
Ab|---------------------------------------------------------------------|
Eb|---------------------------------------------------------------------|

eb|----------------------------------------------------------------------|
Bb|------------------------------------------------------------------12--|
Gb|-----------------------------------------9----11/13-11---12p11-9--11b-|
Db|-----------------------------------9-11----11-------------------------|
Ab|------------7-----9/11-9---7--9/11------------------------------------|
Eb|-18\--9--------9------------------------------------------------------|

eb|--------------------------0---0--0--0---------------------------------|
Bb|-12-------------------5---5---3--2--0---3-2-0-2-0---------------------|
Gb|-13--11p9----------/6---6---------------3-2-0-2-0--1-2--4-4--2-2--1-1-|
Db|----------11-9--------------------------------------------------------|
Ab|----------------------------------------------------------------------|
Eb|----------------------------------------------------------------------|

eb|----------------------------------------------------------------|
Bb|-----------------------15b-15----------------------------14-12--|
Gb|------------------------------14b-14---15p14-12-----------------|
Db|-4-4--3\2-0-2-0-1/------------------------------14-12/14----12--|
Ab|----------------------------------------------------------------|
Eb|----------------------------------------------------------------|

eb|------------------------------------------------------------------|
Bb|------------------------------------------------------------------|
Gb|-7b---4-----------------------------------------------------------|
Db|---------7b---4---------------------------------------------------|
Ab|-----------------5b---2-------------------------------------------|
Eb|-------------------------5b--0--2---------------------------------|

Gtr 1 [Izzy]                         PM............................
eb|------------------------------------------------------------------|
Bb|------------------------------------------------------------------|
Gb|------------------------------------------------------------------|
Db|------------------------------------------------------------------|
Ab|------------------------------------------------------------------|
Eb|------------------------------------2--2--2--2--2--2--2--2--2--2--|

Bridge:
Gtr 1 Add random slides effects, pick scrapes etc
eb|--x\------------x\---------------------------|
Bb|--x\------------x\---------------------------|
Gb|----------------x\---------------------------|
Db|---------------------------------------------|
Ab|-------------------------------------/7------|
Eb|---------------------------------------------|

Gtr 2
eb|---------------------------------------------|
Bb|---------------------------------------------|
Gb|---------------------------------------------|
Db|-----------------------------------x---x-----|
Ab|-----------------------------------x---x-----|
Eb|---------------------------------------------|

Gtr 1
eb|-------------------------------------------|
Bb|-------------------------------------------|
Gb|--/9---------------------------------------|
Db|-------------------------------------------|
Ab|-------------------------------------------|
Eb|-------------------------------------------|
  |
eb|-------------------------------------------|
Bb|-12------12--------------------------------|
Gb|-14b-----14b\------------------------------|
Db|-------------------------------------------|
Ab|-------------------------------------------|
Eb|-------------------------------------------|

Gtr 2
eb|-------------------------------------------|
Bb|-------------------------------------------|
Gb|-------------------------------------------|
Db|-------------------------------------------|
Ab|-7-7-7-7--6-6-6-6--5-5-5-5--4-4--3-3--2-2--|
Eb|-------------------------------------------| x2

Gtr 1
eb|-------------------------------------------|
Bb|-------------------------------------------|
Gb|-------------------------------------------|
Db|-5-5-5-5--4-4-4-4--3-3-3-3--2-2--1-1--0-0--|
Ab|-------------------------------------------|
Eb|-------------------------------------------| x4

Gtr 2
eb|-------------------------------------------|
Bb|-------------------------------------------|
Gb|-------------------------------------------|
Db|-------------------------------------------|
Ab|-7-7-7-7--6-6-6-6--5-5-5-5--4-4--3-3--2-2--|
Eb|-------------------------------------------| x4

Both Guitars
eb|----------------------------------|
Bb|----------------------------------|
Gb|----------------------------------|
Db|----------------------------------|
Ab|--4---3---4---5----7---6---7---8--|
Eb|--2---1---2---3----5---4---5---6--|

Final Chorus: [Repeat x3]
Gtr 1
eb|-------------------|----------------|
Bb|-------------------|-3--------------|
Gb|-------------------|-2--------------|
Db|-------------------|-0--------------|
Ab|-3---2---0---------|-----4---2---0--|
Eb|-------------3-----|----------------|

Gtr 2
eb|-------------------|----------------|
Bb|-------------------|----------------|
Gb|-------------------|----------------|
Db|-5-----------------|-7--------------|
Ab|-3-----------------|-5--------------|
Eb|--------------3p0--|----------------|

Gtr 1
eb|------------------------|      
Bb|------------------------|      
Gb|------------------------|     
Db|------------------------|      
Ab|-7--7--5--x-------------|       
Eb|-------------6---5-3-0--| x2

Gtr 2
eb|------------------------| 
Bb|------------------------| 
Gb|------------------------|       
Db|------------------------|        
Ab|-7--7--5--x-------------|         
Eb|-------------6---5-3-0--| x2

Gtr 1
eb|-------------------|----------------|
Bb|-------------------|-3--------------|
Gb|-------------------|-2--------------|
Db|-------------------|-0--------------|
Ab|-3---2---0---------|-----4---2---0--|
Eb|-------------3-----|----------------|

Gtr 2
eb|-------------------|----------------|
Bb|-------------------|----------------|
Gb|-------------------|----------------|
Db|-5-----------------|-7--------------|
Ab|-3-----------------|-5--------------|
Eb|--------------3p0--|----------------|

Outro:
Gtr 1
eb|------------------------|------------------------------------||
Bb|-----7------------------|-----------------8------------------||
Gb|-----7------------------|--2--------------7------------------||
Db|-9---7---8---7---5------|--2-------2------6------------------||
Ab|-7---5---8---7---5---2--|--0-------2------7------------------||
Eb|---------6---5---3---0--|------3---0-------------------------||

Gtr 2
eb|------------------------|------------------------------------||
Bb|------------------------|-----------------8------------------||
Gb|------------------------|-----------------7------------------||
Db|-9---7------------------|------0---2------6------------------||
Ab|-7---5---6---7---5---2--|--7---x---2------7------------------||
Eb|---------8---5---3---0--|--5---3---0-------------------------||

Welcome To The Jungle by Guns N Roses. Hope you enjoy the tab! Rock on!

comments
print report bad tab
20 comments total. Showing first comments.
0 reply
hendrixfreak93 wrote on October 16 2007, 05:04 pm

looks amazing to me! im gonna have to give it a play. thanks!

0 reply
COCHISE 90 wrote on October 29 2007, 10:37 pm

Man this is a brilliant tab, much better than the other versions. Good job!!

0 reply
JimPrenier_11 wrote on November 30 2007, 09:53 pm

nice job It looks like I seen this somewere before but still good job

I want to post or [tab]
guest
You may want to rate the tab now too:
select rating
Please do not post tabs as comments. Select "correction" instead!