Oops, an error
Loading. Please wait.

Bring Back The Bomb Tab

by Gwar
ver3
ver3

Whole song

Interactive

More versions @911Tabs.com
5,832 views 15 this week
2 commentsread comments
1 2 3 4 5
accurate
x 4
add to favorites launch autoscroll
font size
0
reset
Autoscroll
+/-
esc
set tempo
stop
Contributor
WARNING: You are trying to view
                                    content from Ultimate-Guitar.com
                                    in an unauthorized application,
                                    which is prohibited.

                                    Please use an official Ultimate
                                    Guitar Tabs application for iPhone,
                                    iPad or Android to access legitimate
                                    chords, guitar, bass, and drum tabs
                                    from Ultimate-Guitar.com database.

                                    Type "ultimate guitar tabs" in Apple
                                    App Store's or Android Market's
                                    search to find the application.
--------------------------------------------------------------------------------|
                 Bring Back the Bomb - GWAR ------------------------------------|
--------------------------------------------------------------------------------|
July 31, 2009

Tabbed by: louzarv2
My youtube account is louzarv1
I have a bring back the bomb cover on there...

Tuning:
Eb Ab Db Gb Bb Eb or D# G# C# F# A# D#

I DONT KNOW IF I TABBED IT RIGHT I NEVER CHECKED IT SO IF YOU HAVE ANY QUESTIONS JUST ASK!!

{NOTE} I DIDNT INCLUDE WHERE THE PALMUTES SHOULD BE.

MAKE SURE TO READ LITTLE NOTES I LEAVE IN THE TAB..

BY THE WAY THIS IS MY FIRST TAB..

INTRO
Verse 1

e|----------------------------------------------------------------------------------------|
B|----------------------------------------------------------------------------------------|
G|----------------------------------------------------------------------------------------|
D|----------------------------------------------------------------------------------------|
A|------------7h10p7--6h9p6-----------7h10p7--6h9p6--7h10p7--6h9p6---------7h10p7--6h9p6--|
E|--0-0-0---------------------0-0-0---------------------------------0-0-0-----------------|

e|--------------------------------------------------------------------------------------|
B|--------------------------------------------------------------------------------------|
G|--------------------------------------------------------------------------------------|
D|--------------------------------------------------------------------------------------|
A|----------------7-7-7---------8-8-8---------------------------------------------------|
E|--0-0-0--5-5-5---------5-5-5----------------------------------------------------------|

e|----------------------------------------------------------------------------------------|
B|----------------------------------------------------------------------------------------|
G|----------------------------------------------------------------------------------------|
D|----------------------------------------------------------------------------------------|
A|------------7h10p7--6h9p6-----------7h10p7--6h9p6--7h10p7--6h9p6---------7h10p7--6h9p6--|
E|--0-0-0---------------------0-0-0---------------------------------0-0-0-----------------|

e|--------------------------------------------------------------------------------------|
B|--------------------------------------------------------------------------------------|
G|--------------------------------------------------------------------------------------|
D|--------------------------------------------------------------------------------------|
A|----------------7-7-7---------10-10-10------------------------------------------------|
E|--0-0-0--5-5-5---------5-5-5----------------------------------------------------------|
REPEAT VERSE 1 OF INTRO AGAIN
THEN....

VERSE 2!!!

e|-------------------------------------------------------------------------------------------|
B|-------------------------------------------------------------------------------------------|
G|-------------------------------------------------------------------------------------------|
D|-----------9h12p9-8h11p8---------9h12p9-8h11p8--9h12p9-8h11p8---------9h12p9-8h11p8--------|
A|-------------------------------------------------------------------------------------------|
E|---0-0-0-----------------0-0-0------------------------------0-0-0-------------------0-0-0--|

e|-----------------------------------------------------------------------------|
B|-----------------------------------------------------------------------------|
G|-----------------------------------------------------------------------------|
D|----------9-9-9---------10-10-10---------------------------------------------|
A|---7-7-7---------7-7-7-------------------------------------------------------|
E|-----------------------------------------------------------------------------|

e|-------------------------------------------------------------------------------------------|
B|-------------------------------------------------------------------------------------------|
G|-------------------------------------------------------------------------------------------|
D|-----------9h12p9-8h11p8---------9h12p9-8h11p8--9h12p9-8h11p8---------9h12p9-8h11p8--------|
A|-------------------------------------------------------------------------------------------|
E|---0-0-0-----------------0-0-0------------------------------0-0-0-------------------0-0-0--|

e|--------------------------------------------------------------------------------------|
B|--------------------------------------------------------------------------------------|
G|--------------------------------------------------------------------------------------|
D|----------9-9-9--------12-12-12-------------------------------------------------------|
A|---7-7-7---------7-7-7----------------------------------------------------------------|
E|--------------------------------------------------------------------------------------|

Chorus 1(Chorus is different every time)
(BRING BACK THE BOMB!)

I DONT KNOW THE RIGHT STRUMMING BUT ILL SHOW YOU THE POWERCHORDS!!!

e|-------------------------------------------------------------------------------------|
B|-------------------------------------------------------------------------------------|
G|-------------------------------------------------------------------------------------|
D|---9------------10--9----------------------------------------------------------------|
A|---7----8--------8--7----------------------------------------------------------------|
E|--------6----------------------------------------------------------------------------|

e|--------------------------------------------------|
B|--------------------------------------------------|
G|-----------------------------------------------9--|
D|----------8--------------9--------------10--------|
A|----7-7-7---7-7----8-8-8---8-8----9-9-9---9-9-----|
E|--------------------------------------------------|

THEN PLAY VERSE 1 OF INTRO 1x
THEN PLAY VERSE 2 OF INTRO 1x

Chorus 2

e|-------------------------------------------------------------------------------------|
B|-------------------------------------------------------------------------------------|
G|-------------------------------------------------------------------------------------|
D|---9------------10--9----------------------------------------------------------------|
A|---7----8--------8--7----------------------------------------------------------------|
E|--------6----------------------------------------------------------------------------|

e|---------------------------------------------------------------------------------------|
B|---------------------------------------------------------------------------------------|
G|---------------------------------------------------------------------------------------|
D|---------8----------8------------------------------------------------------------------|
A|---7-7-7--7-7-7-7-7---7-7--------------------------------------------------------------|
E|---------------------------------------------------------------------------------------|

e|-------------------------------------------------------------------------------------|
B|-------------------------------------------------------------------------------------|
G|-------------------------------------------------------------------------------------|
D|---9------------10--9----------------------------------------------------------------|
A|---7----8--------8--7----------------------------------------------------------------|
E|--------6----------------------------------------------------------------------------|

e|-------------------------------------------------------------------------------------|
B|-------------------------------------------------------------------------------------|
G|-------------------------------------------------------------------------------------|
D|---------8----------10---------------------------------------------------------------|
A|---7-7-7--7-7-7-7-7------------------------------------------------------------------|
E|-------------------------------------------------------------------------------------|


e|-------------------------------------------------------------------------------------|
B|-------------------------------------------------------------------------------------|
G|-------------------------------------------------------------------------------------|
D|---9------------10--9----------------------------------------------------------------|
A|---7----8--------8--7----------------------------------------------------------------|
E|--------6----------------------------------------------------------------------------|

e|---------------------------------------------------------------------------------------|
B|---------------------------------------------------------------------------------------|
G|---------------------------------------------------------------------------------------|
D|---------8----------8------------------------------------------------------------------|
A|---7-7-7--7-7-7-7-7---7-7--------------------------------------------------------------|
E|---------------------------------------------------------------------------------------|


e|-------------------------------------------------------------------------------------|
B|-------------------------------------------------------------------------------------|
G|-------------------------------------------------------------------------------------|
D|---9------------10--9----------------------------------------------------------------|
A|---7----8--------8--7----------------------------------------------------------------|
E|--------6----------------------------------------------------------------------------|

Verse 3 (use fast tremelo picking listen to the song)

e|---------------------------------------------------------------------|
B|---------------------------------------------------------------------|
G|----------9---------------------9-----------12-------9---------------|
D|----9-9-9--9-9-9-9-9-10---9-9-9---9-9-9-9-9----9-9-9---9-9-9-9-9-10--|
A|---------------------------------------------------------------------|
E|---------------------------------------------------------------------|

e|---------------------------------------------------------------------------------------|
B|---------------------------------------------------------------------------------------|
G|---------------------------------------------------------------------------------------|
D|--------9------------------------------------------------------------------------------|
A|--9-9-9--9-9-9-9-9-12------------------------------------------------------------------|
E|---------------------------------------------------------------------------------------|

e|---------------------------------------------------------------------|
B|---------------------------------------------------------------------|
G|----------9---------------------9-----------12-------9---------------|
D|----9-9-9--9-9-9-9-9-10---9-9-9---9-9-9-9-9----9-9-9---9-9-9-9-9-10--|
A|---------------------------------------------------------------------|
E|---------------------------------------------------------------------|

e|------------------------|
B|------------------------|
G|------------------------|
D|--------9---------------|
A|--9-9-9--9-9-9-9-9-12~--|
E|------------------------|

THE BREAKDOWN PART
(PLAY ALONG WITH THE DRUMS)

e|--------------------------------------------------------------------------------------|
B|--------------------------------------------------------------------------------------|
G|--------------------------------------------------------------------------------------|
D|---8--8----8--8----8--8----9--9--9----------------------------------------------------|
A|---7--7----7--7----7--7----7--7--7----------------------------------------------------|
E|--------------------------------------------------------------------------------------|

THEN PLAY THE SAME THING BUT WITH PALMUTES BETWEEN THE NOTES

e|------------------------------------|
B|------------------------------------|
G|------------------------------------|
D|---8--8----8--8----8--8----9--9--9--|
A|---7--7----7--7----7--7----7--7--7--|
E|----0---0-0--0--0-0--0--0-0--0--0---|

e|------------------------------------|
B|------------------------------------|
G|------------------------------------|
D|---8--8----8--8----8--8----9--9--9--|
A|---7--7----7--7----7--7----7--7--7--|
E|----0---0-0--0--0-0--0--0-0--0--0---|

THEN LEAD GUITAR KICKS IN


e|-----------------------------------------------------------------------------------|
B|-----------------------------------------------------------------------------------|
G|------9--------9-------9-----------------------------------------------------------|
D|---------8-------8-------8--------9--9--9------------------------------------------|
A|------------7-------7-------7-----7--7--7------------------------------------------|
E|-----------------------------------------------------------------------------------|

e|------------------------------------|
B|------------------------------------|
G|------------------------------------|
D|---8--8----8--8----8--8----9--9--9--|
A|---7--7----7--7----7--7----7--7--7--|
E|----0---0-0--0--0-0--0--0-0--0--0---|

HEAVY PART!!!

e|--------------------------------------------|
B|--------------------------------------------|
G|--------------------------------------------|
D|--------3------------3----------------------|
A|--------1----4-------1----4-----4---2--4s5--|
E|---0--0---0--2--0--0---0--2--0--2---0--2s3--|

e|--------------------------------------|
B|--------------------------------------|
G|--------------------------------------|
D|--------3-----------------------------|
A|--------1----4-----------8s7s5--7--5--|
E|---0--0---0--2--0--0--0--6s5s3--5--3--|

e|--------------------------------------------|
B|--------------------------------------------|
G|--------------------------------------------|
D|--------3------------3----------------------|
A|--------1----4-------1----4-----4---2--4s5--|
E|---0--0---0--2--0--0---0--2--0--2---0--2s3--|

e|-----------------------------------------|
B|-----------------------------------------|
G|-----------------------------------------|
D|--------3--------------------------------|
A|--------1----4-----------7------6-----5--|
E|---0--0---0--2--0--0--0----5-5----4-4----|

SECOND HEAVY PART (A LITTLE TRICKY)

e|-----------------------------------------------------------------------|
B|-----------------------------------------------------------------------|
G|-----------------------------------------------------------------------|
D|---9--------------------3-------------------5s4s3-------------------3--|
A|---7-----------3--------1--------------2----3s2s1-----------3-------1--|
E|------0--0--0--1--0--0-----0--0--0--0--0--0--------0--0--0--1--0--0----|

e|---------------------------------------------------------------------------|
B|---------------------------------------------------------------------------|
G|---------------------------------------------------------------------------|
D|-----------------------5s4---------------3------------------5-4-3----------|
A|------------5-----4s5--3s2-------3-------1-------------2----3s2s1-------3--|
E|---0--0--0--3--0--2s3------0--0--1--0--0---0--0--0--0--0--0-------0--0--1--|

e|------------------------------------------------------------------------------------|
B|------------------------------------------------------------------------------------|
G|------------------------------------------------------------------------------------|
D|------------------------------------------------------------------------------------|
A|-------------7-----6-----5----------------------------------------------------------|
E|---0--0--0-----5-5---4-4------------------------------------------------------------|

e|------------------------------------|
B|------------------------------------|
G|------------------------------------|
D|---8--8----8--8----8--8----9--9--9--|
A|---7--7----7--7----7--7----7--7--7--|
E|----0---0-0--0--0-0--0--0-0--0--0---|

e|------------------------------------|
B|------------------------------------|
G|------------------------------------|
D|---8--8----8--8----8--8----9--9--9--|
A|---7--7----7--7----7--7----7--7--7--|
E|----0---0-0--0--0-0--0--0-0--0--0---|

e|-----------------------------------------------------------------------------------|
B|-----------------------------------------------------------------------------------|
G|------9--------9-------9-----------------------------------------------------------|
D|---------8-------8-------8--------9--9--9------------------------------------------|
A|------------7-------7-------7-----7--7--7------------------------------------------|
E|-----------------------------------------------------------------------------------|

e|------------------------------------|
B|------------------------------------|
G|------------------------------------|
D|---8--8----8--8----8--8----9--9--9--|
A|---7--7----7--7----7--7----7--7--7--|
E|----0---0-0--0--0-0--0--0-0--0--0---|

e|--------------------------------------------|
B|--------------------------------------------|
G|--------------------------------------------|
D|--------3------------3----------------------|
A|--------1----4-------1----4-----4---2--4s5--|
E|---0--0---0--2--0--0---0--2--0--2---0--2s3--|

e|--------------------------------------|
B|--------------------------------------|
G|--------------------------------------|
D|--------3-----------------------------|
A|--------1----4-----------8s7s5--7--5--|
E|---0--0---0--2--0--0--0--6s5s3--5--3--|

e|--------------------------------------------|
B|--------------------------------------------|
G|--------------------------------------------|
D|--------3------------3----------------------|
A|--------1----4-------1----4-----4---2--4s5--|
E|---0--0---0--2--0--0---0--2--0--2---0--2s3--|

e|-----------------------------------------|
B|-----------------------------------------|
G|-----------------------------------------|
D|--------3--------------------------------|
A|--------1----4-----------7------6-----5--|
E|---0--0---0--2--0--0--0----5-5----4-4----|

e|-----------------------------------------------------------------------|
B|-----------------------------------------------------------------------|
G|-----------------------------------------------------------------------|
D|---9--------------------3-------------------5s4s3-------------------3--|
A|---7-----------3--------1--------------2----3s2s1-----------3-------1--|
E|------0--0--0--1--0--0-----0--0--0--0--0--0--------0--0--0--1--0--0----|

e|---------------------------------------------------------------------------|
B|---------------------------------------------------------------------------|
G|---------------------------------------------------------------------------|
D|-----------------------5s4---------------3------------------5-4-3----------|
A|------------5-----4s5--3s2-------3-------1-------------2----3s2s1-------3--|
E|---0--0--0--3--0--2s3------0--0--1--0--0---0--0--0--0--0--0-------0--0--1--|


e|----------------------------------------------------------------------------------|
B|----------------------------------------------------------------------------------|
G|----------------------------------------------------------------------------------|
D|---5------------------------------------------------------------------------------|
A|---3---3--3--3--3-----------------------------------------------------------------|
E|-------1--1--1--1-----------------------------------------------------------------|


e|-------------------------------------------------------------------------|
B|-------------------------------------------------------------------------|
G|-------------------------------------------------------------------------|
D|------------------------3--------------------5s4s3--------------------3--|
A|----2-----------3-------1-------------2------3s2s1------------3-------1--|
E|----0--0--0--0--1--0--0-----0--0--0--0--0--0---------0--0--0--1--0--0----|

e|---------------------------------------------------------------------------|
B|---------------------------------------------------------------------------|
G|---------------------------------------------------------------------------|
D|-----------------------5s4---------------3------------------5-4-3----------|
A|------------5-----4s5--3s2-------3-------1-------------2----3s2s1-------3--|
E|---0--0--0--3--0--2s3------0--0--1--0--0---0--0--0--0--0--0-------0--0--1--|

e|------------------------------------------------------------------------------------|
B|------------------------------------------------------------------------------------|
G|------------------------------------------------------------------------------------|
D|------------------------------------------------------------------------------------|
A|-------------7-----6-----5----------------------------------------------------------|
E|---0--0--0-----5-5---4-4------------------------------------------------------------|

e|--------------------------------------------------------------------------------------|
B|--------------------------------------------------------------------------------------|
G|--------------------------------------------------------------------------------------|
D|---8--8----8--8----8--8----9--9--9----------------------------------------------------|
A|---7--7----7--7----7--7----7--7--7----------------------------------------------------|
E|--------------------------------------------------------------------------------------|

THEN (AROUND 3:10)
LISTEN TO SONG FOR TIMING

e|-------------------------------------------------------------|
B|-------------------------------------------------------------|
G|-------------------------------------------------------------|
D|-------------------------------------------------------------|
A|------------------------------------------7-7-7-------8-8-8--|
E|---0-0-0-0---0-0-0-0-------0-0-0-0---5-5-5-------5-5-5-------|

e|-------------------------------------------------------------------|
B|-------------------------------------------------------------------|
G|-------------------------------------------------------------------|
D|-------------------------------------------------------------------|
A|---------------------------------------------7-7-7-------10-10-10--|
E|---0-0-0-0---0-0-0-0---0-0-0-0-0-0-O---5-5-5-------5-5-5-----------|

e|---------------------------------------------------------------------------|
B|---------------------------------------------------------------------------|
G|---------------------------------------------------------------------------|
D|---------------------------------------------------------------------------|
A|---7h10p7--6h9p6--------7h10p7--6h9p6--------7h10p7--6h9p6--7h10p7--6h9p6--|
E|---------------------------------------------------------------------------|

e|-----------------------------------------------------------------------------------|
B|-----------------------------------------------------------------------------------|
G|-----------------------------------------------------------------------------------|
D|-----------------------------------------------------------------------------------|
A|---------7-7-7------8-8-8----------------------------------------------------------|
E|---5-5-5------5-5-5----------------------------------------------------------------|

e|---------------------------------------------------------------------|
B|---------------------------------------------------------------------|
G|---------------------------------------------------------------------|
D|---------------------------------------------------------------------|
A|---7h10p7-6h9p6-7h10p7-6h9p6-7h10p7-6h9p6-7h10p7-6h9p6-7h10p7-6h9p6--|
E|---------------------------------------------------------------------|

e|--------------------------------------------------------------------------------------|
B|--------------------------------------------------------------------------------------|
G|--------------------------------------------------------------------------------------|
D|--------------------------------------------------------------------------------------|
A|---------7-7-7-------10-10-10---------------------------------------------------------|
E|---5-5-5-------5-5-5------------------------------------------------------------------|

e|-------------------------------------------------------------|
B|-------------------------------------------------------------|
G|-------------------------------------------------------------|
D|-------------------------------------------------------------|
A|------------------------------------------7-7-7-------8-8-8--|
E|---0-0-0-0---0-0-0-0-------0-0-0-0---5-5-5-------5-5-5-------|

e|-------------------------------------------------------------------|
B|-------------------------------------------------------------------|
G|-------------------------------------------------------------------|
D|-------------------------------------------------------------------|
A|---------------------------------------------7-7-7-------10-10-10--|
E|---0-0-0-0---0-0-0-0---0-0-0-0-0-0-O---5-5-5-------5-5-5-----------|

Chorus 3

e|-------------------------------------------------------------------------------------|
B|-------------------------------------------------------------------------------------|
G|-------------------------------------------------------------------------------------|
D|---9------------10--9----------------------------------------------------------------|
A|---7----8--------8--7----------------------------------------------------------------|
E|--------6----------------------------------------------------------------------------|

e|----------------------------------|
B|----------------------------------|
G|----------------------------------|
D|---9------------10--9-------------|
A|---7----8--------8--7--pickslide--|
E|--------6-------------------------|

e|-------------------------------------------------------------------------------------|
B|-------------------------------------------------------------------------------------|
G|-------------------------------------------------------------------------------------|
D|---9------------10--9----------------------------------------------------------------|
A|---7----8--------8--7----------------------------------------------------------------|
E|--------6----------------------------------------------------------------------------|

e|---------------------------|
B|---------------------------|
G|---------------------------|
D|---------8----------8------|
A|---7-7-7--7-7-7-7-7---7-7--|
E|---------------------------|
e|---------------------------|
B|---------------------------|
G|---------------------------|
D|---9------------10--9------|
A|---7----8--------8--7------|
E|--------6------------------|


e|-------------------------------------------------------------------------------------|
B|-------------------------------------------------------------------------------------|
G|-------------------------------------------------------------------------------------|
D|---9------------10--9----------------------------------------------------------------|
A|---7----8--------8--7----------------------------------------------------------------|
E|--------6----------------------------------------------------------------------------|


e|-------------------------------------------------------------------------------------|
B|-------------------------------------------------------------------------------------|
G|-------------------------------------------------------------------------------------|
D|---------8----------10---------------------------------------------------------------|
A|---7-7-7--7-7-7-7-7------------------------------------------------------------------|
E|-------------------------------------------------------------------------------------|

e|-------------------------------------------------------------------------------------|
B|-------------------------------------------------------------------------------------|
G|-------------------------------------------------------------------------------------|
D|---9------------10--9----------------------------------------------------------------|
A|---7----8--------8--7----------------------------------------------------------------|
E|--------6----------------------------------------------------------------------------|

e|---------------------------------------------------------------------------------------|
B|---------------------------------------------------------------------------------------|
G|---------------------------------------------------------------------------------------|
D|---------8----------8------------------------------------------------------------------|
A|---7-7-7--7-7-7-7-7---7-7--------------------------------------------------------------|
E|---------------------------------------------------------------------------------------|

e|-------------------------------------------------------------------|
B|-------------------------------------------------------------------|
G|-------------------------------------------------------------------|
D|----------8--------------9--------------10---------------11--------|
A|----7-7-7---7-7----8-8-8---8-8----9-9-9---9-9---10-10-10----10-10--|
E|-------------------------------------------------------------------|

ONTRO


e|--------------------------------------------------------------------------------------|
B|--------------------------------------------------------------------------------------|
G|--------------------------------------------------------------------------------------|
D|---8--8----8--8----8--8----9--9--9----------------------------------------------------|
A|---7--7----7--7----7--7----7--7--7----------------------------------------------------|
E|--------------------------------------------------------------------------------------|


| s slide to note
| /  slide up
| \  slide down
| h  hammer-on
| p  pull-off
| ~  vibrato
| +  harmonic
| x  Mute note
===============================================================================
comments
print report bad tab
2 comments total.
0 reply
louzarv2 wrote on August 4 2009, 12:13 am

I just figured out.... on the chorus powerchords... they are on the wrong string.... so it goes A string, E string, A string and, A.

+1 reply
neonfox3 wrote on January 17 2010, 12:43 am

good tab.
i know you messed up on it from what you said on your youtube video, and there is in fact a way to edit your tab.
so u suggest you fix it because people are stupid and wont figure out the error so they'll just vote low on it, i'm voting 5 by the way.

I want to post or [tab]
guest
You may want to rate the tab now too:
select rating
Please do not post tabs as comments. Select "correction" instead!