Oops, an error
Loading. Please wait.

Meat Sandwich Tab

by Gwar
2,906 views 24 this week
no commentswrite comment
1 2 3 4 5
not so good
x 1
Autoscroll
+/-
esc
set tempo
stop
Contributor
WARNING: You are trying to view
                                    content from Ultimate-Guitar.com
                                    in an unauthorized application,
                                    which is prohibited.

                                    Please use an official Ultimate
                                    Guitar Tabs application for iPhone,
                                    iPad or Android to access legitimate
                                    chords, guitar, bass, and drum tabs
                                    from Ultimate-Guitar.com database.

                                    Type "ultimate guitar tabs" in Apple
                                    App Store's or Android Market's
                                    search to find the application.
Meat Sandwich
hehe they are funny Eb G# C# F# Bb Eb)
 Tablature Legend
----------------p - pull off
      b - bend string up
      r - release bend
      / - slide up
       - slide down
      v - vibrato (sometimes written as ~)
      t - right hand tap
      x - play \\'note\\' with heavy damping
~   = Vibrato (Or With Your Finger)
^   = Bend (Push The Strings Up Or Down)
/   = Slide Up
\\\\   = Slide Down
H   = Hammer On
P   = Pull Off
_   = Let Ring
>   = Pick Slide
P.M.= Palm Muted
#   = Harmonics


b - bend
x - dead mute
p - pull off
h - hammer on
/ - slide up
\\ - slide down

 h   - hammer-on
 p   - pull-off
 b   - bend
 pb  - pre-bend
 r   - bend release (if no number after the r, then release immediately)
 /\\  - slide into or out of (from/to "nowhere")
 s   - legato slide
 S   - shift slide
  - natural harmonic
[n]  - artificial harmonic
n(n) - tapped harmonic
 ~   - vibrato
 tr  - trill
 T   - tap
 TP  - trem. picking
 PM  - palm muting
\\n/  - tremolo bar dip; n = amount to dip
 \\n  - tremolo bar down
 n/  - tremolo bar up
/n\\  - tremolo bar inverted dip
 =   - hold bend; also acts as connecting device for hammers/pulls
 <>  - volume swell (louder/softer)
 x   - on rhythm slash represents muted slash
 o   - on rhythm slash represents single note slash

Misc Legend
-----------
 |  - bar
||  - double bar
||o - repeat start
o|| - repeat end
*|  - double bar (ending)
 :  - bar (freetime)
 $  - Segno
 &  - Coda

||--11----14----------14-11-|-12----12----------12-----||
||o-------------------------|----11----11----11----11-o||
||--------------13----------|-------------13-----------||
||--------------------------|--------------------------||
||o-------------------------|-------------------------o||
||--------------------------|--------------------------|| Three Times
|
|   Gtr II
|    PM------------------|
|    E  E  E  E  E  E  E  E    E  E  E  E  E  E  E  E
||--11----14----11----14-11-|-12----12----12----12-----||
||o----12----------12-------|----11----11----11----11-o||
||-----------13-------------|--------------------------||
||--------------------------|--------------------------||
||o-------------------------|-------------------------o||
||--------------------------|--------------------------|| Three Times


   E  E  E  E  E  E  E  E    E  E  E  E  E  E  E  E    E  E  E  E  E  E  E  E
|-11----14----------14-11-|----12-------12-------12-|----12-------12----12----|
|-------------------------|-------11-------11-------|-------11-------11----11-|
|-------------13----------|-13-------13-------13----|-13-------13-------------|
|-------------------------|-------------------------|-------------------------|
|-------------------------|-------------------------|-------------------------|
|-------------------------|-------------------------|-------------------------|
|
|  PM------------------|
|  E  E  E  E  E  E  E  E    E  E  E  E  E  E  E  E    E  E  E  E  E  E  E  E
|-11----14----11----14-11-|-12----12----12----12----|-12----12----12----12----|
|----12----------12-------|----11----11----11----11-|----11----11----11-------|
|----------13-------------|-------------------------|-------------------------|
|-------------------------|-------------------------|-------------------------|
|-------------------------|-------------------------|-------------------------|
|-------------------------|-------------------------|-------------------------|


    C#5               D5C#C  E     C E
    q  E  E E E E E   E E H.
||------------------|-------------------||
||o----x--x---x-x-x-|------------------o||
||--6--3--6-4-6-3-6-|-7-6---------------||
||--6---------------|-7-6---------------||
||o-4---------------|-5-4--------------o||
||------------------|-------------------|| Four Times
|
|   q  H.             E E E  E E E E E
||------------------|-----0--0-0-0-0-0--||
||o-----------------|-----4--5-5-5-4-5-o||
||--6---------------|-7-6---------------||
||--6---------------|-7-6---------------||
||o-4---------------|-5-4--------------o||
||------------------|-------------------|| Four Times


   Verse
    C#5                D5   C#5
    Q   E   E   E   E  Q    Q   E   E   E   E   E   E
||------------------------|-----------------------------||
||o-----------------------|----------------------------o||
||--6------------------7--|-6---------------------------||
||--6------------------7--|-6---------------------------||
||o-4------------------5--|-4--------------------------o||
||-----<5>-<5>-<5>-<5>----|----<5>-<5>-<5>-<5>-<5>-<5>--||
|
|   Q   E   E   E   E  Q    Q   E   E   E   E   E   E
||------------------------|-----------------------------||
||o-----------------------|----------------------------o||
||--6------------------7--|-6---------------------------||
||--6------------------7--|-6---------------------------||
||o-4--<4>-<4>-<4>-<4>-5--|-4--<4>-<4>-<4>-<4>-<4>-<4>-o||
||------------------------|-----------------------------||


  C#5                 D5   C#5
  E E  E   E   E   E  Q    Q   E   E   E   E   E   E
|------------------------|-------------------------------|
|------------------------|-------------------------------|
|-6-6-----------------7--|-6-----------------------------|
|-6-6-----------------7--|-6-----------------------------|
|-4-4-----------------5--|-4-----------------------------|
|-----<5>-<5>-<5>-<5>----|----<5>-<5>-<5>-<5>-<5>-<5>----|
|
| Q    E   E   E   E  Q    Q   E   E   E   E   E   E
|------------------------|-------------------------------|
|------------------------|-------------------------------|
|-6-------------------7--|-6-----------------------------|
|-6-------------------7--|-6--------------<3>------------|
|-4---<4>-<4>-<4>-<4>-5--|-4--<4>-<4>-<4>-----<4>-<4>----|
|------------------------|-------------------------------|


  C#5                D5   C#5                G5
  Q   E   E   E   E  Q    Q   E   E   E   E  Q
|-----------------------|----------------------|
|-----------------------|----------------------|
|-6------------------7--|-6--------------------|
|-6------------------7--|-6------------------5-|
|-4------------------5--|-4------------------5-|
|----<5>-<5>-<5>-<5>----|----<5>-<5>-<5>-<5>-3-|
|
| Q   E   E   E   E  Q    Q   E   E   E   E  Q
|-----------------------|----------------------|
|-----------------------|----------------------|
|-6------------------7--|-6--------------------|
|-6------------------7--|-6------------------5-|
|-4--<4>-<4>-<4>-<4>-5--|-4--<4>-<4>-<4>-<4>-5-|
|-----------------------|--------------------3-|


  F#5                     E5F#5 G5                    G5
   E   E   E   E   E   E  Q      E   E   E   E   Q    Q
|-----------------------------|--------------------------|
|-----------------------------|--------------------------|
|---------------------<5>-----|-----------------<5>------|
|-----<3>-----<5>-------------|-----<3>-----<5>----------|
|-<4>-----<5>-----<4>---------|-<4>-----<5>--------------|
|-----------------------------|--------------------------|
|
|  Q       E   E   E   E  E E    Q       E   E   E  E Q
|-----------------------------|--------------------------|
|-----------------------------|--------------------------|
|-----------------------------|--------------------------|
|--4-------x---x-------x--2-4-|--5-------x---x------x-5--|
|--4-------x---x-------x--2-4-|--5-------x---x------x-5--|
|--2-------x---x-------x--0-2-|--3-------x---x------x-3--|


  F#5                     E5  F#5   G5                    G5
   E   E   E   E   E   E   E   E     E   E   E   E   Q    Q
|---------------------------------|--------------------------|
|---------------------------------|--------------------------|
|---------------------<5>---------|-----------------<5>------|
|-----<3>-----<5>-------------<5>-|-----<3>-----<5>----------|
|-<4>-----<5>-----<4>-----<5>-----|-<4>-----<5>--------------|
|---------------------------------|--------------------------|
|
|  Q       E   E   E   E   E   E     Q       E   E   E  E Q
|---------------------------------|--------------------------|
|---------------------------------|--------------------------|
|---------------------------------|--------------------------|
|--4-------x---x-------x---2---4--|--5-------x---x------x-5\\-|
|--4-------x---x-------x---2---4--|--5-------x---x------x-5\\-|
|--2-------x---x-------x---0---2--|--3-------x---x------x-3\\-|


 Pre Chorus
                     ~                       ~
  E S S S S S S S E. Q    E S S S S S S S E. Q
|-----------------------|-----------------------|
|--------------------5--|-----------------------|
|-----------------------|--------------------4--|
|-------------5---------|-------------5---------|
|---------2-3-----------|---------2-3-----------|
|-2-0-2-3-------2-------|-2-0-2-3-------2-------|
|
| E S S S S S S S E. Q    E S S S S S S S E. Q
|-----------------------|-----------------------|
|-----------------------|-----------------------|
|--------------------0--|--------------------0--|
|-------------5---------|-------------5---------|
|---------2-3-----------|---------2-3-----------|
|-2-0-2-3-------2-------|-2-0-2-3-------2-------|


                          C#5   C5G5      F#E5
                     ~
  E S S S S S S S E. Q    S E S E E S E S E E
|-----------------------|---------------------|
|--------------------5--|---------------------|
|-----------------------|-6-6-6-5-------------|
|-------------5---------|-6-6-6-5-5-5-5-5-4-2-|
|---------2-3-----------|-4-4-4-3-5-5-5-5-4-2-|
|-2-0-2-3-------2-------|---------3-3-3-3-2-0-|
|
| E S S S S S S S E. Q    S E S E E S E S E E
|-----------------------|---------------------|
|--------------------0--|---------------------|
|-----------------------|-6-6-6-5-------------|
|-------------5---------|-6-6-6-5-5-5-5-5-4-2-|
|---------2-3-----------|-4-4-4-3-5-5-5-5-4-2-|
|-2-0-2-3-------2-------|---------3-3-3-3-2-0-|


 Chorus
  C#5Eb5E5 EbC#5 B5                 EbC#5
                     PM---------|
  Q  Q  Q  E E   Q   E   E   E   E  E E
|--------------|------------------------|
|--------------|------------------------|
|--------------|-----4---4---4---4------|
|-6--8--9--8-6-|-4------------------8-6-|
|-4--6--7--6-4-|-2------------------6-4-|
|--------------|------------------------|
|
| Q  Q  Q  E E   Q   E   E   E   E  E E
|--------------|------------------------|
|--------------|------------------------|
|--------------|------------------------|
|-6--8--9--8-6-|--------------------8-6-|
|-4--6--7--6-4-|-9------------------6-4-|
|--------------|-7--<7>-<7>-<7>-<7>-----|


  A5                 E5Eb5 C#5
      PM---------|             PM-------------|
  Q   E   E   E   E  E E   Q   E   E   E   E   E   E
|------------------------|-----------------------------|
|------------------------|-----------------------------|
|-----4---4---4---4------|-----6---6---6---6---6-------|
|-2------------------9-8-|-6---------------------------|
|-0------------------7-6-|-4---------------------------|
|------------------------|-----------------------------|
|
| Q   E   E   E   E  E E   Q   E   E   E   E   E   E
|------------------------|-----------------------------|
|------------------------|-----------------------------|
|------------------------|-----------------------------|
|--------------------9-8-|-6---------------------------|
|-7------------------7-6-|-4--<4>-<4>-<4>-<4>-<4>-<4>--|
|-5--<7>-<7>-<7>-<7>-----|-----------------------------|


   2nd half Chorus & Verse 2
    C#5              D5C#C E     C E
    q  E E E E E E   E E E E E E E E
||-----------------|-----0-0-0-0-0-0--||
||o----x-x---x-x-x-|-----4-5-5-5-4-5-o||
||--6--3-6-4-6-3-6-|-7-6--------------||
||--6--------------|-7-6--------------||
||o-4--------------|-5-4-------------o||
||-----------------|------------------|| Four Times
|
|      PM--------|       PM--------|
|   q  E E E E E E   E E E E E E E E
||-----------------|------------------||
||o----------------|-----------------o||
||--6--6-6-6-6-6-6-|-7-6-6-6-6-6-6-6--||
||--6--6-6-6-6-6-6-|-7-6-6-6-6-6-6-6--||
||o-4--------------|-5-4-------------o||
||-----------------|------------------|| Four Times


    C#C#5                   D5C#E
                                 PM------------|
    E E  E  E  E  E  E  E   E E  E  E  E  E  E  E
||-------------7--------6-|------0--0--0--0--0--0-|
||o------5--6-----6--5----|------5--5--5--5--5--5-|
||--6-6-------------------|-7-6-------------------|
||--6-6-------------------|-7-6-------------------|
||o-4-4-------------------|-5-4-------------------|
||------------------------|-----------------------|
|
|   Q    E  E  E  E  E  E   Q    E  E  E  E  E  E
||------12----12----12----|-----12----12----12----|
||o--------11----11----11-|--------11----11----11-|
||------------------------|-----------------------|
||------------------------|-----------------------|
||o-----------------------|-----------------------|
||------------------------|-----------------------|


                        1.                        2.
  C#5                    D5C#E                     D5C#E           G5
                              PM------------|           PM------|
  q   E  E  E  E  E  E   E E  E  E  E  E  E  E     E E  E  E  E  E Q
|-----------7--------6-|------0--0--0--0--0--0--||------0--0--0--0-----|
|-----5--6-----6--5----|------5--5--5--5--5--5-o||------5--5--5--5-----|
|-6--------------------|-7-6--------------------||-7-6-----------------|
|-6--------------------|-7-6--------------------||-7-6-------------5---|
|-4--------------------|-5-4-------------------o||-5-4-------------5---|
|----------------------|------------------------||-----------------3---|
|
| Q   E  E  E  E  E  E   Q    E  E  E  E  E  E     Q    E  E  E  E Q
|----12----12----12----|-----12----12----12-----||-----12----12--------|
|-------11----11----11-|--------11----11----11-o||--------11----11-----|
|----------------------|------------------------||---------------------|
|----------------------|------------------------||-----------------5---|
|----------------------|-----------------------o||-----------------5---|
|----------------------|------------------------||-----------------3---|


  F#5                     E5  F#5 G5                    G5
   E   E   E   E   E   E   E  E    E   E   E   E   Q    Q
|-------------------------------|--------------------------|
|-------------------------------|--------------------------|
|---------------------<5>-------|-----------------<5>------|
|-----<3>-----<5>---------------|-----<3>-----<5>----------|
|-<4>-----<5>-----<4>-----<5>---|-<4>-----<5>--------------|
|-------------------------------|--------------------------|
|
|  Q       E   E   E   E   E  E    Q       E   E   E  E Q
|-------------------------------|--------------------------|
|-------------------------------|--------------------------|
|-------------------------------|--------------------------|
|--4-------x---x-------x---2--4-|--5-------x---x------x-5--|
|--4-------x---x-------x---2--4-|--5-------x---x------x-5--|
|--2-------x---x-------x---0--2-|--3-------x---x------x-3--|


  F#5                     E5  F#5 G5                    G5
   E   E   E   E   E   E   E  E    E   E   E   E   Q    Q
|-------------------------------|--------------------------|
|-------------------------------|--------------------------|
|---------------------<5>-------|-----------------<5>------|
|-----<3>-----<5>---------------|-----<3>-----<5>----------|
|-<4>-----<5>-----<4>-----<5>---|-<4>-----<5>--------------|
|-------------------------------|--------------------------|
|
|  Q       E   E   E   E   E  E    Q       E   E   E  E Q
|-------------------------------|--------------------------|
|-------------------------------|--------------------------|
|-------------------------------|--------------------------|
|--4-------x---x-------x---2--4-|--5-------x---x------x-5\\-|
|--4-------x---x-------x---2--4-|--5-------x---x------x-5\\-|
|--2-------x---x-------x---0--2-|--3-------x---x------x-3\\-|


   Pre Chorus
                        ~                        ~
    E  S S S S S S S E. Q    E  S S S S S S S E. Q
||-------------------------|-------------------------||
||o---------------------5--|------------------------o||
||-------------------------|---------------------4---||
||---------------5---------|--------------5----------||
||o----------2-3-----------|----------2-3-----------o||
||--2--0-2-3-------2-------|-2--0-2-3-------2--------|| Three Times
|
|   H.                  Q    H.                  Q
||-------------------------|-------------------------||
||o---------------------5--|------------------------o||
||-------------------------|---------------------4---||
||--4----------------------|-4-----------------------||
||o------------------------|------------------------o||
||-------------------------|-------------------------|| Three Times


                           C#5   C5G5          F#5 E5
                      ~
  E  S S S S S S S E. Q    S E S E E   S E   S E   E
|------------------------|---------------------------|
|---------------------5--|---------------------------|
|------------------------|-6-6-6-5-------------------|
|--------------5---------|-6-6-6-5-5---5-5---5-4---2-|
|----------2-3-----------|-4-4-4-3-5---5-5---5-4---2-|
|-2--0-2-3-------2-------|---------3---3-3---3-2---0-|
|
| H.                  Q    S E S E S E   S E   S S E
|------------------------|---------------------------|
|---------------------5--|---------------------------|
|------------------------|---------------------------|
|-4----------------------|-2-4-2-4-2-4---2-4---2-4-2-|
|------------------------|---------------------------|
|------------------------|---------------------------|


                      ~                        ~
  E  S S S S S S S E. Q    E  S S S S S S S E. Q
|------------------------|------------------------|
|---------------------5--|------------------------|
|------------------------|---------------------4--|
|--------------5---------|--------------5---------|
|----------2-3-----------|----------2-3-----------|
|-2--0-2-3-------2-------|-2--0-2-3-------2-------|
|
| H.                  Q    H.                  Q
|------------------------|------------------------|
|---------------------5--|------------------------|
|------------------------|---------------------4--|
|-4----------------------|-4----------------------|
|------------------------|------------------------|
|------------------------|------------------------|


                           C#5   C5G5      F#E5
                      ~
  E  S S S S S S S E. Q    S E S E E S E S E E
|------------------------|---------------------|
|---------------------5--|---------------------|
|------------------------|-6-6-6-5-------------|
|--------------5---------|-6-6-6-5-5-5-5-5-4-2-|
|----------2-3-----------|-4-4-4-3-5-5-5-5-4-2-|
|-2--0-2-3-------2-------|---------3-3-3-3-2-0-|
|
| H.                  Q    S E S E E S E S E E
|------------------------|---------------------|
|---------------------5--|---------------------|
|------------------------|-6-6-6-5-------------|
|-4----------------------|-6-6-6-5-5-5-5-5-4-2-|
|------------------------|-4-4-4-3-5-5-5-5-4-2-|
|------------------------|---------3-3-3-3-2-0-|


   Chorus
    C#5Eb5E5 EbC#5 B5                 EbC#5
                       PM---------|
    Q  Q  Q  E E   Q   E   E   E   E  E E
||---------------|------------------------|
||o--------------|------------------------|
||---------------|-----4---4---4---4------|
||--6--8--9--8-6-|-4------------------8-6-|
||o-4--6--7--6-4-|-2------------------6-4-|
||---------------|------------------------|
|
|   Q  Q  Q  E E   Q   E   E   E   E  E E
||---------------|------------------------|
||o--------------|------------------------|
||---------------|------------------------|
||--6--8--9--8-6-|--------------------8-6-|
||o-4--6--7--6-4-|-9------------------6-4-|
||---------------|-7--<7>-<7>-<7>-<7>-----|


  A5                 E5Eb5 C#5
      PM---------|             PM-----|
  Q   E   E   E   E  E E   Q   E   E   E  S S E E
|------------------------|--------------------------||
|------------------------|-------------------------o||
|-----4---4---4---4------|-----6---6---6------------||
|-2------------------9-8-|-6--------------x-x-x-x---||
|-0------------------7-6-|-4--------------x-x-x-x--o||
|------------------------|----------------x-x-x-x---|| Three Times
|
| Q   E   E   E   E  E E   Q   E   E   E  S S E E
|------------------------|--------------------------||
|------------------------|-------------------------o||
|------------------------|--------------------------||
|--------------------9-8-|-6--------------x-x-x-x---||
|-7------------------7-6-|-4--<4>-<4>-<4>-x-x-x-x--o||
|-5--<7>-<7>-<7>-<7>-----|----------------x-x-x-x---|| Three Times


    C#5               D5C#E
    q  H.             E E E  E E E E E
||------------------|-----0--0-0-0-0-0--||
||o-----------------|-----5--5-5-5-5-5-o||
||--6---------------|-7-6---------------||
||--6---------------|-7-6---------------||
||o-4---------------|-5-4--------------o||
||------------------|-------------------|| Four Times
|
|   Q  E  E E E E E   E E H.
||----------7-----6-|-------------------||
||o----5--6---6-5---|------------------o||
||--6---------------|-7-6---------------||
||--6---------------|-7-6---------------||
||o-4---------------|-5-4--------------o||
||------------------|-------------------|| Four Times


 Outro
   Q     Q     H             Q.        Q.        Q
|-11----14----------------|-14--------11--------------|
|-------------10----------|---------------------10----|
|-------------------------|---------------------------|
|-------------------------|---------------------------|
|-------------------------|---------------------------|
|-------------------------|---------------------------|
|
|  E  E  E  E  E  E  E  E    E   E  E  E   E  E  E  E
|-12----12----12----12----|-12-----12-----12----12----|
|----11----11----11----11-|-----11----11-----11----11-|
|-------------------------|---------------------------|
|-------------------------|---------------------------|
|-------------------------|---------------------------|
|-------------------------|---------------------------|


   Q.        Q.        Q       E  E  E  E  E  E  E  E
|-14--------11--------14----|-11----11----11----11-----|
|---------------------------|----10----10----10----10--|
|---------------------------|--------------------------|
|---------------------------|--------------------------|
|---------------------------|--------------------------|
|---------------------------|--------------------------|
|
|  E   E  E  E   E  E  E  E    E  E  E  E  E  E  E  E
|-12-----12-----12----12----|-12----12----12----12-----|
|-----11----11-----11----11-|----11----11----11----11--|
|---------------------------|--------------------------|
|---------------------------|--------------------------|
|---------------------------|--------------------------|
|---------------------------|--------------------------|


   E  E  E  E  +E   E  E  E    E  E  E  E  E  E  Q
|-11----11-14-(14)----11----|-11----11----11----14----|
|----10------------10----10-|----10----10----10-------|
|---------------------------|-------------------------|
|---------------------------|-------------------------|
|---------------------------|-------------------------|
|---------------------------|-------------------------|
|
|  E  E  E  E   E   E  E  E    E  E  E  E  E  E  E  E
|-12----12-----12-----12----|-12----12----12----12----|
|----11----11------11----11-|----11----11----11----11-|
|---------------------------|-------------------------|
|---------------------------|-------------------------|
|---------------------------|-------------------------|
|---------------------------|-------------------------|


   E  E  E  E  +E   E  E  E    E  E  E  E  E  E  E E   E E E E E E E E
|-11----11-14-(14)----11----|-11----11----10-----9---|-8---7---6---5-----|
|----10------------10----10-|----10----10-----9----8-|---7---6---5---4---|
|---------------------------|------------------------|-------------------|
|---------------------------|------------------------|-------------------|
|---------------------------|------------------------|-------------------|
|---------------------------|------------------------|-------------------|
|
|  E  E  E  E   E   E  E  E    E  E  E  E  E  E  E E   E E E E E E E E
|-12----12-----12-----12----|-12----12----11----10---|-9---8---7---6-----|
|----11----11------11----11-|----11----11----10----9-|---8---7---6---5---|
|---------------------------|------------------------|-------------------|
|---------------------------|------------------------|-------------------|
|---------------------------|------------------------|-------------------|
|---------------------------|------------------------|-------------------|


  C#5                D5   C#5
  Q   E   E   E   E  Q    Q  H.
|-----------------------|----------*|
|-----------------------|----------*|
|-6------------------7--|-6--------*|
|-6------------------7--|-6--------*|
|-4------------------5--|-4--------*|
|----<5>-<5>-<5>-<5>----|----------*|
|
| Q   E   E   E   E  Q    Q  H.
|-----------------------|----------*|
|-----------------------|----------*|
|-6------------------7--|-6--------*|
|-6------------------7--|-6--------*|
|-4------------------5--|-4--------*|
|----<4>-<4>-<4>-<4>----|----------*|
comments
We did not receive enough feedback on this tab! Please rate:
print report bad tab
1 2 3 4 5
I want to post or [tab]
guest
You may want to rate the tab now too:
select rating
Please do not post tabs as comments. Select "correction" instead!