Oops, an error
Loading. Please wait.

Altered Mind Tab

475 views 1 this week
1 commentread comment
1 2 3 4 5
please rate
add to favorites launch autoscroll
font size
0
reset
Autoscroll
+/-
esc
set tempo
stop
Contributor
WARNING: You are trying to view
                                    content from Ultimate-Guitar.com
                                    in an unauthorized application,
                                    which is prohibited.

                                    Please use an official Ultimate
                                    Guitar Tabs application for iPhone,
                                    iPad or Android to access legitimate
                                    chords, guitar, bass, and drum tabs
                                    from Ultimate-Guitar.com database.

                                    Type "ultimate guitar tabs" in Apple
                                    App Store's or Android Market's
                                    search to find the application.
Song: "Altered Mind"
Artist: Haji's Kitchen
Album: Haji's Kitchen

Tabbed by: Chris Gumb
email: cgumb@berklee.net
AIM: Tornado O Souls

Note: I tried my best with the solo and the lead guitar parts
 and I think it cam out pretty good, but if you see something
 that needs to be fixed or if you have another way of playing
 some part drop me an email or IM me! More Haji's Kitchen Tabs to come!

 (0:00)
|--------------------------------------|
|------------0-----------------0-------|
|----------4---4-------------4---4-----|
|--------3-------3---------3-------3---| X2
|------2-----------------0-------------|
|----4-----------------4---------------|
|--2-----------------3-----------------|
 (0:14)
|---------------------------------------------------------------|
|---------------------------------------------------------------|
|---------------------------------------------------------------|
|---------------------------------------------------------------|
|----------------------------------------------5-4-2-5-4-2-5-4--|
|----------------------------------------------5-4-2-5-4-2-5-4--|
|-0h2-2-2-2bp0-0-0h2-2-2-2bp0-0-0h2-2-2-2bp0-2-3-2-0-3-2-0-3-2--|
      . .      .     . .      .     . .        . . . . . . . .
|------------------------------------------------------------|
|------------------------------------------------------------|
|------------------------------------------------------------|
|------------------------------------------------------------|
|----------------------------------------------5-4-2-5-4/8~--|
|----------------------------------------------5-4-2-5-4/8~--|
|-0h2-2-2-2bp0-0-0h2-2-2-2bp0-0-0h2-2-2-2bp0-2-3-2-0-3-2/6~--|
      . .      .     . .      .     . .        . . . .
 (0:28)
|--------0-----0----------------------------|
|------------0-----------------0------------|
|----------3-----------------3--------------|
|--4-4-----------4---------2----------------|
|--4-4-------------------4------------------|
|--2-2---------------2/3--------------------|
|--------------------------------------14/--|
 (0:35)
|---------------------------------------------------------------|
|---------------------------------------------------------------|
|---------------------------------------------------------------|
|---------------------------------------------------------------|
|----------------------------------------------5-4-2-5-4-2-5-4--|
|----------------------------------------------5-4-2-5-4-2-5-4--|
|-0h2-2-2-2bp0-0-0h2-2-2-2bp0-0-0h2-2-2-2bp0-2-3-2-0-3-2-0-3-2--|
      . .      .     . .      .     . .        . . . . . . . .
|------------------------------------------------------------|
|------------------------------------------------------------|
|------------------------------------------------------------|
|------------------------------------------------------------|
|----------------------------------------------5-4-2-5-4/8~--|
|----------------------------------------------5-4-2-5-4/8~--|
|-0h2-2-2-2bp0-0-0h2-2-2-2bp0-0-0h2-2-2-2bp0-2-3-2-0-3-2/6~--|
      . .      .     . .      .     . .        . . . .
|---------------------------------------------------------------|
|---------------------------------------------------------------|
|---------------------------------------------------------------|
|---------------------------------------------------------------| X2
|----------------------------------------------5-4-2-5-4-2-5-4--|
|----------------------------------------------5-4-2-5-4-2-5-4--|
|-0h2-2-2-2bp0-0-0h2-2-2-2bp0-0-0h2-2-2-2bp0-2-3-2-0-3-2-0-3-2--|
      . .      .     . .      .     . .        . . . . . . . .
 (1:03)
|--------0-----0----------------------------|
|------------0-----------------0------------|
|----------3-----------------3--------------|
|--4-4-----------4---------2----------------|
|--4-4-------------------4------------------|
|--2-2---------------2/3--------------------|
|--------------------------------------14/--|
 (1:11)
|---------------------------------------------------------|
|---------------------------------------------------------|
|---------------------------------------------------------|
|---------------------------------------------------------|
|--2-4--2-4--2-4--2-4--2-4--2-4--2-4--2-4--2-4--2-4--2-4--|
|--2-4--2-4--2-4--2-4--2-4--2-4--2-4--2-4--2-4--2-4--2-4--|
|--0-2--0-2--0-2--0-2--0-2--0-2--0-2--0-2--0-2--0-2--0-2--|
   . .  . .  . .  . .  . .  . .  . .  . .  . .  . .  . .
 (1:18)
|--------0-----0----------------------------|
|------------0-----------------0------------|
|----------3-----------------3--------------|
|--4-4-----------4---------2----------------|
|--4-4-------------------4------------------|
|--2-2---------------2/3--------------------|
|--------------------------------------14/--|
 (1:25)
|---------------------------------------------------|
|---------------------------------------------------|
|---------------------------------------------------|
|--4/5--4----------------4/5--4---------------------|\
|--4/5--4--2--3--4--2-2--4/5--4--2--3---------------| \
|--2/3--2--2--3--4--2-2--2/3--2--2--3---------------|  \
|----------0--1--2--0-0----------0--1--0-6bp0-2bp0--|   \
                                                         >X2
|--------------------<4><4>-------------------------|   /
|--------------------<4><4>-------------------------|  /
|--------------------<4><4>-------------------------| /
|--4-5--4-------------------4-5--4------------------|/
|--4-5--4--2--3--4-2--------4-5--4--2--3--4-2-4-2---|
|--2/3--2--2--3--4-2--------2/3--2--2--3--4-2-4-2---|
|----------0--1--2-0----------------0--1--2-0-2-0---|
 (1:53)  Guitar One
|--11-10b-11-10b-11-10bp8-10-10h11p10p8--10/-12ph--|
|--------------------------------------------------|
|--------------------------------------------------|
|--------------------------------------------------|
|--------------------------------------------------|
|--------------------------------------------------|
|--------------------------------------------------|
  Guitar Two
|---------------------------------|
|---------------------------------|
|--8-7h8p7p5--7ph---5-7-8/12-11~--|
|---------------------------------|
|---------------------------------|
|---------------------------------|
|---------------------------------|

 (1:57)
|---------------------------------------------------------------|
|---------------------------------------------------------------|
|---------------------------------------------------------------|
|---------------------------------------------------------------|
|----------------------------------------------5-4-2-5-4-2-5-4--|
|----------------------------------------------5-4-2-5-4-2-5-4--|
|-0h2-2-2-2bp0-0-0h2-2-2-2bp0-0-0h2-2-2-2bp0-2-3-2-0-3-2-0-3-2--|
      . .      .     . .      .     . .        . . . . . . . .
|------------------------------------------------------------|
|------------------------------------------------------------|
|------------------------------------------------------------|
|------------------------------------------------------------|
|----------------------------------------------5-4-2-5-4/8~--|
|----------------------------------------------5-4-2-5-4/8~--|
|-0h2-2-2-2bp0-0-0h2-2-2-2bp0-0-0h2-2-2-2bp0-2-3-2-0-3-2/6~--|
      . .      .     . .      .     . .        . . . .
|---------------------------------------------------------------|
|---------------------------------------------------------------|
|---------------------------------------------------------------|
|---------------------------------------------------------------| X2
|----------------------------------------------5-4-2-5-4-2-5-4--|
|----------------------------------------------5-4-2-5-4-2-5-4--|
|-0h2-2-2-2bp0-0-0h2-2-2-2bp0-0-0h2-2-2-2bp0-2-3-2-0-3-2-0-3-2--|
      . .      .     . .      .     . .        . . . . . . . .
(2:25)
|--------0-----0----------------------------|
|------------0-----------------0------------|
|----------3-----------------3--------------|
|--4-4-----------4---------2----------------|
|--4-4-------------------4------------------|
|--2-2---------------2/3--------------------|
|--------------------------------------14/--|
 (2:32)
|---------------------------------------------------------|
|---------------------------------------------------------|
|---------------------------------------------------------|
|---------------------------------------------------------|
|--2-4--2-4--2-4--2-4--2-4--2-4--2-4--2-4--2-4--2-4--2-4--|
|--2-4--2-4--2-4--2-4--2-4--2-4--2-4--2-4--2-4--2-4--2-4--|
|--0-2--0-2--0-2--0-2--0-2--0-2--0-2--0-2--0-2--0-2--0-2--|
   . .  . .  . .  . .  . .  . .  . .  . .  . .  . .  . .
 (2:39)
|--------0-----0----------------------------|
|------------0-----------------0------------|
|----------3-----------------3--------------|
|--4-4-----------4---------2----------------|
|--4-4-------------------4------------------|
|--2-2---------------2/3--------------------|
|--------------------------------------14/--|
 (2:46)
|---------------------------------------------------|
|---------------------------------------------------|
|---------------------------------------------------|
|--4/5--4----------------4/5--4---------------------|\
|--4/5--4--2--3--4--2-2--4/5--4--2--3---------------| \
|--2/3--2--2--3--4--2-2--2/3--2--2--3---------------|  \
|----------0--1--2--0-0----------0--1--0-6bp0-2bp0--|   \
                                                         >X2
|--------------------<4><4>-------------------------|   /
|--------------------<4><4>-------------------------|  /
|--------------------<4><4>-------------------------| /
|--4/5--4-------------------4/5--4------------------|/
|--4/5--4--2--3--4-2--------4/5--4--2--3--4-2-4-2---|
|--2/3--2--2--3--4-2--------2/3--2--2--3--4-2-4-2---|
|----------0--1--2-0----------------0--1--2-0-2-0---|
 (3:14)
|--------------------------------------|
|------------0-----------------0-------|
|----------4---4-------------4---4-----|
|--------3-------3---------3-------3---| X2
|------2-----------------0-------------|
|----4-----------------4---------------|
|--2-----------------3-----------------|
  Guitar One
|----------------------------------------------------------------------|
|--11-14p11p10-11-14p11p10---------------------------------------------|
|--------------------------11--11ph---11-11\10-10\7--10h11p10p7-10~----|
|----------------------------------------------------------------------|
|----------------------------------------------------------------------|
|----------------------------------------------------------------------|
|----------------------------------------------------------------------|

|---------9-----6---6/5---------------------------|
|-------7---6-7---6-----6/10v---10\6-6/7-7/10~----|
|--7-10-------------------------------------------|
|-------------------------------------------------|
|-------------------------------------------------|
|-------------------------------------------------|
|-------------------------------------------------|

|--9h13h14-13bp9-13h14h17-17~----|
|--------------------------------|
|--------------------------------|
|--------------------------------|
|--------------------------------|
|--------------------------------|
|--------------------------------|
  Guitar Two
|----------------------------------------------------------------------|
|----------------------------------------------------------------------|
|--15p14p11\10h11---14p11\10-------------------------------------------|
|---------------------------12--12ph--12-12\11-11\9-11h12p11p9--11~----|
|----------------------------------------------------------------------|
|----------------------------------------------------------------------|
|----------------------------------------------------------------------|

|-----------------------------------------------------------|
|-----------------------------------------------------------|
|-----------14-------11----11\10----10v---10\6-6/7-7/10~----|
|-----11-12----11-12----11-------11-------------------------|
|--14-------------------------------------------------------|
|-----------------------------------------------------------|
|-----------------------------------------------------------|

|----------------------------------|
|--11h14h15-14bp11-14h15h18-18~----|
|----------------------------------|
|----------------------------------|
|----------------------------------|
|----------------------------------|
|----------------------------------|

 (3:28)
|---------------------------------------------------------|
|---------------------------------------------------------|
|---------------------------------------------------------|
|---------------------------------------------------------|
|--2-4--2-4--2-4--2-4--2-4--2-4--2-4--2-4--2-4--2-4--2-4--|
|--2-4--2-4--2-4--2-4--2-4--2-4--2-4--2-4--2-4--2-4--2-4--|
|--0-2--0-2--0-2--0-2--0-2--0-2--0-2--0-2--0-2--0-2--0-2--|
   . .  . .  . .  . .  . .  . .  . .  . .  . .  . .  . .

|--------------------------------------------------------|
|--------------------------------------------------------|
|--------------------------------------------------------|
|--------------------------------------------------------|
|--2-4--2-4--2-4--2-4--2-4--2-4--2-4--2-4--2-4--2-5-5-5--|
|--2-4--2-4--2-4--2-4--2-4--2-4--2-4--2-4--2-4--2-5-5-5--|
|--0-2--0-2--0-2--0-2--0-2--0-2--0-2--0-2--0-2--0-3-3-3--|
   . .  . .  . .  . .  . .  . .  . .  . .  . .  . . . .

 THE FUCKIN SOLO!
|------------------------------------------------------------------------|
|------------------------------------------------------------------------|
|---------------------------------------------------------11-13-14-13-11-|
|---------------------------------------11-12-14-11-12-14----------------|
|-12-11-9---------------9-11-12-9-11-13----------------------------------|
----------12-10-9-10-12--------------------------------------------------|
|------------------------------------------------------------------------|

|----------------------------------------------------14-16-18-16-14----------|
|----------------------------------14-15-18-14-15-17----------------18-15-14-|
|----------------11-13-14-11-13-14-------------------------------------------|
|-14-12-11-12-14-------------------------------------------------------------|
|----------------------------------------------------------------------------|
|----------------------------------------------------------------------------|
|----------------------------------------------------------------------------|

|--------------------------------------------------------------------|
|-15-14-12-----------------------------------------------------------|
|----------13-11-14-13-11----------------11-13-14-13-11----------10~-|
|-------------------------14-12-11-12-14----------------14-12-11-----|
|--------------------------------------------------------------------|
|--------------------------------------------------------------------|
|--------------------------------------------------------------------|

|-9----------9----------9----------9----------9----------9------11b-13b-14b~-|
|---12-9-------12-9-------12-9-11b--------11b--------11b---------------------|
|--------12b--------11b--------------12-9-------12-9-------12-9--------------|
|----------------------------------------------------------------------------|
|----------------------------------------------------------------------------|
|----------------------------------------------------------------------------|
|----------------------------------------------------------------------------|

|-19b~---19b-------19b-19----19b-------18b~-18b-18b~-|
|------------19-17--------17-----19-17---------------|
|----------------------------------------------------|
|----------------------------------------------------|
|----------------------------------------------------|
|----------------------------------------------------|
|----------------------------------------------------|

|-16h19h21T24p21p19p16-------------------------------------|
|-----------------------17p14p12\9-------------------------|
|----------------------------------------------9p6---------|
|----------------------------------14p11p9\6h9-----9p6\4---|
|--------------------------------------------------------4-|
|----------------------------------------------------------|
|----------------------------------------------------------|

|-----------------------11b~---|
|------------------------------|
|-----6--9p6----------9--------|
|-6h9--------9-6-9/11----------|
|------------------------------|
|------------------------------|
|------------------------------|


|---------------------------------------------------------------|
|-/12-11-9----11-9-------9----------------------------9---------|
|----------12------12-11---12-11-9-12-11-9----9-11-12---12-11-9-|
|------------------------------------------11-------------------|
|---------------------------------------------------------------|
|---------------------------------------------------------------|
|---------------------------------------------------------------|

|---------------------------------------------------------------|
|-------9---------------9---------11-12-11----------11-12-11----|
|-11-12---12-11-9-11-12---12-11-9----------13-12-13----------13-|
|---------------------------------------------------------------|
|---------------------------------------------------------------|
|---------------------------------------------------------------|
|---------------------------------------------------------------|

|-------------12/14-------14-15/16-19-19-16-15--------------------------------|
|-------13-14-------14-17----------------------19-17-14---19-17-14-12---------|
|-12-14---------------------------------------------------------------13-11\9~|
|-----------------------------------------------------------------------------|
|-----------------------------------------------------------------------------|
|-----------------------------------------------------------------------------|
|-----------------------------------------------------------------------------|
 This is the last part of the solo that overlaps the last Pre Chorus
|---------------------------9---------9-------------------12b~----|
|-----------------------------12p9------12p9-11b~p9---------------|
|-9-11-11b-11ph-9-11~----11--------11~--------------11\9~---------|
|-----------------------------------------------------------------|
|-----------------------------------------------------------------|
|-----------------------------------------------------------------|
    (3:56)
|--------0-----0----------------------------|
|------------0-----------------0------------|
|----------3-----------------3--------------|
|--4-4-----------4---------2----------------|
|--4-4-------------------4------------------|
|--2-2---------------2/3--------------------|
|--------------------------------------14/--|

 (4:03)
|---------------------------------------------------|
|---------------------------------------------------|
|---------------------------------------------------|
|--4/5--4----------------4/5--4---------------------|\
|--4/5--4--2--3--4--2-2--4/5--4--2--3---------------| \
|--2/3--2--2--3--4--2-2--2/3--2--2--3---------------|  \
|----------0--1--2--0-0----------0--1--0-6bp0-2bp0--|   \
                                                         >X2
|--------------------<4><4>-------------------------|   /
|--------------------<4><4>-------------------------|  /
|--------------------<4><4>-------------------------| /
|--4/5--4-------------------4/5--4------------------|/
|--4/5--4--2--3--4-2--------4/5--4--2--3--4-2-4-2---|
|--2/3--2--2--3--4-2--------2/3--2--2--3--4-2-4-2---|
|----------0--1--2-0----------------0--1--2-0-2-0---|

 THE END!
comments
We did not receive enough feedback on this tab! Please rate:
print report bad tab
1 2 3 4 5
1 comment total.
0 reply
dylankrolick wrote on February 26 2011, 08:02 pm

what tuning?

I want to post or [tab]
guest
You may want to rate the tab now too:
select rating
Please do not post tabs as comments. Select "correction" instead!