Oops, an error
Loading. Please wait.

Twilight Tab

by Hale
2,446 views 1 this week
10 commentsread comments
1 2 3 4 5
excellent!
x 9
Autoscroll
+/-
esc
set tempo
stop
Contributor
Difficulty
intermediate
NEW! There's an official Ultimate Guitar app which is ideal
for learning songs when you're away from computer. Get the app
WARNING: You are trying to view
                                    content from Ultimate-Guitar.com
                                    in an unauthorized application,
                                    which is prohibited.

                                    Please use an official Ultimate
                                    Guitar Tabs application for iPhone,
                                    iPad or Android to access legitimate
                                    chords, guitar, bass, and drum tabs
                                    from Ultimate-Guitar.com database.

                                    Type "ultimate guitar tabs" in Apple
                                    App Store's or Android Market's
                                    search to find the application.
Twilight Tabs by Hale

Twilight: the 2nd album
Artist: Hale
Hale band members: Champ, Roll, Sheldon, Omnie

Tabbed by: Paolo Cruz (Pasig City)
My e-mail add: apolostar_1123@yahoo.com
Add me at my friendster account: apolostar_1103@yahoo.com
Y.M: apolostar_1103@yahoo.com
Cell#: 09282473907 ; 09157838002
Age: 16 yrs. Old (4th yr. high)
School: O.B. Montessori Center Inc.
My band: Enigma Jam (Dale, Ivan, Zelle, Sean)
Kapag tumugtog tau ulit, tugtugin natin Hale ha!!!.. ako bahala sa inyo!!!..

This is a complete tab and chord version of the new album of Hale (Twilight). All their 
are here. I’m 95% sure of the chords and tabs I put in this version. Medyo Complicated 
onte pero pag nasanay kayo sa style ng pag-tab ko eh madali na!

If you have any comments on my tabs, you can send me a message on my friendster account 
on my e-mail.

Pasensya na pero accoustic guitar lang gamit ko pang kappa!!!.. haha.. la electric ko 
sa bahay eh.. haha.. pero.. sure ako sa mga pinaglalagay ko dito.. try niyo na lang.. 
me onteng mali (sana wala) eh text me na lang!!!.. haha..

You can repost this if you like and make some changes on it. Just be sure to put my name 
it.. hehe..

Thank you Lord for giving me strength for tabbing this album

Thanks Jimmy Jornacion for giving me this CD of Hale.. haha..

I also like to thank the special girl in my heart for giving me inspiration to make 
tabs possible. (Kilala mo na kung sino ka kaya’t di ko muna babanggitin name mo for safety.) 
Best textmate ever since April!!! Ang nagiisang babaeng tinitibukan ng puso ko!!!

I would like to dedicate my 1st submitted tabs to that special girl that I love so 
Para sayo ‘to!!! Sana magustuhan mo ‘to!!!

Para naman sa Hale Fanatikz!!!.. Wo0h!!!.. hope you all like this!!!.. The bezt talaga 
Hale!!! Yeah!!!

1. Last song
2. Fire in the sky
3. Empty tears, empty heart
4. The Ballad of
5. Waltz
6. Hide and seek
7. Eyes wide shut
8. Liham
9. Shooting star
10. 7,8
11. Elegy
12. Dahil sa’yo himig ng aking gitara
13. Starting over
14. Brother

1. Last song

e|---8------|
B|-8---8----|
G|-------5—-|
D|----------|
A|----------|
E|----------|

Verse 1: (Every chord, tatlong bagsakan except Am & G
F			   C
I’m breathing the air
F			   C
I’m thinking of what you’ve done and said
F			   C
You crumpled my heart
       Am (hold)    G (hold)
I was down on my knees

Verse 2:
F			  C
I’m hurting down inside
F		   C
Wondered if you still even cared
F			  C
I’ve cried all alone
     Am(hold)           G(hold)
I’m done with all this tears

Chorus:
			 Dm   Em  F
I’m singing my last song
			 Dm   Em  F
I’m singing my last song
			 Dm   Em  F
I’m singing my last song
     Am – G - F
For you…

Verse 3:
F			  C
I’m healing the wounds
F			  C
I’m staring at stars across my room
F			C
My meaning is lost
     Am (hold)    G (hold)
I’m bound for defeat

Verse4:
F			C
Discover me inside
F	     	 C
It’ all just a memory left behind
F			C
One day I’ll fly
    Am (hold)      G (hold)
So high above my feet

(Repeat Chorus 2x)

Bridge:
         F     G
And the first time
        Am             G/B    C
Is the last thing I’m gonna make
         F       Em
And the next in line
       Am              G/B    D    G
Is the one that whose gonna break you

(Repeat Chorus)

Chorus: (Bagsak–bagsak lang)
			 Dm   Em  F
I’m singing my last song
			 Dm   Em  F
I’m singing my last song
			 Dm   Em  F
I’m singing my last song
     Am – G - F
For you…

Chorus:
			 Dm   Em  F
I’m singing my last song
			 Dm   Em  F
I’m singing my last song
			 Dm   Em  F
I’m singing my last song
     Am – G - F
For you…
  Am – G - F
You…
  Am – G - F
You…

2. Fire in the sky

Intro:
   D             Em         G
e|------------------------------|
B|-5h7-5h7--5-7--8-7-8--7-5-3p--|
G|------------------------------|
D|------------------------------|
A|------------------------------|
E|------------------------------|
            D         Em           G
e|-/7-5-5-3-5p-14--14-12p-12p--10--10--10--|
B|---------------14--------------14--14----|
G|-----------------------------------------|
D|-----------------------------------------|
A|-----------------------------------------|
E|-----------------------------------------|

Riff1:(Strum niyo yung 1st string lang ng mabilis; o kaya hanapin niyo na lang yung 
effex para sa riff na ito)
e|-10--10-10-10--10-10-10--10-10-10--10-10--|
B|------------------------------------------|
G|------------------------------------------|
D|------------------------------------------|
A|------------------------------------------|
E|------------------------------------------|

e|-14-17-14-17-14-17-14-17---14-10-14-10-14-10-|
B|---------------------------------------------|
G|---------------------------------------------|
D|---------------------------------------------|
A|---------------------------------------------|
E|---------------------------------------------|

e|-10--10-10-10--10-10-10--10-10-10--10-10--|
B|------------------------------------------|
G|------------------------------------------|
D|------------------------------------------|
A|------------------------------------------|
E|------------------------------------------|

Riff2:(2nd guitar; naka effex)
   D           C                    G
e|--------------------------------------|
B|-5h7-5h7-5-7-8-7-8-7-8-7-8-7--7-5-3---|
G|--------------------------------------|
D|--------------------------------------|
A|--------------------------------------|
E|--------------------------------------|

Riff3:
   D           C                    G
e|---------------------------------------|
B|-5h7-5h7-5-7-8-7-8-7---7-5-5p3-5p3-5p3-|
G|---------------------------------------|
D|---------------------------------------|
A|---------------------------------------|
E|---------------------------------------|

Riff4:(strum ng mabilis; timingan nio ulit)
   Em    G
e|----------|
B|--8----8--|
G|----------|
D|----------|
A|----------|
E|----------|
Verse 1:
D            Em        G
Fire in your eyes you seek
					   D - Em - G
It’s always what you’ve lost
        D        Em          G
Left alone on a cold dark street
						 D - Em - G
It wasn’t what you’ve hoped for
       D             Em        G
Breakaway from the clouds you see
                      D – Em - G
It’s always what’s inside
           D                Em
When your giving all you’ve got
                G
But still you bleed
                        Bm – A - G
A twist of fate you’ll find

Refrain:
       Em
Just breakaway
          G               Riff1
I wanna breakaway to the sun
      Em
Just make believe
         G
I wanna make believe

Chorus:
  D (Riff2) – C - G
You…
                     Bm – A - G
There’s fire in the sky
   D (Riff3) – C - G
You…
                     Bm – A - G
There’s fire in the sky

Adlib:(hanapin niyo ulit yung effex nito; strum ng mabilis yung bawat string; timingan 
bilangin nio na lng kng tigiilang strum sila)
   Bb    D
e|-------14-12-10-9--------|
B|-11---------------12-10--|
G|-------------------------|
D|-------------------------|
A|-------------------------|
E|-------------------------|
    Bb     D
e|--------//10---14-12-----|
B|--11-----------------3h5-|
G|-------------------------|
D|-------------------------|
A|-------------------------|
E|-------------------------|
    Eb   A
e|----------|
B|--11---9--|
G|----------|
D|----------|
A|----------|
E|----------|

Refrain:
       Em (Riff4)
Just breakaway
          G               (Riff1)
I wanna breakaway to the sun
      Em (Riff4)
Just make believe
         G
I wanna make believe

Chorus:(strum once)
  D – C - G
You…
                     Bm – A - G
There’s fire in the sky
(Strum na ng mabilis)
   D – C - G
You…
                      Bm - A/C# - E
There’s fire in the sky

Ending:
  C – Bb – F
You…        (3x)
   Am – G - F
You…

3. Empty tears, Empty heart

(Fave song ko sa album na ‘to)

Intro:

Guitar 1:
    G
e|--3h5-5---3---3---3-----3h5-5---3---3---3---|
B|--3-----3---3---3---3---3-----3---3---3---3-|
G|--------------------------------------------|
D|--------------------------------------------|
A|--------------------------------------------|
E|--------------------------------------------|
    D
e|--2h3-3---2---2---2-----2h3-3---2---2---2---|
B|--3-----3---3---3---3---3-----3---3---3---3-|
G|--------------------------------------------|
D|--------------------------------------------|
A|--------------------------------------------|
E|--------------------------------------------|
(tapos pasok guitar 2 pero ulit uli ang guitar 1)

Guitar 2:(Strumming pattern: D – Down ; U – Up)
   G
   D   UU  D
e|-x---xx--x-|
B|-3---33--3-|
G|-0h2-22--0-| (2x)
D|-0---00--0-|
A|-2---22--2-|
E|-3---33—-3-|
   Dsus
   D   UU   D
e|-2h3-33p2-2-|
B|-3---33---3-|
G|-2---22---2-|(2x)
D|------------|
A|------------|
E|------------|

Verse 1:
  G (guitar1)                   D (guitar1)
Stay still, I’m watching you breathing
      G (guitar1&2)                  D (guitar1&2)
Just hold still, just a little bit longer

Refrain:
           Em             D/F#
I’ll keep holding on for you
        G              D
Until everything is through
          Em              D/F#
Tell me where would I go back
         G        A
Just to reach you

Chorus 1:
E                  A9
Don’t leave here alone again
E                      B9   C#m
Don’t leave me hanging out dry
E                     A9
Don’t leave me here alone again
       G  D/F#   E
‘Cause I can’t die

Verse 2:(Do guitar1 tab; strumming ang guitar2)
G                       D
I will return to my senses
   G                  D
With my empty tears and my empty heart

(Repeat Refrain)

Chorus 2:
E                  A9
Don’t leave here alone again
E                      B9    C#m
Don’t leave me hanging out dry
E                     B9  C#m
Don’t leave me here alone again
       G  D/F#  E
‘Cause I can’t die
   G     D/F#  A    G       A9       G – A9
I can’t die I won’t cry without you

Bridge:
Bm                    A9
Don’t let your hair slide down
          F#m            G
‘Cause I wanna see your face
Bm                      A9
Oh please don’t let me fall down
  F#m       G
Alone with you
Bm                    A9
Don’t let your hair slide down
          F#m            G
‘Cause I wanna see your face
Bm                      A9
Oh please don’t let me fall down
  F#m       G               A9
Alone with you, and all of you

(Repeat Chorus 2)

4. The Ballad of

Verse 1:(Guitar 2 plucking)
      C
There are 8 billion people in this world
                      Dm7
8 Billion lives are changing

I never felt so alone
       C                            C/B
Would you consider me in spite of this?
                        Dm7
I’m always the one who loses
                  G
Would you make me better?

Refrain:(Guitar 2 plucking)
F        C/E      Dm7
How?... How?... How?...
                   C/E
will we make this work?
F     C/E Dm7             G
Why do you have to be so far?

Chorus:
                C             Am
It’s all clear now I’m gonna keep you
              Dm7          G
Like flowing water into forever

Verse 2:
         C
That look is all I need to get by
                       Dm7
Like living in some illusion
                  C/G
I never felt so alive
    C                                  C/B
I know that there will be flaws around us
                              Dm7
The silly wars that we’ll be fighting
                 G
Yes I’ll be fighting

(Repeat Refrain)
(Repeat Chorus 2x)
        D     G
Into forever now
      Am                        G
I’ll be the one who holds you dear

Verse 3:
      C
There are 8 billion people in this world
                      Dm7
8 Billion lives are changing and you’re the one
   C
I need

5. Waltz

Verse 1:(naka effex yung gitara pero yung bass strings lang ang tatamaan)
D      A           Em
I hate the way you are
D      A          Em
So mean to me by far
G          D     Em
The most frigid girl
D           A      Em
That I have ever known

Verse 2:
D       A        Em
You speak loudly but
D        A       Em
When I'm not around
G          D          Em
You'll be just like them
D         A          Em
So shallow and obnoxious

Refrain:
Bm       G
Please…
          D
That's enough…
         D/C#
That's enough…
Bm       G
Please…
      Bm          Bm/Bb   A  A/G# G
I've said this a million times before
         D
And I’m sick…

Chorus 1:
                G D A
But all that I need
                 G D A
And all that I bleed
                 G D A
And all that I care for
   Bm - A/C# - D
Is you

Verse 3:
D          A         Em
You said that you'd call
      D         A         Em
What time will you be at home
 G       D     Em
But you never did
     D        A        G
You said you did mean to

Verse 4:
 D    A      Em
Now I am in rage
   D   A        Em
As if we're engaged
     G       D  Em
You made me realize
     D        A   Em
I'm just your alibi

(Repeat Refrain)
(Repeat Chorus 1)

Chorus 2:
                G D A
And all that I need
                 G D A
And all that I bleed
                G D A
And all that I care for
     G - D
Is you
G/B A   Em
I hate you..

6. Hide and seek

Intro: C – Em (2x)

Verse 1:
         C                           Em
You’re still as beautiful as I saw you
        C                          Em
You’re lovely like the way I want you to
   C                                     Em
Release these thoughts about you like I do
    C                         G (higher)
Corrupt your mind, I will explore your mind

Interlude: C – Em (2x)

Verse 2:
     C                                 Em
The morning after’s gone it’s time to go
    C                                         Em
Convince this ordinary wish that won’t come true
     C                                Em
The moment that you’ll slip into my brain
   C                 G(higher)
Ignore my plea, you cannot see

Chorus:
  Em      C      G
Treat me like a fool
 Em      C      G
Kiss me like I rule
 Em      C        G
Let me blow your mind
 Em
Use you from behind

Interlude: C – Em (2x)

Riff:
e|-----------------|
B|-----------------|
G|-----------7-7-7-|
D|-------5-5-------|
A|-7-7-7-----------|
E|-----------------|

Verse 3:
        C                        Em (Riff)
Life’s not as beautiful as I saw it
         C                               Em (Riff)
There’s something in the way it does’nt fit
   C                                     Em(Riff)
Release these thoughts about you like I do
    C                         G(higher)
Corrupt my mind, you will explore my mind

Interlude: C – Em (2x)

Verse 4:
   C                                 Em (Riff)
I couldn’t care less ‘bout what you feel
       C                                 Em (Riff)
I’ll play you by the book like I’m used to
     C                                 Em (Riff)
The moment that you’ll slip into my brain
   C                 G(higher)
Ignore my plea, you cannot see

 (Repeat Chorus)

Adlib: G – C (4x)(Timingan niyo yung paglipat ng chords)

e|----------15-15-15--19-19-15-15-------19-19-15-15-------|
B|-\15-15-15----------------------15-15-------------15-15-|
G|--------------------------------------------------------|
D|--------------------------------------------------------|
A|--------------------------------------------------------|
E|--------------------------------------------------------|

e|-17-17-------------15--17-17-------------15-|
B|-------15-15----15-----------15-15----15----|
G|-------------16--------------------16-------|
D|--------------------------------------------|
A|--------------------------------------------|
E|--------------------------------------------|

e|-15-15-14-14---------14--15-15-14-14-----------------|
B|------------15-15--15---------------15-15------------|
G|-----------------16----------------------16-16-14-14-|
D|-----------------------------------------------------|
A|-----------------------------------------------------|
E|-----------------------------------------------------|

e|--------------------------------------------|
B|--------------------------------------------|
G|-12-12-12-12-12-12-12-12-12-12-12-12—----12-|
D|------------------------------------12h14---|
A|--------------------------------------------|
E|--------------------------------------------|

e|-----------10----------------10---------|
B|-----12-12----12-12------12-12----12-12-|
G|-9h12---------------9h12----------------|
D|----------------------------------------|
A|----------------------------------------|
E|----------------------------------------|

e|-----------10-10-14-14-17-17-15-15-------|
B|-----12-12-------------------------------|
G|-9h12------------------------------------|
D|-----------------------------------------|
A|-----------------------------------------|
E|-----------------------------------------|

e|-/19-19-19-15-15-15-19-19-14-14-19-19-12-12------|
B|-------------------------------------------15-15-|
G|-------------------------------------------------|
D|-------------------------------------------------|
A|-------------------------------------------------|
E|-------------------------------------------------|

e|-12-12-12-12-12-12-12-12-12-12-12-12-12-12-12-12-|
B|-------------------------------------------------|
G|-------------------------------------------------|
D|-------------------------------------------------|
A|-------------------------------------------------|
E|-------------------------------------------------|

e|-----------------------------|
B|-----------------------------|
G|-----------------------------|
D|-12/9-12/9-12/9-12/9-12/9----|
A|-----------------------------|
E|-----------------------------|

(Solo yung drums tapos timingan niyo yung bagsakan ng chord na ‘to)
     C
e|--x--|
B|--x--|
G|--9--|
D|--10-|
A|--10-|
E|--8--|

Then:

C – Em – F - B

(Repeat Chorus)

Bass:
G|---------------------------------|
D|-------4-4-5-5-5-------4-4-5-5-5-|
A|-3-3-3------------3-3-3----------|
E|---------------------------------|

G|------------------------------11-11-12-12-12-16-17-|
D|----------------------10-10-10---------------------|
A|---------9-9-10-10-10------------------------------|
E|-3/8-8-8-------------------------------------------|


7. Eyes wide shut

Intro:(Do intro 2x)
Bass:
   D
G|---------------------------------------|
D|---------------------------------------|
A|-5-5-5-5-5-5-5-5-5-5-5-5-5-5-5-5-5-5-5-|
E|---------------------------------------|
   Bm
G|---------------------------------------|
D|---------------------------------------|
A|-2-2-2-2-2-2-2-2-2-2-2-2-2-2-2-2-2-2-2-|
E|---------------------------------------|
Guitar 1:
   DM7             Bm
e|---------------------------------|
B|---------------------------------|
G|---------------------------------|
D|---------------------------------|
A|-4-4h5-4--4-4h5------------------|
E|------------------5-5h7-5--5-5h7-|
(pasok drums sa pangalawang ulit ng intro)

Verse 1:(Do intro tabs)
DM7         Bm    DM7       Bm
Eyes wide shut, stuck conscious
          DM7                  Bm
I can’t sleep ‘cause I’m with you
       DM7                 Bm
I can feel your skin go through my soul

While yours is somewhere else

Refrain:
     G  Bm    G             D
But you, You never saw me there with you
    G Bm      G
No you don’t have a clue

(Repeat intro)

Verse 2:(Do intro tabs)
DM7         Bm  DM7     Bm
Eyes wide shut, Action cut
          DM7                  Bm
I can’t sleep ‘cause I’m with you
       DM7                 Bm
I can feel your skin go through my soul

While yours is somewhere else

Refrain:
G    Bm       G             Bm
But you, You never saw me there with you
    G D       C
No you don’t have a clue

Chorus:
Em     F#m    G      A
All I have is all I need but
Em/B    F#m/C#  G/D      A/E
All you want is all I’m not and
Em       F#m     G         A
You can see that all I’ll be is
 Em/B     F#m/C#  G/D        A/E      G - Bm
Someone who just loves you when your naked
  G         Bm
Eyes can’t see through me
      G                       Bm                   G – Bm
You thought things can’t go wrong while your with me
       F  C  F  C
But I lied…

Adlib: D – Bm – G – A
	  D – Bm – G – Bm

Em     F#m    G      A
All I have is all I need but
Em/B     F#m/C# G/D      A/E
All you want is all I’m not and
Em       F#m     G         A
You can see that all I’ll be is

 Em/B     F#m/C#  G/D        A/E      G - Bm
Someone who just loves you when your naked

8. Liham

(Itong kantang ‘to dedicate ko sa’yo!)

Intro: Am – G – C then
   Am   G   C
e|-----------------------|
B|--1---3---5------------|
G|-----------------------|
D|-----------------------|
A|-----------------------|
E|-----------------------|

Riff1:
e|-----------------------|
B|-----------------------|
G|---------------9-11-12-|
D|-------9-10-12---------|
A|-10h12-----------------|
E|-----------------------|
(yung mga ibang Riff naka piano)

Verse 1:
Am G           C
   Isip ay nagtatanong
Am       G          C
   Ba’t di raw maintindihan
Am       G       C
   Kung bakit nalilito at di alam
Bb                G
   Landas na di inasahan

Verse 2:
Am    G          C
   Laman ng panaginip
Am       G          C
   Ba’t di ko na masulyapan
Am    G          C
   Nasasaktan bawat araw bawat hakbang
          Bb
   Di mo lang maramdaman
    G
   Di sinasadyang

Chorus 1:
 G – C – F - C
Mahal…
 G – C – F – C
Mahal…
 G – C – F - C
Mahal…
 G – C - F
Mahal kita…

Verse 3:
Am    G          C
  Hindi ka na magiisa
Am    G          C
  Hindi ka na luluha
Am   G            C                      Bb
  Ligaya mo’y pangarap na hindi maging akin
        G (Riff)
  Kundi para sa iba

(Repeat Chorus 1)

Chorus 2:
 G – C – F – C
Mahal…
 G – C – F – C
Mahal…
 G – C – F – C
Mahal…
 G – C – F – C
Mahal…

Adlib:(piano gamit nila sa adlib)
       G – C – F – C (3x)
       G – C – F - F
Am    G          C
  Hindi ka na magiisa…

9. Shooting star

Verse 1:(Bagsak-bagsak lang)
                        D
How many times you've hurt me
                       Bm
So many times you’ve fooled me
                       A
And you'll be doing it again

Verse 2:
                      D
So many times we've spent in
                       Bm
Too many lives we've been in
                      A
But you're doing it again

Refrain:
   G                    D/F#
To me the nights have fallen
               Em              Bm
The lights are on and off again
     A                 Bm
is there a chance that you won’t die
       G             F#
Won’t die with me tonight?

Chorus :
D                DM7              G
Like a shooting star to where you are
            Gm
Are we too late am I too soon
D                DM7                    G
You'll make it through you've gone too far
               E       G
Will you ever be my star?

Verse 3:
                   D
I’m holding on to nothing
                    Bm
No reason worth for living
                     A
I’m calling out to you

Verse 4:
                         D
If it’s the only way to keep you
                       Bm
Then I don’t want to break you
                 A
I’m losing grip again

Refrain:
      G                   D/F#
With you the nights have fallen
               Em              Bm
The lights are on and off again
     A                 Bm
is there a chance that you wont die
       G            F#
Won’t die with me tonight?

Chorus:
D                DM7               G
Like a shooting star to where you are
            Gm
Are we too late am I too soon
D                 DM7                   G
You'll make it through you've gone too far
               E       G - B
Will you ever be my star

E                 EM7                A
You're a shooting star to where you are
            Am
Are we too late am I too soon
E                EM7                    A
You'll make it through you've gone too far
               F#       A
Will you ever be my star
               F#       A (hold)
Will you ever be my star

Bridge:
C#m              G#
You’re walking away
                A – G#m            F#m  E
I'll be seeing you through a satellite
   C#m  G#m A
And if you go
                   E
Then I’m walking away

10. 7, 8

Intro:
e|------------------------|
B|------------------------|
G|--------2-------2(hold)-|(2x)
D|-0---0----0---0---------|
A|---4- -4----4-----------|
E|------------------------|

e|-------------------------|
B|---------2-------2(hold)-|
G|-----2-----2---2---------| (2x)
D|---0---0-----0-----------|
A|-2-----------------------|
E|-------------------------|

Verse:
e|------------------------|
B|------------------------|
G|--------2-------2(hold)-|
D|-0---0----0---0---------|
A|---4- -4----4-----------|
E|------------------------|
I’ll always be around but I won’t be home
e|------------------------|
B|------------------------|
G|--------2-------2(hold)-|
D|-0---0----0---0---------|
A|---4- -4----4-----------|
E|------------------------|
You’ll see me every time but we’re not alone
e|-------------------------|
B|---------2-------2(hold)-|
G|-----2-----2---2---------|
D|---0---0-----0-----------|
A|-2-----------------------|
E|-------------------------|
You’ll hear me when your deaf ‘cause your impaired
e|-------------------------|
B|---------2-------2(hold)-|
G|-----2-----2---2---------|
D|---0---0-----0-----------|
A|-2-----------------------|
E|-------------------------|
You’ll lose the sight of me ’cause you haven’t stared

(Repeat intro)
(Repeat Verse)

Refrain:(Kayo na bahala sa plucking)
 G      D/F#
Like I said
     G       Bm
You will be mine
 G         D/F#
Words you seek
       G         Bm
We’ll make ends meet

Chorus:
      D        Bm
I’ll meet you here
      F#m     G
Just have no fear
        D       Bm
We’ll break the odds
     F#m      G
Our tears be gone

(Repeat intro 2x)
(Repeat Refrain)

Adlib:
e|-17---------|
B|---14-15-14-|
G|------------|(do this for the whole adlib)
D|------------|
A|------------|
E|------------|
Chords: D – Bm – F#m – G (2x)
End:
e|-15s17----|
B|-------15-|
G|----------|
D|----------|
A|----------|
E|----------|

Chorus:
      D        Bm
I’ll meet you here
      F#m     G
Just have no fear
        D       Bm
We’ll break the odds
     F#m      G
Our tears be gone

Chorus:
      D        Bm
I’ll meet you here
      F#m     G
Just have no fear
        D       Bm
We’ll break the odds
     F#m      G
Our tears be gone
    Bm
Be gone…
    F#m
Be gone…
    G
Be gone…
    Bm
Be gone…

11. Elegy

Intro:(Strumming pattern: D – Down; U – Up)
   E                 A
   D U D U D U D U   D U D U D U D U
e|-0-0-0-0-0-0-0-0---0-0-0-0-0-0-0-0-|
B|-5-5-5-5-5-5-5-5---5-5-5-5-5-5-5-5-|
G|-4-4-4-4-4-4-4-4---6-6-6-6-6-6-6-6-|
D|-6-6-6-6-6-6-6-6///7-7-7-7-7-7-7-7-|
A|-7-7-7-7-7-7-7-7---0-0-0-0-0-0-0-0-|
E|-----------------------------------|
      B                 A
      D U D U D U D U   D U D U D U D U
e|----0-0-0-0-0-0-0-0----0-0-0-0-0-0-0-0-|
B|----0-0-0-0-0-0-0-0-///5-5-5-5-5-5-5-5-|
G|----8-8-8-8-8-8-8-8----6-6-6-6-6-6-6-6-|
D|-///9-9-9-9-9-9-9-9----7-7-7-7-7-7-7-7-|
A|----9-9-9-9-9-9-9-9----0-0-0-0-0-0-0-0-|
E|----7-7-7-7-7-7-7-7--------------------|

(Do intro 2x)

Verse 1:(Do intro tabs)
   E                 A
   D U D U D U D U   D U D U D U D U
e|-0-0-0-0-0-0-0-0---0-0-0-0-0-0-0-0-|
B|-5-5-5-5-5-5-5-5---5-5-5-5-5-5-5-5-|
G|-4-4-4-4-4-4-4-4---6-6-6-6-6-6-6-6-|
D|-6-6-6-6-6-6-6-6///7-7-7-7-7-7-7-7-|
A|-7-7-7-7-7-7-7-7---0-0-0-0-0-0-0-0-|
E|-----------------------------------|
   Such a pretty    sight
      B                  E           A/E
      D U D U D U D U    D U D U D U D U
e|----0-0-0-0-0-0-0-0----0-0-0-0-0-0-0-0-|
B|----0-0-0-0-0-0-0-0-///5-5-5-5-5-5-5-5-|
G|----8-8-8-8-8-8-8-8----4-4-4-4-4-4-4-4-|
D|-///9-9-9-9-9-9-9-9----6-6-6-6-6-6-7-6-|
A|----9-9-9-9-9-9-9-9----7-7-7-7-7-7-7-7-|
E|----7-7-7-7-7-7-7-7--------------------|
    What a glorious      day
   E                 A
   D U D U D U D U   D U D U D U D U
e|-0-0-0-0-0-0-0-0---0-0-0-0-0-0-0-0-|
B|-5-5-5-5-5-5-5-5---5-5-5-5-5-5-5-5-|
G|-4-4-4-4-4-4-4-4---6-6-6-6-6-6-6-6-|
D|-6-6-6-6-6-6-6-6///7-7-7-7-7-7-7-7-|
A|-7-7-7-7-7-7-7-7---0-0-0-0-0-0-0-0-|
E|-----------------------------------|
   I think I’m al---right
      B                  E
      D U D U D U D U    D U D U D U D U
e|----0-0-0-0-0-0-0-0----0-0-0-0-0-0-0-0-|
B|----0-0-0-0-0-0-0-0-///5-5-5-5-5-5-5-5-|
G|----8-8-8-8-8-8-8-8----4-4-4-4-4-4-4-4-|
D|-///9-9-9-9-9-9-9-9----6-6-6-6-6-6-6-6-|
A|----9-9-9-9-9-9-9-9----7-7-7-7-7-7-7-7-|
E|----7-7-7-7-7-7-7-7--------------------|
Just don’t come here tod-ay

Chorus 1:(Pasok bass, guitar 2 na naka effex, drums at piano)
   E                 A
   D U D U D U D U   D U D U D U D U
e|-0-0-0-0-0-0-0-0---0-0-0-0-0-0-0-0-|
B|-5-5-5-5-5-5-5-5---5-5-5-5-5-5-5-5-|
G|-4-4-4-4-4-4-4-4---6-6-6-6-6-6-6-6-|
D|-6-6-6-6-6-6-6-6///7-7-7-7-7-7-7-7-|
A|-7-7-7-7-7-7-7-7---0-0-0-0-0-0-0-0-|
E|-----------------------------------|
   Ah…
      B                 A
      D U D U D U D U   D U D U D U D U
e|----0-0-0-0-0-0-0-0----0-0-0-0-0-0-0-0-|
B|----0-0-0-0-0-0-0-0-///5-5-5-5-5-5-5-5-|
G|----8-8-8-8-8-8-8-8----6-6-6-6-6-6-6-6-|
D|-///9-9-9-9-9-9-9-9----7-7-7-7-7-7-7-7-|
A|----9-9-9-9-9-9-9-9----0-0-0-0-0-0-0-0-|
E|----7-7-7-7-7-7-7-7--------------------|
      Ah…                Ah… Ah…
   E                 A
   D U D U D U D U   D U D U D U D U
e|-0-0-0-0-0-0-0-0---0-0-0-0-0-0-0-0-|
B|-5-5-5-5-5-5-5-5---5-5-5-5-5-5-5-5-|
G|-4-4-4-4-4-4-4-4---6-6-6-6-6-6-6-6-|
D|-6-6-6-6-6-6-6-6///7-7-7-7-7-7-7-7-|
A|-7-7-7-7-7-7-7-7---0-0-0-0-0-0-0-0-|
E|-----------------------------------|
   Ah…
      B                  E
      D U D U D U D U    D U D U D U D U
e|----0-0-0-0-0-0-0-0----0-0-0-0-0-0-0-0-|
B|----0-0-0-0-0-0-0-0-///5-5-5-5-5-5-5-5-|
G|----8-8-8-8-8-8-8-8----4-4-4-4-4-4-4-4-|
D|-///9-9-9-9-9-9-9-9----6-6-6-6-6-6-6-6-|
A|----9-9-9-9-9-9-9-9----7-7-7-7-7-7-7-7-|
E|----7-7-7-7-7-7-7-7--------------------|
      Ah…                Ah…   Ah…
Verse 2:
   E                 A
   D U D U D U D U   D U D U D U D U
e|-0-0-0-0-0-0-0-0---0-0-0-0-0-0-0-0-|
B|-5-5-5-5-5-5-5-5---5-5-5-5-5-5-5-5-|
G|-4-4-4-4-4-4-4-4---6-6-6-6-6-6-6-6-|
D|-6-6-6-6-6-6-6-6///7-7-7-7-7-7-7-7-|
A|-7-7-7-7-7-7-7-7---0-0-0-0-0-0-0-0-|
E|-----------------------------------|
I’m taking all what’s mine
      B                  E           A/E
      D U D U D U D U    D U D U D U D U
e|----0-0-0-0-0-0-0-0----0-0-0-0-0-0-0-0-|
B|----0-0-0-0-0-0-0-0-///5-5-5-5-5-5-5-5-|
G|----8-8-8-8-8-8-8-8----4-4-4-4-4-4-4-4-|
D|-///9-9-9-9-9-9-9-9----6-6-6-6-6-6-7-6-|
A|----9-9-9-9-9-9-9-9----7-7-7-7-7-7-7-7-|
E|----7-7-7-7-7-7-7-7--------------------|
There’s just no time to  waste
   E                 A
   D U D U D U D U   D U D U D U D U
e|-0-0-0-0-0-0-0-0---0-0-0-0-0-0-0-0-|
B|-5-5-5-5-5-5-5-5---5-5-5-5-5-5-5-5-|
G|-4-4-4-4-4-4-4-4---6-6-6-6-6-6-6-6-|
D|-6-6-6-6-6-6-6-6///7-7-7-7-7-7-7-7-|
A|-7-7-7-7-7-7-7-7---0-0-0-0-0-0-0-0-|
E|-----------------------------------|
I know I’m doing     fine
      B                  E
      D U D U D U D U    D U D U D U D U
e|----0-0-0-0-0-0-0-0----0-0-0-0-0-0-0-0-|
B|----0-0-0-0-0-0-0-0-///5-5-5-5-5-5-5-5-|
G|----8-8-8-8-8-8-8-8----4-4-4-4-4-4-4-4-|
D|-///9-9-9-9-9-9-9-9----6-6-6-6-6-6-6-6-|
A|----9-9-9-9-9-9-9-9----7-7-7-7-7-7-7-7-|
E|----7-7-7-7-7-7-7-7--------------------|
 I’m letting go of h-----ate

Chorus 2:
   E                 A
   D U D U D U D U   D U D U D U D U
e|-0-0-0-0-0-0-0-0---0-0-0-0-0-0-0-0-|
B|-5-5-5-5-5-5-5-5---5-5-5-5-5-5-5-5-|
G|-4-4-4-4-4-4-4-4---6-6-6-6-6-6-6-6-|
D|-6-6-6-6-6-6-6-6///7-7-7-7-7-7-7-7-|
A|-7-7-7-7-7-7-7-7---0-0-0-0-0-0-0-0-|
E|-----------------------------------|
   Ah…
      B                 A
      D U D U D U D U   D U D U D U D U
e|----0-0-0-0-0-0-0-0----0-0-0-0-0-0-0-0-|
B|----0-0-0-0-0-0-0-0-///5-5-5-5-5-5-5-5-|
G|----8-8-8-8-8-8-8-8----6-6-6-6-6-6-6-6-|
D|-///9-9-9-9-9-9-9-9----7-7-7-7-7-7-7-7-|
A|----9-9-9-9-9-9-9-9----0-0-0-0-0-0-0-0-|
E|----7-7-7-7-7-7-7-7--------------------|
      Ah…                Ah… Ah…
   E                 A
   D U D U D U D U   D U D U D U D U
e|-0-0-0-0-0-0-0-0---0-0-0-0-0-0-0-0-|
B|-5-5-5-5-5-5-5-5---5-5-5-5-5-5-5-5-|
G|-4-4-4-4-4-4-4-4---6-6-6-6-6-6-6-6-|
D|-6-6-6-6-6-6-6-6///7-7-7-7-7-7-7-7-|
A|-7-7-7-7-7-7-7-7---0-0-0-0-0-0-0-0-|
E|-----------------------------------|
   Ah…
      B                  E
      D U D U D U D U    D U D U D U D U
e|----0-0-0-0-0-0-0-0----0-0-0-0-0-0-0-0-|
B|----0-0-0-0-0-0-0-0-///5-5-5-5-5-5-5-5-|
G|----8-8-8-8-8-8-8-8----4-4-4-4-4-4-4-4-|
D|-///9-9-9-9-9-9-9-9----6-6-6-6-6-6-6-6-|
A|----9-9-9-9-9-9-9-9----7-7-7-7-7-7-7-7-|
E|----7-7-7-7-7-7-7-7--------------------|
      Ah…                Ah…   Ah…
     B
I’m right, I know I’m right
     E
I’m right…
     B
You killed , you killed yourself
     E
Yourself
          B      A9
And it’s not my fault
      B       A9
It’s not my fault

Verse 3:
   E                 A
   D U D U D U D U   D U D U D U D U
e|-0-0-0-0-0-0-0-0---0-0-0-0-0-0-0-0-|
B|-5-5-5-5-5-5-5-5---5-5-5-5-5-5-5-5-|
G|-4-4-4-4-4-4-4-4---6-6-6-6-6-6-6-6-|
D|-6-6-6-6-6-6-6-6///7-7-7-7-7-7-7-7-|
A|-7-7-7-7-7-7-7-7---0-0-0-0-0-0-0-0-|
E|-----------------------------------|
   You gave up on   me
      B                  E           A/E
      D U D U D U D U    D U D U D U D U
e|----0-0-0-0-0-0-0-0----0-0-0-0-0-0-0-0-|
B|----0-0-0-0-0-0-0-0-///5-5-5-5-5-5-5-5-|
G|----8-8-8-8-8-8-8-8----4-4-4-4-4-4-4-4-|
D|-///9-9-9-9-9-9-9-9----6-6-6-6-6-6-7-6-|
A|----9-9-9-9-9-9-9-9----7-7-7-7-7-7-7-7-|
E|----7-7-7-7-7-7-7-7--------------------|
Like you gave up your life
   E                 A
   D U D U D U D U   D U D U D U D U
e|-0-0-0-0-0-0-0-0---0-0-0-0-0-0-0-0-|
B|-5-5-5-5-5-5-5-5---5-5-5-5-5-5-5-5-|
G|-4-4-4-4-4-4-4-4---6-6-6-6-6-6-6-6-|
D|-6-6-6-6-6-6-6-6///7-7-7-7-7-7-7-7-|
A|-7-7-7-7-7-7-7-7---0-0-0-0-0-0-0-0-|
E|-----------------------------------|
   Now I’m finally free
      B                  E
      D U D U D U D U    D U D U D U D U
e|----0-0-0-0-0-0-0-0----0-0-0-0-0-0-0-0-|
B|----0-0-0-0-0-0-0-0-///5-5-5-5-5-5-5-5-|
G|----8-8-8-8-8-8-8-8----4-4-4-4-4-4-4-4-|
D|-///9-9-9-9-9-9-9-9----6-6-6-6-6-6-6-6-|
A|----9-9-9-9-9-9-9-9----7-7-7-7-7-7-7-7-|
E|----7-7-7-7-7-7-7-7--------------------|
      You won’t be my w--ife
Riff1:
   E                       A              B
e|-------------------------14--14--14--14-12--12—12-12----|
B|-12-12-12-12-12-12-12-12--12--12--12--12--12--12-12—12--|
G|--------------------------------------------------------|
D|--------------------------------------------------------|
A|--------------------------------------------------------|
E|--------------------------------------------------------|
   A
e|-----------------|
B|-0-0-0-0-0-0-0-0-|
G|-----------------|
D|-----------------|
A|-----------------|
E|-----------------|

Riff2:
   E              A
e|----------------9-9-9-9-9-9-|
B|-9-9-9-9-9-10-12------------|
G|----------------------------|
D|----------------------------|
A|----------------------------|
E|----------------------------|
         B               E
e|-------------------------------------|
B|-12-10-9-9-9-9-9-7-7-5-5-5-5-5-5-5-5-|
G|-------------------------------------|
D|-------------------------------------|
A|-------------------------------------|
E|-------------------------------------|
Chorus 1:
   E (Riff1)          A
   D U D U D U D U   D U D U D U D U
e|-0-0-0-0-0-0-0-0---0-0-0-0-0-0-0-0-|
B|-5-5-5-5-5-5-5-5---5-5-5-5-5-5-5-5-|
G|-4-4-4-4-4-4-4-4---6-6-6-6-6-6-6-6-|
D|-6-6-6-6-6-6-6-6///7-7-7-7-7-7-7-7-|
A|-7-7-7-7-7-7-7-7---0-0-0-0-0-0-0-0-|
E|-----------------------------------|
   Ah…
      B                 A
      D U D U D U D U   D U D U D U D U
e|----0-0-0-0-0-0-0-0----0-0-0-0-0-0-0-0-|
B|----0-0-0-0-0-0-0-0-///5-5-5-5-5-5-5-5-|
G|----8-8-8-8-8-8-8-8----6-6-6-6-6-6-6-6-|
D|-///9-9-9-9-9-9-9-9----7-7-7-7-7-7-7-7-|
A|----9-9-9-9-9-9-9-9----0-0-0-0-0-0-0-0-|
E|----7-7-7-7-7-7-7-7--------------------|
      Ah…                Ah… Ah…
   E (Riff2)          A
   D U D U D U D U   D U D U D U D U
e|-0-0-0-0-0-0-0-0---0-0-0-0-0-0-0-0-|
B|-5-5-5-5-5-5-5-5---5-5-5-5-5-5-5-5-|
G|-4-4-4-4-4-4-4-4---6-6-6-6-6-6-6-6-|
D|-6-6-6-6-6-6-6-6///7-7-7-7-7-7-7-7-|
A|-7-7-7-7-7-7-7-7---0-0-0-0-0-0-0-0-|
E|-----------------------------------|
   Ah…
      B                  E
      D U D U D U D U    D U D U D U D U
e|----0-0-0-0-0-0-0-0----0-0-0-0-0-0-0-0-|
B|----0-0-0-0-0-0-0-0-///5-5-5-5-5-5-5-5-|
G|----8-8-8-8-8-8-8-8----4-4-4-4-4-4-4-4-|
D|-///9-9-9-9-9-9-9-9----6-6-6-6-6-6-6-6-|
A|----9-9-9-9-9-9-9-9----7-7-7-7-7-7-7-7-|
E|----7-7-7-7-7-7-7-7--------------------|
      Ah…                Ah…   Ah…

Ending:(Same chords and strumming as chorus)
      E – A – B – A
      E – A – B - E
e|---------------------------------------|
B|-12-12-12-12-12------------------------|
G|----------------9-11-11p13-13-13-13-13-|
D|---------------------------------------|
A|---------------------------------------|
E|---------------------------------------|

e|-------------------------------|
B|-------------------------------|
G|-11-9p8-8-8-8-8-9-11-----------|
D|---------------------9-9-9-9-9—|
A|-------------------------------|
E|-------------------------------|

e|----------------------------------------------|
B|----------------------------------------------|
G|------------------------------9-9-9-9-9-9-9-9-|
D|-9-7-6-6-6-6-6-6-6-6-6-6-6-7-9----------------|
A|----------------------------------------------|
E|----------------------------------------------|

e|---------------------------|
B|-7h9-7-7-7-7-7-7-7s9h10-9^-|
G|---------------------------|
D|---------------------------|
A|---------------------------|
E|---------------------------|

12. Dahil sa’yo himig ng aking gitara

Intro:(una ang guitar1 taz sabay na guitar2)

Guitar1: C – Bm – Am – G (2x)

Guitar2:
e|--------------------3---------10-10-8-7----8-7-----|
B|-12-12-10--10-10-8--5---3/12-----------8-------8-7-|
G|-12-12-11--11-11-7--5------------------------------|
D|--------------------5------------------------------|
A|--------------------3------------------------------|
E|---------------------------------------------------|

Verse 1:
      C             Bm
Nakikiusap, may pangungusap
          Am                 G
Na’yong iniwan ng ‘sang  saglit
        C               Bm
May napaasa, dagling lumisan
      Am               G
Napapaamo kahit lumuluha

Guitar1: C – Bm – Am - G

Guitar2:
e|-10-10--10-10-----------------------5-7-3-|
B|---------------7-8---12-12-10-8-8---7-7-3-|
G|------------------------12-11-9-9---7-7-4-|
D|------------------------------------------|
A|------------------------------------------|
E|------------------------------------------|

Verse 2:
       C              Bm
Kumukuyakoy, parang palaboy
       Am                      G
Namamalik-mata sa ilalim ng buwan
       C                   Bm
Nasa isang tabi, ang lalim ng gabi
             Am                G
Gusto kong umuwi na lang sa bahay

Refrain:
Riff1:
e|--------10-|
B|-8h10-10---|
G|-----------|
D|-----------|
A|-----------|
E|-----------|
     Em             C             Bm – Em (Riff1)
Kasabay ng isang tinig ay nakita ka
      Em      C             Bm    Em
Na sana ay wala nang katapusan pa
       Am
Pero umiwas ka

Chorus:
               Em D                      G
Nang dahil sa’yo     sa himig ng aking gitara
               C Em                 G
Nang dahil sa’yo     ako ay Malaya na

Ending:

Guitar1: C – G/B – Am - G
         C – G/B – Am - G

Guitar2:
   G                         C           G/B
e|---------------7--7-10-8-7-8--7-10-8-7----|
B|-------------7-------------------------10-|
G|-----------7------------------------------|
D|---------5--------------------------------|
A|-----5-7----------------------------------|
E|-3-7--------------------------------------|
                   Am         Em/G
e|-----------10h12p10---8-10--7-7-7-7-7-|
B|---------12-----------------8-8-8-8-8-|
G|-11-11h12-------------------9-9-9-9-9-|
D|--------------------------------------|
A|--------------------------------------|
E|--------------------------------------|
            C                  G/B
e|-7-10-8-7-8------10-10s12-10-8-7-8-7-----|
B|---------------8---------------------8---|
G|---------------------------------------7-|
D|-----------------------------------------|
A|-----------------------------------------|
E|-----------------------------------------|

             Am                     G
e|--------------------7---------------|
B|-------8-7-8-10-8-10-10--8p7-8------|
G|-----7------------------------------|
D|-10h9--------------------------10h9-|
A|------------------------------------|
E|------------------------------------|


13. Starting over

Intro:
Guitar2:(naka distortion)
      C                    G
e|----xxxxx-----xxxxx----------xxxxx-----xxxxx-|
B|----55555-----55555----------33333-----33333-|
G|----55555-----55555----------44444-----44444-|
D|----55555-----55555----------55555-----55555-|
A|--3-33333---3-33333----------55555-----55555-|
E|-----------------------8/3-3-33333-8/3-33333-|
     C                     G
e|-----xxxxx----55555----------xxxxx-----xxxxx-|
B|-----55555----55555----------33333-----33333-|
G|-----55555----55555----------44444-----44444-|
D|-----55555----55555----------55555-----55555-|
A|-----33333--3-33333----------55555-----55555-|
E|-3/8-------------------8/3-3-33333-8/3-33333-|

Verse 1:(pasok drums at guitar1 na naka-accoustic; tuloy pa rin guitar2)
     C
You want me
                                  G
You only want me when you cannot get me
                                        Am
You got me when you had the chance to know me
                                      G
Well I don’t think you knew what you want

Verse 2:
    C
It makes sense
                                             G
The dress you’re wearing’s not yet for next season
                                       Am
And when the right time comes I’ll be fool again
               Cm                 G
‘Cause you’re giving it again to me

Chorus:
                 C
I’ll be starting over

I’ll be starting over
                 G
I’ll be starting over right now
               A
I’ll be under cover

You’ll start to discover
                D    D7
The mourning is over

(Repeat intro)

Verse 3:
  C
Freedom
                                      G
Freedom’s what you want and what you said to me
                                     Am
Freedom’s what you get from leaving me
      Cm                       G
You left me with a hole in my wall

Verse 4:
     C
Will I
 						   G
Will I be just a bleep in your existence?
    					      Am
Or am I just a subject for letting you go
           Cm                            G
You’re letting me go you’ll come as you may

(Repeat Chorus)

Bridge:
C
What comes around
B
What goes around
      Em     D              C
This time I won’t be going down

Coda:
C
I’m going to get

Going to get…

Going to get…
          G
Going to get…

Going to get…

Going to get up… get up…
C
I’m going to get

Going to get…

Going to get…
          G
Going to get…

Going to get…

Going to get up… get up…

(Second voice will sing the chorus)
C
I’m going to get

Going to get…

Going to get…
          G
Going to get…

Going to get…

Going to get up… get up…
C
I’m going to get

Going to get…

Going to get…
          G
Going to get…

Going to get…

Going to get up… get up…

Ending:
Em Em/D              C
Now you’re going to deal with it
      Em Em/D              C
Yeah! Now you’re going to deal with it
         Cm             Cm           G
‘Cause this is what my heart sounds like

14. Brother

Set 1:(Paulit ulit lang yung guitar)

Guitar:(Capo on 2nd fret)
   G
e|--------2---------------2-|
B|-------0--0-----------0---|
G|-----0------0-------0-----|
D|---0----------0---0-------|
A|--------------------------|
E|-3--------------3---------|
   Em
e|---------------------------|
B|--------5------------5-----|
G|------6----6-------6---6---|
D|----7--------7---7-------7-|
A|---------------------------|
E|-0-------------0-----------|
    Am                              D
e|--------------------------------------------|
B|-------5---5---5--------5---5---------------|
G|-----5---7---7--------5---7---7-------5-7---|
D|---7----------------7---------------7-------|
A|----------------------------------5-------7-|
E|-5----------------5-------------------------|
(Pasok drums at bass)

Bass: A – F#m – Bm – E (4x)
	 A – Bm – Bm -A

Set 2:(Tanggal na Capo)

Guitar1:
e|--------------------------------|
B|--------------------------------|
G|--------------------------------| (8x)
D|--7---6---7---6---7---6---7---7-|
A|----7---7---7---7---7---7---7---|
E|--------------------------------|

Guitar2:(Bagsak-bagsak lang)
    A  D
e|--0--0-|
B|--5--3-|
G|--6--2-| (4x)
D|--7--0-|
A|--0--0-|
E|-------|

Guitar2: A – D – F#m – D (hanggang sa matapos ang kanta)

Bass: A – D – F#m – D (hanggang sa matapos ang kanta)

Guitar1:
e|----------------------|-----4------4---5---|
B|-------2--------2--2--|-2------2---------5-|
G|-4-2-4----4-2-4-----4-|---4------4---------|
D|----------------------|--------------------|
A|----------------------|--------------------|
E|----------------------|--------------------|

e|-----------------------|-----4-----4---4h5--|
B|-2-2--2---2--2---2-----|-2-----2----------5-|
G|--------4------4---4h2-|---4-----4----------|
D|-----------------------|--------------------|
A|-----------------------|--------------------|
E|-----------------------|--------------------|

e|-/12-/12-/12-/12-|
B|-----------------| (2x)
G|-----------------|
D|-----------------|
A|-----------------|
E|-----------------|

e|-/17-/17-/17-/12-|
B|-----------------|
G|-----------------|
D|-----------------|
A|-----------------|
E|-----------------|

e|-10-9---------------12-10-9--10-9-------16 17-16-|
B|------10-------------------------10--------------|
G|---------9-7h9-7h9-----------------9-------------|
D|-------------------------------------------------|
A|-------------------------------------------------|
E|-------------------------------------------------|

e|-10-9--------------------10-9--------------12-10-12-10-|
B|-----10-----------12-10-------12-10--------------------|
G|--------9-7h9-7h9-------------------7h9-7h9------------|
D|-------------------------------------------------------|
A|-------------------------------------------------------|
E|-------------------------------------------------------|

e|----0-0-4-4-0-0----------------------------|
B|-222------------222---------2—-2-2-00------|
G|-------------------222—2h4-2---2-2-11-22-1-|
D|--------------------------------------22-2-|
A|-------------------------------------------|
E|-------------------------------------------|

e|-9-9-7-7-10-10------------------------------------|
B|---------------9-9---10-10-9-9--------------------|
G|----------------9-9-----------11-11-9-7-6-7h6-7h6-| (2x)
D|--------------------------------------------------|
A|--------------------------------------------------|
E|--------------------------------------------------|

e|------------------------4---4---4---------|
B|-2-2---2---2---2----2-2---2---2---0h2-0h2-|
G|-----4---4---4---4------------------------|
D|------------------------------------------|
A|------------------------------------------|
E|------------------------------------------|


E|-10-9------10-9--------------9-12-12-12-12-12-12-12-12--|
B|------10-------10----------12---10-10-10-10-10-10-10-10-|
G|---------9-------9-7h9-7h9------------------------------|
D|------------------------------------------------------- |
A|--------------------------------------------------------|
E|--------------------------------------------------------|

e|-10 9------10-9------------10-12-10-12-10-12-|
B|------10-------10----------------------------|
G|---------9-------9 7h9-7h9-------------------|
D|---------------------------------------------|
A|---------------------------------------------|
E|---------------------------------------------|

e|--------------9-9-9-9--|
B|-10-10--12-12----------|
G|---9--9---9--9-9-9-9-9-|
D|-----------------------|
A|-----------------------|
E|-----------------------|

e|-10-9------10-9------------10-12-10-12-10-12-|
B|------10-------10----------------------------|
G|---------9-------9 7h9-7h9-------------------| (2x)
D|---------------------------------------------|
A|---------------------------------------------|
E|---------------------------------------------|

e|--------------9-9-9-9--|
B|-10-10--12-12----------|
G|---9--9---9--9-9-9-9-9-| (3x)
D|-----------------------|
A|-----------------------|
E|-----------------------|

e|-13-12-13-12-13-12-|
B|-------------------|
G|-------------------|
D|-------------------|
A|-------------------|
E|-------------------|

Please Rate my version for this!!!

Thanks!!!

I love you!!!
comments
print report bad tab
10 comments total. Showing first comments.
0 reply
alfonz___ wrote on November 1 2006, 07:08 pm

wahahaha!! naunahan me!! anyway, pangalawang contribution mo plang galing mo na... keep it up ^_^ 5 stars... hehehe

0 reply
riskbreaker_16 wrote on November 6 2006, 06:46 am

Grabe nagawa mo yan, tindi ah.. I don't have the album yet, but i like the way you tabbed Waltz...

0 reply
nupandu07 wrote on November 8 2006, 06:53 am

okie yung tab... pero may mga nirevise me... siguro typographical error mo lang yun... hehehe....

I want to post or [tab]
guest
You may want to rate the tab now too:
select rating
Please do not post tabs as comments. Select "correction" instead!