Oops, an error
Loading. Please wait.

I Get Off Tab

ver2
ver2

Whole song

Interactive

More versions @911Tabs.com
1,195 views 9 this week
1 commentread comment
1 2 3 4 5
not so good
x 1
Autoscroll
+/-
esc
set tempo
stop
Contributor
Tuning
D A D G B E
Hey! There's an official Ultimate Guitar app which is ideal
for learning songs when you're away from computer. Get the app
WARNING: You are trying to view
                                    content from Ultimate-Guitar.com
                                    in an unauthorized application,
                                    which is prohibited.

                                    Please use an official Ultimate
                                    Guitar Tabs application for iPhone,
                                    iPad or Android to access legitimate
                                    chords, guitar, bass, and drum tabs
                                    from Ultimate-Guitar.com database.

                                    Type "ultimate guitar tabs" in Apple
                                    App Store's or Android Market's
                                    search to find the application.
I have waited forever to find a tab that works good for this song and I got tired 
of waiting so I wrote my own.

This tab is for drop D tuning and the song is in the key of Bm.

X = Dead Note
<> = Natural Harmonic
br = bend release
bh = bend and hold
v = vibrato
b = bend
p = pull-off
h = hammer-on
PM = Palm Mute

Intro/Verse Rhythm (0:00)Play palm muted while distorted and alternate fairly quickly
e|--------------------------------------------------------------------------|
B|--------------------------------------------------------------------------|
G|-7-7-6-6-7-7-6-6----------------------------------------------------------|
D|-4-4-4-4-4-4-4-4----------------------------------------------------------|
A|--------------------------------------------------------------------------|
D|--------------------------------------------------------------------------|


Intro/Verse Lead (0:12)(0:23)
e|--------------------------------------------------------------------------|
B|-<12>----<7>----------<7>-------------------------------------------------|
G|------------<7>----<5>----------------------------------------------------|
D|--------------------------------------------------------------------------|
A|--------------------------------------------------------------------------|
D|--------------------------------------------------------------------------|

Lead Clean Chord (0:20)
e|-7------------------------------------------------------------------------|
B|-7------------------------------------------------------------------------|
G|-9------------------------------------------------------------------------|
D|-9------------------------------------------------------------------------|
A|-7------------------------------------------------------------------------|
D|--------------------------------------------------------------------------|

Rhythm Pre-Chorus (0:33) Same B Power Chord just different locations/levels of heavy
e|--------------------------------------------------------------------------|
B|--------------------------------------------------------------------------|
G|-4------------------------------------------------------------------------|
D|-4----OR----9-------------------------------------------------------------|
A|-2----------9-------------------------------------------------------------|
D|------------9-------------------------------------------------------------|

Lead Pre-Chorus (0:33) Start palm-muted and "un-mute" as you play. I add pinch 
harmonics to the last two notes before the chorus.
e|--------------------------------------------------------------------------|
B|--------------------------------------------------------------------------|
G|--------------------------------------------------------------------------|
D|--------------------------------------------------------------------------|
A|-2-4-5-2-4-5-2-4-5-2-4-5--------------------------------------------------|
D|--------------------------------------------------------------------------|

Chorus Part A (0:36)(0:47) I like to mix both B Power chord variations in.
You can use either B power chord like in the pre-chorus.
e|--------------------------------------------------------------------------|
B|-----------3-3-3----------------------------------------------------------|
G|-----------2-2-2----------------------------------------------------------|
D|-9-0--0--0-0-0-0--2-2-x-2--------2----------------------------------------|
A|-9-0--0--0-0-0-0--2-2-x-2--5-4-2---5br------------------------------------|
D|-9-0--0--0-0-0-0--2-2-x-2-------------------------------------------------|

Chorus Part B (0:41)(0:53)
e|--------------------------------------------------------------------------|
B|-----------3-3-3----------------------------------------------------------|
G|-4-4-------2-2-2----------------------------------------------------------|
D|-4-4--0--0-0-0-0----------------------------------------------------------|
A|-2-2--0--0-0-0-0--55555555-77777777---------------------------------------|
D|------0--0-0-0-0--55555555-77777777---------------------------------------|

|UPDATE|
I Forgot to add this part when I originally submitted:
Post-Chorus (0:58)
e|--------------------------------------------------------------------------|
B|--------------------------------------------------------------------------|
G|--------------------------------------------------------------------------|
D|--------------------------------------------------------------------------|
A|-2-222-2-222-2-222-2-222-2-222-2-222-222-2-222-2-222-222-222-222----------|
D|--------------------------------------------------------------------------|
 PM---------------------------------------------------------------|

Repeat Verse
Repeat Chorus

Lead Bridge (1:49) Palm mute 7 and 9 (A and B)
e|--------------------------------------------------------------------------|
B|-7------------------------------------------------------------------------|
G|-7------------------------------------------------------------------------|
D|---7-9--------------------------------------------------------------------|
A|--------------------------------------------------------------------------|
D|--------------------------------------------------------------------------|
    PM--|

First Note of bridge solo (1:53) He plays with a lot of legato pretty quickly in a 
Bm scale box shape between
the 7th and 12th frets (with a slide from the 5th to the 7th in there).
You can improvise and sound pretty close.
e|--------------------------------------------------------------------------|
B|-10b----------------------------------------------------------------------|
G|--------------------------------------------------------------------------|
D|--------------------------------------------------------------------------|
A|--------------------------------------------------------------------------|
D|--------------------------------------------------------------------------|

Bridge Rhythm Part A (1:49) I feel like this isn't right but the notes are right.
e|--------------------------------------------------------------------------|
B|--------------------------------------------------------------------------|
G|--------------------------------------------------------------------------|
D|--------------------------------------------------------------------------|
A|--------------------------------------------------------------------------|
D|-0-0-9-0-0-7-0-0-9-0-0-7-0-0-7-9------------------------------------------|

Bridge Rhythm Part B (1:52) Still pretty close but I can't pinpoint it
e|--------------------------------------------------------------------------|
B|--------------------------------------------------------------------------|
G|--------------------------------------------------------------------------|
D|--------------------------------------------------------------------------|
A|--------------------------------------------------------------------------|
D|-0-0-9-0-0-7-7p0-5p0-4p0-2p0----------------------------------------------|

Break (2:00)
e|--------------------------------------------------------------------------|
B|-77-77--55--55------------------------------------------------------------|
G|-77-77--66--66------------------------------------------------------------|
D|-77-77--77--77------------------------------------------------------------|
A|-77-77--77--77------------------------------------------------------------|
D|--------------------------------------------------------------------------|

Solo (2:06) There is a video on youtube of Joe playing this solo on camera and 
that's the only reason
I don't think this solo starts on the 9th fret of the A string and runs from there.
I think it sounds just as good either way though.
e|--------------------------------------------------------------------------|
B|--------------------------------------------------------------------------|
G|------------------------------------------------9--9-11-9-11-12-11-12-----|
D|-------------5---5-7-5-7-9-7-9-11-9-11-12-11-12--12-----------------------|
A|-7-5-7-9-7-9---9----------------------------------------------------------|
D|--------------------------------------------------------------------------|

                                            first bend fast hold second bend
e|----------------------------------12--12-14-12-14-14br-12-14bh-14v--------|
B|-10--10-12-10-12-14-12-14-15-14-15--15------------------------------------|
G|---12---------------------------------------------------------------------|
D|--------------------------------------------------------------------------|
A|--------------------------------------------------------------------------|
D|--------------------------------------------------------------------------|

Repeat Chorus

Rhythm plays bridge
Lead tap (2:48) I don't know how to tab tapping technique properly but
hold frets 7 and 9 with your left hand
THEN tap fret 16 with your right hand
THEN pull-off fret 9.
Play increasingly faster.
e|--------------------------------------------------------------------------|
B|--------------------------------------------------------------------------|
G|-HOLD 7 AND 9-TAP16--9p7--------------------------------------------------|
D|--------------------------------------------------------------------------|
A|--------------------------------------------------------------------------|
D|--------------------------------------------------------------------------|

Lead ending lick (2:54) He plays this lick and then gets crazy again in the key of 
Bm between frets 15 and 24.
e|--------------------------------------------------------------------------|
B|-17bh-17p15-17-15v--------------------------------------------------------|
G|-------------------16h18-18v----------------------------------------------|
D|--------------------------------------------------------------------------|
A|--------------------------------------------------------------------------|
D|--------------------------------------------------------------------------|

If you have any corrections please post them for the benefit of everyone. Including myself.
Hopefully this tab was easier to read and understand than some of the others.
comments
We did not receive enough feedback on this tab! Please rate:
print report bad tab
1 2 3 4 5
1 comment total.
0 reply
LuchadorMetal wrote on July 16 2014, 01:27 pm, edited at 01:27 pm

.

I want to post or [tab]
guest
You may want to rate the tab now too:
select rating
Please do not post tabs as comments. Select "correction" instead!