Oops, an error
Loading. Please wait.

I Miss The Misery Bass Tab

ver2
ver2

Whole song

Interactive

More versions @911Tabs.com
608 views 1 this week
2 commentsread comments
1 2 3 4 5
please rate
Autoscroll
+/-
esc
set tempo
stop
Contributor
Difficulty
novice
WARNING: You are trying to view
                                    content from Ultimate-Guitar.com
                                    in an unauthorized application,
                                    which is prohibited.

                                    Please use an official Ultimate
                                    Guitar Tabs application for iPhone,
                                    iPad or Android to access legitimate
                                    chords, guitar, bass, and drum tabs
                                    from Ultimate-Guitar.com database.

                                    Type "ultimate guitar tabs" in Apple
                                    App Store's or Android Market's
                                    search to find the application.
-------------------------------------------------------------------------------
                             I Miss the Misery - Halestorm
-------------------------------------------------------------------------------
Tabbed by: Chris Sangpil Lee
E-mail: jhsp77@hotmail.com

Tuning: Standard 5 String

Intro: "ohh~"
G|------------------|------------------|------------------|------------------|
D|------------------|------------------|------------------|------------------|
A|------------------|-3-3-3------------|------------------|------------------|
E|-5-5-5------------|------------------|-3-3-3---3-3---3--|------------------|
B|------------------|------------------|------------------|---3-3-----6-6----|

G|------------------|------------------|------------------|------------------|
D|------------------|------------------|------------------|------------------|
A|------------------|-3-3-3------------|------------------|------------------|
E|-5-5-5------------|------------------|-3-3-3---3-3---3--|------------------|
B|------------------|------------------|------------------|---3-3-----6-6----|

Verse 1: "I've been a mess~"
G|------------------|------------------|------------------|------------------|
D|------------------|------------------|-5-5-5-5-5-5-5-5--|-5----------------|
A|------------------|---3-3-3-3-3-3-3--|------------------|---5-5-5-5-3-5-3--|
E|-5-5-5-5-5-5-5-5--|-5----------------|------------------|------------------|
B|------------------|------------------|------------------|------------------|

G|------------------|------------------|------------------|------------------|
D|------------------|------------------|-5-5-5-5-5-5-5-5--|-5----------------|
A|------------------|---3-3-3-3-3-3-3--|------------------|---5-5-5-5-7-8\---|
E|-5-5-5-5-5-5-5-5--|-5----------------|------------------|------------------|
B|------------------|------------------|------------------|------------------|

G|------------------|------------------|------------------|---------1211-----|
D|------------------|------------------|------------------|-------------10---|
A|------------------|---3-3-3-3-3-3-3--|------------------|------------------|
E|-5-5-5-5-5-5-5-5--|-5----------------|-3-3-3-3-3-3-3-3--|-3----------------|
B|------------------|------------------|------------------|---3-3-3----------|

G|------------------|------------------|------------------|------------------|
D|---7-107-107-107--|-107-107-107-107--|------------------|------------------|
A|-8----------------|------------------|---10--10--10--10-|-10101010---------|
E|------------------|------------------|-0---12--12--12---|---------12\------|
B|------------------|------------------|------------------|------------------|

Chorus: "I miss the bad~"
G|------------------|------------------|------------------|------------------|
D|------------------|------------------|------------------|------------------|
A|------------------|-3-3-3------------|------------------|------------------|
E|-5-5-5------------|------------------|-3-3-3---3-3---3--|------------------|
B|------------------|------------------|------------------|---3-3-----6-6----|

G|------------------|------------------|------------------|------------------|
D|------------------|------------------|------------------|------------------|
A|------------------|-3-3-3------------|------------------|------------------|
E|-5-5-5------------|------------------|-3-3-3---3-3---3--|------------------|
B|------------------|------------------|------------------|---3-3-----6-6----|

G|------------------|------------------|------------------|------------------|
D|------------------|------------------|------------------|------------------|
A|------------------|---3-3---3---3----|------------------|------------------|
E|-5---5---5---5-5--|------------------|-3---3---3---3-3--|------------------|
B|------------------|------------------|------------------|---3-3-----5-6-5--|

G|------------------|------------------|------------------|------------------|
D|------------------|------------------|------------------|------------------|
A|------------------|------------------|------------------|------------------|
E|------------------|------------------|------------------|-3----------------|
B|-6---6---6---6-6--|-6-6-6---6---6----|-5---5---5---5-5--|------------------|

G|------------------|------------------|------------------|------------------|
D|------------------|------------------|------------------|------------------|
A|------------------|-3-3-3------------|------------------|------------------|
E|-5-5-5------------|------------------|-3-3-3---3-3---3--|------------------|
B|------------------|------------------|------------------|---3-3-----6-6----|

Verse 2: "I've tried but~"
G|------------------|------------------|------------------|------------------|
D|------------------|------------------|-5-5-5-5-5-5-5-5--|-5----------------|
A|------------------|---3-3-3-3-3-3-3--|------------------|---5-5-5-5-3-5-3--|
E|-5-5-5-5-5-5-5-5--|-5----------------|------------------|------------------|
B|------------------|------------------|------------------|------------------|

G|------------------|------------------|------------------|------------------|
D|------------------|------------------|-5-5-5-5-5-5-5-5--|-5----------------|
A|------------------|---3-3-3-3-3-3-3--|------------------|---5-5-5-5-7-8\---|
E|-5-5-5-5-5-5-5-5--|-5----------------|------------------|------------------|
B|------------------|------------------|------------------|------------------|

G|------------------|------------------|------------------|------------------|
D|------------------|------------------|------------------|-----------7-8-7--|
A|------------------|---3-3-3-3-3-3-3--|------------------|------------------|
E|-5-5-5-5-5-5-5-5--|-5----------------|-3-3-3-3-3-3-3-3--|-3----------------|
B|------------------|------------------|------------------|---3-3-3----------|

G|------------------|------------------|------------------|------------------|
D|---7-107-107-107--|-107-107-107-107--|------------------|------------------|
A|-8----------------|------------------|---10--10--10--10-|-10101010---------|
E|------------------|------------------|-0---12--12--12---|---------12\-12\--|
B|------------------|------------------|------------------|------------------|

Chorus: "Miss the bad~"
G|------------------|------------------|------------------|------------------|
D|------------------|------------------|------------------|------------------|
A|------------------|-3-3-3------------|------------------|------------------|
E|-5-5-5------------|------------------|-3-3-3---3-3---3--|------------------|
B|------------------|------------------|------------------|---3-3-----6-6----|

G|------------------|------------------|------------------|------------------|
D|------------------|------------------|------------------|------------------|
A|------------------|-3-3-3------------|------------------|------------------|
E|-5-5-5------------|------------------|-3-3-3---3-3---3--|------------------|
B|------------------|------------------|------------------|---3-3-----6-6----|

G|------------------|------------------|------------------|------------------|
D|------------------|------------------|------------------|------------------|
A|------------------|---3-3---3-3-3-3--|------------------|------------------|
E|-5---5---5---5-5--|------------------|-3---3---3---3-3--|------------------|
B|------------------|------------------|------------------|---3-3-----5-6-5--|

G|------------------|------------------|------------------|------------------|
D|------------------|------------------|------------------|------------------|
A|------------------|------------------|------------------|------------------|
E|------------------|------------------|------------------|-3-3-3-3-3-3-3-3--|
B|-6---6---6---6-6--|-6-6-6---6-6-6-6--|-5-5-5-5-5-5-5-5--|------------------|

Bridge: "Just know that~"
G|------------------|------------------|------------------|---------12-------|
D|------------------|------------------|---------11-------|-14----------14---|
A|------------------|------------------|-0---12------12---|-----12-----------|
E|-1---1---1---1----|-1---1---3---3----|------------------|------------------|
B|------------------|------------------|------------------|------------------|

G|------------------|------------------|------------------|------------------|
D|------------------|------------------|---------11-------|-1414----1414-----|
A|------------------|------------------|-0---12------1112-|-----1112----11---|
E|-1---1---1---1----|-1---1---3---3----|------------------|------------------|
B|------------------|------------------|------------------|------------------|

G|------------------|------------------|------------------|------------------|
D|------------------|------------------|------------------|------------------|
A|------------------|------------------|---------2-2-2-2--|-3---3------------|
E|-1---1---1-1-1-1--|-1---1---3-3-3-3--|-5---5------------|---------3-3-3-3--|
B|------------------|------------------|------------------|------------------|

G|------------------|------------------|------------------|------------------|
D|------------------|------------------|------------------|------------------|
A|------------------|------------------|------------------|------------------|
E|-1---1---1-1-1-1--|-1---1---1-1-1-1--|------------------|-3----------------|
B|------------------|------------------|-5-5-5-5-5-5-5-5--|------------------|

Rest for 5 Bars (Piano + Drum Fill in)

Chorus: "I miss the rough~"
G|------------------|------------------|------------------|------------------|
D|------------------|------------------|------------------|------------------|
A|------------------|-3-3-3------------|------------------|------------------|
E|-5-5-5------------|------------------|-3-3-3---3-3---3--|------------------|
B|------------------|------------------|------------------|---3-3-----6-6----|

G|------------------|------------------|------------------|------------------|
D|------------------|------------------|------------------|------------------|
A|------------------|-3-3-3------------|------------------|------------------|
E|-5-5-5------------|------------------|-3-3-3-3-3-3-3-3--|-3----------------|
B|------------------|------------------|------------------|---3-3-3-3-6-6-6--|

G|------------------|------------------|------------------|------------------|
D|------------------|------------------|------------------|------------------|
A|------------------|---3-3---3-3-3-3--|------------------|------------------|
E|-5---5---5---5-5--|------------------|-3---3---3---3-3--|------------------|
B|------------------|------------------|------------------|---3-3-----5-6-5--|

G|------------------|------------------|------------------|------------------|
D|------------------|------------------|------------------|------------------|
A|------------------|------------------|------------------|------------------|
E|------------------|------------------|------------------|-3---3---3---3----|
B|-6---6---6---6-6--|-6-6-6---6-6-6-6--|-5---5---5---5----|------------------|

Outro: "Ohh~"
G|------------------|------------------|------------------|------------------|
D|------------------|------------------|------------------|------------------|
A|------------------|------------------|------------------|------------------|
E|-5---5---5---5----|-3---3---5---3----|-2---2---2---2----|-1---1---3---3----|
B|------------------|------------------|------------------|------------------|

G|------------------|------------------|------------------|------------------|
D|------------------|------------------|------------------|------------------|
A|------------------|------------------|------------------|------------------|
E|-5---5---5---5----|-3---3---5---3----|-2---2---2---2----|------------------|
B|------------------|------------------|------------------|-6\---------------|


| /  slide up
| \  slide down
| h  hammer-on
| p  pull-off
| ~  vibrato
| +  harmonic
| x  Mute note
===============================================================================
comments
We did not receive enough feedback on this tab! Please rate:
print report bad tab
1 2 3 4 5
2 comments total.
0 reply
jhsp77 wrote on May 15 2013, 07:53 pm

Correction on 7th & 8th bars of the bridge

G|------------------|------------------|
D|---------11--1112-|-14141213141411---|
A|-0---12-----------|------------------|
E|------------------|------------------|
B|------------------|------------------|

0 reply
jhsp77 wrote on May 15 2013, 07:56 pm

*Discard previous correction

*Correction on 7th & 8th bars of the bridge

G|------------------|------------------|
D|---------11--1112-|-14141112141411---|
A|-0---12-----------|------------------|
E|------------------|------------------|
B|------------------|------------------|

I want to post or [tab]
guest
You may want to rate the tab now too:
select rating
Please do not post tabs as comments. Select "correction" instead!