Oops, an error
Loading. Please wait.

Mz Hyde Tab

ver1
ver1

Whole song

More versions @911Tabs.com
11,005 views 123 this week
3 commentsread comments
1 2 3 4 5
accurate
x 7
Autoscroll
+/-
esc
set tempo
stop
Contributor
Tuning
D A D G B E
WARNING: You are trying to view
                                    content from Ultimate-Guitar.com
                                    in an unauthorized application,
                                    which is prohibited.

                                    Please use an official Ultimate
                                    Guitar Tabs application for iPhone,
                                    iPad or Android to access legitimate
                                    chords, guitar, bass, and drum tabs
                                    from Ultimate-Guitar.com database.

                                    Type "ultimate guitar tabs" in Apple
                                    App Store's or Android Market's
                                    search to find the application.
Halestorm
Hz. Hyde
Drop D tuning

Once again I like to play the A string opens with the D string opens to make it sound heavier.

Tabbed by:
DethScarred of Youtube
DaveMustaine7 of UltimateGuitar

h = hammer on
v = vibrato
/s/ = slide

Intro
(0:14)
e|-----------|-----|----------------------------------|
b|-----------|-----|----------------------------------|
g|-----------|-----|----------------------------------|
D|-----------|-----|----------------------------------|
A|0-0-0h3h5--|-----|-88-7-----------------------------|
D|0-0-0h3h5--|[x3]-|-88-7-----------------------------|

(0:17)
e|-----------|-----|----------------------------------|
b|-----------|-----|----------------------------------|
g|-----------|-----|----------------------------------|
D|-----------|-----|----------------------------------|
A|0-0-0h3h5--|-----|----------------------------------|
D|0-0-0h3h5--|[x3]-|-0h3h5/s/7v-----------------------|

Verse
(0:21)
e|--------------------------------------------------|
b|--------------------------------------------------|
g|--------------------------------------------------|
D|--------------------------------------------------|
A|00-033-388-877-700--------------------------------|
D|00-033-388-877-700--------------------------------|

(0:25)
e|--------------------------------------------------|
b|--------------------------------------------------|
g|--------------------------------------------------|
D|--------------------------------------------------|
A|00-033-388-873------------------------------------|
D|00-033-388-873------------------------------------|

Pre-Chorus Part A (slowly tremelo pick these)
(0:41)
e|--------------------------------------------------|
b|--------------------------------------------------|
g|--------------------------------------------------|
D|--------------------------------------------------|
A|--------------------------------------------------|
D|000000-333333-222222-111111-----------------------|

Pre-Chorus Part B
(0:48)
e|--------------------------------------------------|
b|--------------------------------------------------|
g|--------------------------------------------------|
D|--------------------------------------------------|
A|88888888-7----------------------------------------|
D|88888888-7----------------------------------------|

Chorus
(0:52)
e|--------------------------------------------------|
b|--------------------------------------------------|
g|--------------------------------------------------|
D|--------------------------------------------------|
A|0000-3333-8888-7777-0000-3333-8-5-7-3-------------|
D|0000-3333-8888-7777-0000-3333-8-5-7-3-------------|

Play Pre-Chorus Part B
Play Intro
Back to Verse

(1:58)
e|--------------------------------------------------|
b|--------------------------------------------------|
g|--------------------------------------------------|
D|--------------------------------------------------|
A|88888888-77777777---------------------------------|
D|88888888-77777777---------------------------------|

Interlude (There may very well be another chord being arpeggio-ated but I can't pick out 
something that sounds good with the song)
(2:01)
e|--------------------------------------------------|
b|--------------------------------------------------|
g|--7-----------------------------------------------|
D|-5-5----------------------------------------------|
A|5-------------------------------------------------|
D|--------------------------------------------------|

(2:31)
e|--------------------------------------------------|
b|--------------------------------------------------|
g|7-------------------------------------------------|
D|5-------------------------------------------------|
A|5-------------------------------------------------|
D|--------------------------------------------------|

Play Chorus
(3:04) Play Pre-Chorus Part B
(3:08) Play Intro

Another song that was good practice to learn by ear. Hope it helps.
comments
print report bad tab
3 comments total.
0 reply
BexNirvanaGirl wrote on February 6 2013, 10:46 am

Awesome tab, but I think the "better beware.." part goes..
D]7-5--3-2--
A]5-3--1-0--

0 reply
DaveMustaine7 wrote on September 15 2013, 08:28 pm

7- -3-2-
5- -1-0-

Those are the same chords as I have tabbed out just played in a different spot

5 3
3 vs 3

This is a C power chord vs a G power chord

I can't tell by ear which one is right but they are very close to the same thing. Play whatever one sounds better to you because they both fit in the same scale with the rest of the song. Yours can add some variation to the rhythm in the song.

+1 reply
fanA7X6661 wrote on February 5 2014, 02:16 pm

Good tab! I have a cover on Youtube. One thing that I did wrong and I noticed you did it too (it's very minor) is the slide at the intro, the
D---0h3h5/s/7v-- should actually be a slide to 6 D---0h3h5/s/6v
Very minor but that's how they play it live.
Also, at the bridge, you have the first arpeggio right, but the bass note goes down chromatically from there. I play it
e|-------------------------------------------------------------|
b|------3-----------3---------3----------3---------------3-----|
g|----2----2------2---2-----2---2-------2--2-----------2---2---|
D|--0----------------------------------------------------------|
A|-------------4---------3-----------2--(last time)-1----------|
D|-------------------------------------------------------------|
One last thing, the "Something scary" chords end on an Eb, 1's instead of the 3's. I give it 4 stars.

I want to post or [tab]
guest
You may want to rate the tab now too:
select rating
Please do not post tabs as comments. Select "correction" instead!