Oops, an error
Loading. Please wait.

Banshee Tab

19 views 1 this week
no commentswrite comment
1 2 3 4 5
please rate
Autoscroll
+/-
esc
set tempo
stop
Contributor
Difficulty
Tuning
advanced
C G C F A D
Hey! There's an official Ultimate Guitar app which is ideal
for learning songs when you're away from computer. Get the app
WARNING: You are trying to view
                                    content from Ultimate-Guitar.com
                                    in an unauthorized application,
                                    which is prohibited.

                                    Please use an official Ultimate
                                    Guitar Tabs application for iPhone,
                                    iPad or Android to access legitimate
                                    chords, guitar, bass, and drum tabs
                                    from Ultimate-Guitar.com database.

                                    Type "ultimate guitar tabs" in Apple
                                    App Store's or Android Market's
                                    search to find the application.
     c|---------|---------|-----------------|
     G|---------|---------|-----------------|
GTR Eb|-----2h3-|-----2h3-|-----2h3-5-3-2---|
 1  Bb|-1-3-----|-0-3-----|-0-3-----------3-|
     F|---------|---------|-----------------|
     C|--- x4 --|--- x2---|-----------------|

     c|-------------------------------------|
     G|-------------------------------------|
GTR Eb|-3---------2---------3----2----------|
 2  Bb|-------------------------------3-----|
     F|-------------------------------------|
     C|-------------------------------------|

     c|---------|---------|-----------------|
     G|---------|---------|-----------------|
GTR Eb|-----2h3-|-----2h3-|-----2h3-5-3-2---|
 1  Bb|-1-3-----|-0-3-----|-0-3-----------3-|
     F|---------|---------|-----------------|
     C|--- x4 --|--- x2---|-----------------|

     c|-------------------------------------|
     G|-------------------------------------|
GTR Eb|-3---/5----2---------3---2-------2---|
 2  Bb|-----------------------------3-------|
     F|-------------------------------------|
     C|-------------------------------------|

     c|---------|---------|-----------------|
     G|---------|---------|-----------------|
GTR Eb|-----2h3-|-----2h3-|-----2h3-5-3-2---|
 1  Bb|-1-3-----|-0-3-----|-0-3-----------3-| 1,3
     F|---------|---------|-----------------|
     C|--- x4 --|--- x2---|-----------------|

     c|-------------------------------------|
     G|-------------------------------------|
GTR Eb|-------------------------------------|
 2  Bb|-1111111111111111-555555555555555-88-| 1,3
     F|-------------------------------------|
     C|-------------------------------------|

     c|---------|---------|-----------------|
     G|---------|---------|-----------------|
GTR Eb|-----2h3-|-----2h3-|-----2h3-5-3-2---|
 1  Bb|-1-3-----|-0-3-----|-0-3-----------3-| 2,4
     F|---------|---------|-----------------|
     C|--- x4 --|--- x2---|-----------------|

     c|-------------------------------------|
     G|-------------------------------------|
GTR Eb|-------------------------------------|
 2  Bb|-1111111111111111-5555555555555-8888-| 2,4
     F|-------------------------------------|
     C|-------------------------------------|

     c|----------------------------------------------------------------|
     G|----------------------------------------------------------------|
GTR Eb|--------------------------------------------------------3-2-0---|
 1  Bb|-1-1-----1-1-----3-----8----5-5-----5-5-----3-2-0-1-0---------0-| x4
     F|-1-1-111-1-1-111----6-----5-5-5-555-5-5-555-----------3---------|
     C|-1-1-111-1-1-111------------5-5-555-5-5-555---------------------|
            P M     P M                P M     P M 

     c|-----------------------------------------------------------------|
     G|-----------------------------------------------------------------|
GTR Eb|-----------------------------------------------------------------|
 2  Bb|-1-1-----1-1-----1-1-----1-1-----5-5-----5-5-----5-5-----5-5-----| x4
     F|-1-1-111-1-1-111-1-1-111-1-1-111-5-5-555-5-5-555-5-5-555-5-5-555-|
     C|-1-1-111-1-1-111-1-1-111-1-1-111-5-5-555-5-5-555-5-5-555-5-5-555-|
            P M     P M     P M     P M     P M     P M     P M     P M

     c|----------|
     G|----------|
GTR Eb|----------|
1+2 Bb|-1--------|
     F|----------|
     C|----------|

     c|-----------------------|
     G|-----------------------|
GTR Eb|-----------------------|
1+2 Bb|-1---------------------|
     F|-0---------------------|
     C|-0---------------------|

------------------------------------------------------

     c|---------------------------|
     G|---------------------------|
GTR Eb|---------------------------|
 1  Bb|---------------------------|
     F|---5p4p0-4---5p4p0-4-111-1-|
     C|-8---------8---------000-0-|

     c|---------------------------|
     G|---------------------------|
GTR Eb|---------------------------|
 1  Bb|---------------------------| x2
     F|---5p4p0-4---5p4p0-4-111-1-|
     C|-8---------8---------000-0-|
                            P MPM

     c|---------------------------|
     G|---------------------------|
GTR Eb|---------------------------|
 2  Bb|---5p4p0-4---5p4p0-4-------| x2
     F|-6---------6---------111-1-|
     C|---------------------000-0-|
                            P MPM

     c|-----------------------------------------------------------|
     G|-----------------------------------------------------------|
GTR Eb|-----------------------------------5---------------5-------|
1+2 Bb|----8p7----7-----8p7----7--8-7-5h7---8-5h7-8-7-5h7---8-5h7-|
     F|-10-----10----10-----10------------------------------------|
     C|-----------------------------------------------------------|

     c|-------------------|
     G|-------------------|
GTR Eb|-------------------|
1+2 Bb|-------------------|
     F|-0--0--1--3--4--3--|
     C|-0--0--0--0--0--0--|
        P  M  P  M  P  M

Play section x3
-----------------------------------------------------------
        
     c|--------------------------|
     G|--------------------------|
GTR Eb|-7----5----7--9--10--5----|
 1  Bb|--------------------------| x2
     F|--------------------------|
     C|--------------------------|

     c|--------------------------|
     G|-6----5----6--8--10--5----|
GTR Eb|--------------------------|
 2  Bb|--------------------------| x2
     F|--------------------------|
     C|--------------------------|

     c|-------------------------------------------------|
     G|-------------------------------------------------|
GTR Eb|-------------------------------------------------|
 1  Bb|-3-2-0-5-3-2-3-2-0-5-3-2-3-2-0-5-3-2-3-2-0-5-3-2-|
     F|-------------------------------------------------|
     C|-------------------------------------------------|

     c|---------------------------------|
     G|---------------------------------|
GTR Eb|---------------------------------|
 2  Bb|-8-8-----8-8-----8-8-----8-8-----|
     F|-8-8-888-8-8-888-8-8-888-8-8-888-|
     C|-8-8-888-8-8-888-8-8-888-8-8-888-|
            P M     P M     P M     P M 

     c|-------------------------------------------------------------------|
     G|-------------------------------------------------------------------|
GTR Eb|-10p9p7-10p9p7-12p10p9-12p10p9-14p12p10-14p12p10-15p14p12-15p14p12-|
 1  Bb|-------------------------------------------------------------------|
     F|-------------------------------------------------------------------|
     C|-------------------------------------------------------------------|

     c|---------------------------------|
     G|---------------------------------|
GTR Eb|---------------------------------|
 2  Bb|-7-7-----7-7-----7-7-----7-7-----|
     F|-7-7-777-7-7-777-7-7-777-7-7-777-|
     C|-7-7-777-7-7-777-7-7-777-7-7-777-|
        P M     P M     P M     P M

     c|-----------------------------------------------------------------|
     G|-----------------------------------------------------------------|
GTR Eb|-----------------------------------------------------------------|
 2  Bb|-8-8-----8-8-----8-8-----8-8-----7-7-----7-7-----7-7-----7-7-----|
     F|-8-8-888-8-8-888-8-8-888-8-8-888-7-7-777-7-7-777-7-7-777-7-7-777-|
     C|-8-8-888-8-8-888-8-8-888-8-8-888-7-7-777-7-7-777-7-7-777-7-7-777-|
            P M     P M     P M     P M     P M     P M     P M     P M

     c|---------------------------------------------------|
     G|---------------------------------------------------|
GTR Eb|-12-10-10--9-9-10-9----121212-10101010-999-10-9----|
 1  Bb|--------------------10--------------------------10-|
     F|---------------------------------------------------|
     C|---------------------------------------------------|

     c|-----------------------------------------------------------------|
     G|-----------------------------------------------------------------|
GTR Eb|-----------------------------------------------------------------|
 2  Bb|-8-8-----8-8-----8-8-----8-8-----7-7-----7-7-----7-7-----7-7-----|
     F|-8-8-888-8-8-888-8-8-888-8-8-888-7-7-777-7-7-777-7-7-777-7-7-777-|
     C|-8-8-888-8-8-888-8-8-888-8-8-888-7-7-777-7-7-777-7-7-777-7-7-777-|
            P M     P M     P M     P M     P M     P M     P M     P M

     c|------------------------------------------------|
     G|------------------------------------------------|
GTR Eb|------------------------------------------------|
 1  Bb|-1212-1010-88-7------121212-10101010-888-7------|
     F|----------------10-8-----------------------10-8-|
     C|------------------------------------------------|

     c|-----------------------------------------------------------------|
     G|-----------------------------------------------------------------|
GTR Eb|-----------------------------------------------------------------|
 2  Bb|-8-8-----8-8-----8-8-----8-8-----7-7-----7-7-----7-7-----7-7-----|
     F|-8-8-888-8-8-888-8-8-888-8-8-888-7-7-777-7-7-777-7-7-777-7-7-777-|
     C|-8-8-888-8-8-888-8-8-888-8-8-888-7-7-777-7-7-777-7-7-777-7-7-777-|
            P M     P M     P M     P M     P M     P M     P M     P M

     c|-------------|
     G|-------------|
GTR Eb|-------------|
 1  Bb|-3p2p0-5p3p2-| x8
     F|-------------|
     C|-------------|

     c|-----------------------------------------------------------------|
     G|-----------------------------------------------------------------|
GTR Eb|-----------------------------------------------------------------|
 2  Bb|-8-8-----8-8-----8-8-----8-8-----7-7-----7-7-----7-7-----7-7-----|
     F|-8-8-888-8-8-888-8-8-888-8-8-888-7-7-777-7-7-777-7-7-777-7-7-777-|
     C|-8-8-888-8-8-888-8-8-888-8-8-888-7-7-777-7-7-777-7-7-777-7-7-777-|
            P M     P M     P M     P M     P M     P M     P M     P M

     c|---------------------------------|
     G|---------------------------------|
GTR Eb|---------------------------------|
1+2 Bb|---------------------------------| X4
     F|-0000-00-------------------------|
     C|-0000-00-8p7p0-7p5p0-5p3p0-3p2p0-|
        PMPM PM

     c|---------------------------------|
     G|---------------------------------|
GTR Eb|---------------------------------|
 1  Bb|---------------------------------| 
     F|-0000-00-------------------------|
     C|-0000-00-8p7p0-7p5p0-5p3p0-3p2p0-|
        PMPM PM

     c|---------------------------------|
     G|---------------------------------|
GTR Eb|---------------------------------|
 2  Bb|-7-------------------------------|
     F|---------------------------------|
     C|---------------------------------|


     c|---------------------------------|
     G|---------------------------------|
GTR Eb|---------------------------------|
 1  Bb|---------------------------------| 
     F|-0000-00-------------------------|
     C|-0000-00-8p7p0-7p5p0-5p3p0-3p2p0-|
        PMPM PM

     c|---------------------------------|
     G|---------------------------------|
GTR Eb|---------------------------------|
 2  Bb|-6-------------------------------|
     F|---------------6-----------------|
     C|---------------------------------|

     c|---------------------------------|
     G|---------------------------------|
GTR Eb|---------------------------------|
 1  Bb|---------------------------------| 
     F|-0000-00-------------------------|
     C|-0000-00-8p7p0-7p5p0-5p3p0-3p2p0-|
        PMPM PM

     c|---------------------------------|
     G|---------------------------------|
GTR Eb|---------------------------------|
 2  Bb|-0-------------------------------|
     F|-0-------------------------------|
     C|-0-------------------------------|

     c|---------------------------------|
     G|---------------------------------|
GTR Eb|---------------------------------|
 1  Bb|---------------------------------| 
     F|-0000-00-------------------------|
     C|-0000-00-8p7p0-7p5p0-5p3p0-3p2p0-|
        PMPM PM

     c|---------------------------------|
     G|---------------------------------|
GTR Eb|---------------------------------|
 2  Bb|-(0)-----------------------------|
     F|-(0)-----------------------------|
     C|-(0)-----------------------------|

     c|---------------------------------|
     G|---------------------------------|
GTR Eb|---------------------------------|
 1  Bb|---------------------------------| 
     F|-0000-00-------------------------|
     C|-0000-00-8p7p0-7p5p0-5p3p0-3p2p0-|
        PMPM PM

     c|---------------------------------|
     G|---------------------------------|
GTR Eb|---------------------------------|
 2  Bb|-7-------------------------------|
     F|---------------------------------|
     C|---------------------------------|


     c|---------------------------------|
     G|---------------------------------|
GTR Eb|---------------------------------|
 1  Bb|---------------------------------| 
     F|-0000-00-------------------------|
     C|-0000-00-8p7p0-7p5p0-5p3p0-3p2p0-|
        PMPM PM

     c|---------------------------------|
     G|---------------------------------|
GTR Eb|---------------------------------|
 2  Bb|-6-------------------------------|
     F|---------------6-----------------|
     C|---------------------------------|

     c|---------------------------------|
     G|---------------------------------|
GTR Eb|---------------------------------|
 1  Bb|---------------------------------| 
     F|-0000-00-------------------------|
     C|-0000-00-8p7p0-7p5p0-5p3p0-3p2p0-|
        PMPM PM

     c|---------------------------------|
     G|---------------------------------|
GTR Eb|---------------------------------|
 2  Bb|---------------------------------|
     F|-5h6p5---------------------------|
     C|---------------------------------|


     c|---------------------------------|
     G|---------------------------------|
GTR Eb|---------------------------------|
 1  Bb|---------------------------------| 
     F|-0000-00-------------------------|
     C|-0000-00-8p7p0-7p5p0-5p3p0-3p2p0-|
        PMPM PM

     c|---------------------------------|
     G|---------------------------------|
GTR Eb|---------------------------------|
 2  Bb|---------------------------------|
     F|-(5)-----------------------------|
     C|---------------------------------|

     c|---------------------------------|
     G|---------------------------------|
GTR Eb|---------------------------------|
 1  Bb|---------------------------------| 
     F|-7-------------------------------|
     C|---------------------------------|

     c|---------------------------------|
     G|---------------------------------|
GTR Eb|---------------------------------|
 2  Bb|-7-------------------------------|
     F|---------------------------------|
     C|---------------------------------|

     c|---------------------------------|
     G|---------------------------------|
GTR Eb|---------------------------------|
 1  Bb|---------------------------------| 
     F|-6-------------------------------|
     C|---------------8-----------------|

     c|---------------------------------|
     G|---------------------------------|
GTR Eb|---------------------------------|
 2  Bb|-6-------------------------------|
     F|---------------6-----------------|
     C|---------------------------------|

     c|---------------------------------|
     G|---------------------------------|
GTR Eb|---------------------------------|
 1  Bb|---------------------------------| 
     F|---------------------------------|
     C|-7h8p7---------------------------|

     c|---------------------------------|
     G|---------------------------------|
GTR Eb|---------------------------------|
 2  Bb|---------------------------------|
     F|-5h6p5---------------------------|
     C|---------------------------------|

     c|---------------------------------|
     G|---------------------------------|
GTR Eb|---------------------------------|
 1  Bb|---------------------------------| 
     F|---------------------------------|
     C|-(7)-----------------------------|

     c|---------------------------------|
     G|---------------------------------|
GTR Eb|---------------------------------|
 2  Bb|---------------------------------|
     F|-(5)-----------------------------|
     C|---------------------------------|

     c|-------------------------------------------|
     G|-------------------------------------------|
GTR Eb|-------------------------------------------|
 1  Bb|-----6/7\6-------3-2-5-0-------------------|
     F|-0-0-5/6\5-0-0-0---------0-0-0-7/8\7-------|
     C|-0-0-------0-0-0---------0-0-0-8/9\8-------|
        P M       PMP M         PMP M

     c|-----------------------------------------------|
     G|-----------------------------------------------|
GTR Eb|-----------------------------------------------|
 1  Bb|-----6/7\6-----0-3-2-----------------3-2-------| x4
     F|-0-0-5/6\5-0-0-------3-0-0-0-7/8\7-1-----3-0-3-|
     C|-0-0-------0-0---------0-0-0-8/9\8-------------|
        P M       P M         PMP M       P M P M P M

     c|-----------------------------------------------|
     G|-----------------------------------------------|
GTR Eb|---------------0-3-2---------------------------|
 2  Bb|-----6/7\6-----------3----------------3-2------| x4
     F|-0-0-5/6\5-0-0---------0-0-0-7/8\7-1-----3-0-3-|
     C|-0-0-------0-0---------0-0-0-8/9\8-------------|
        P M       P M         PMP M       P M P M P M

     c|-----------------------------------------------|
     G|-----------------------------------------------|
GTR Eb|-----------------------------------------------|
1+2 Bb|-0---------------------------------------------|
     F|-0---------------------------------------------|
     C|-0---------------------------------------------|
comments
We did not receive enough feedback on this tab! Please rate:
print report bad tab
1 2 3 4 5
I want to post or [tab]
guest
You may want to rate the tab now too:
select rating
Please do not post tabs as comments. Select "correction" instead!