Oops, an error
Loading. Please wait.

So Much To Say Tab

54 views 1 this week
no commentswrite comment
1 2 3 4 5
please rate
Autoscroll
+/-
esc
set tempo
stop
Contributor
Difficulty
Tuning
advanced
C G C F A D
WARNING: You are trying to view
                                    content from Ultimate-Guitar.com
                                    in an unauthorized application,
                                    which is prohibited.

                                    Please use an official Ultimate
                                    Guitar Tabs application for iPhone,
                                    iPad or Android to access legitimate
                                    chords, guitar, bass, and drum tabs
                                    from Ultimate-Guitar.com database.

                                    Type "ultimate guitar tabs" in Apple
                                    App Store's or Android Market's
                                    search to find the application.
http://www.myspace.com/hamartiasg
   
    D|----------------|---------------|
    A|----------------|---------------|
GTR F|-----10p8p7-8-7-|-----8p7p5-7-7-|   
1+2 C|-8-8------------|-5-5-----------|           
    G|----------------|---------------|
    C|------ x2 ------|----- x2 ------|

    D|---------------|-----------------------------|
    A|---------------|-----------------------------|
GTR F|---------------|-----------------------------|    
1+2 C|-----8p7p5-8-7-|-----8-7-5-7-7-7/8-8 7/10-10-|              
    G|-5-5-----------|-8-8-------------------------|
    C|----- x2 ------|-----------------------------|

    D|------------------------------------------|
    A|----------------------------------8-10-11-|
GTR F|-----10p8p7-8-7------------7-8-10---------|    
1+2 C|-8-8------------8-8-7-8-10----------------|              
    G|------------------------------------------|
    C|------------------------------------------|

    D|---------------------------------------------|
    A|------------------------------------11-13-15-|
GTR F|-----8p7p5-7-7-------5-7-8-10-12-14----------|    
1+2 C|-5-5-----------5-7-8-------------------------|              
    G|---------------------------------------------|
    C|---------------------------------------------|

    D|---------------------------------------|
    A|---------------------------------------|
GTR F|---------------------------------------|    
1+2 C|-----8p7p5-8-7-8p7p5-------------------|              
    G|-5-5-----------------8p7p5-5p3p1-------|
    C|---------------------------------5p3p1-|

    D|--------------------------------|
    A|--------------------------------|
GTR F|--------------------------------|    
1+2 C|-----8-7-5-7-7-7/8-8-7/10-10----|              
    G|-8-8----------------------------|
    C|--------------------------------|

    D|-------------------------------------------------------|
    A|-------------------------------------------------------|
GTR F|-------------------------------------------------------|    
1+2 C|-1212121212121212--------------------------------------|              
    G|-------------------------------------88-77-888888------|
    C|------------------1010-88-1010-88888--------------1010-|


    D|-----------------------------------------------|
    A|-----------------------------------------------|
GTR F|-----------------------------------------------|    
 1  C|-00000-------------------33333-----------------|              
    G|-------00000-11111-33333-----------------------|
    C|-------------------------------333333333333333-|

    D|-----------------------------------------------|
    A|--------------------------6666-----------------|
GTR F|-------22222-33333-555555---------------555555-|    
 2  C|-------------------------------33333333--------|              
    G|-----------------------------------------------|
    C|-----------------------------------------------|


    D|-------|-------|-------|-------|
    A|-------|-------|-------|-------|
GTR F|-------|-------|-------|-------|    
 1  C|-------|-------|-------|-------|              
    G|-77777-|-55555-|-33333-|-55555-|
    C|-- x4 -|- x4 --|- x4 --|- x4 --|


    D|-- x4 -|- x4 --|- x4 --|- x4 --|
    A|-------|-------|-------|-------|
GTR F|-------|-------|-------|-------|    
1+2 C|-------|-------|-------|-------|              
    G|-7p5p3-|-5p3p2-|-3p1p0-|-5p3p2-|
    C|-------|-------|-------|-------|

    D|--------------------------------|
    A|--------------------------------|
GTR F|--------------------------------|    
 1  C|-7-7-7-5-7-------7-------5------|              
    G|-7-7-7-5-7-8-7-5----------------|
    C|-7-7-7-5-7---------5-3-2--------|

    D|-------------------------------|
    A|-------------------------------|
GTR F|-----------10-10-10-10-9-9-7-7-|    
 2  C|-7-7-7-5-7---------------------|              
    G|-7-7-7-5-7-8--8--8---8-7-7-5-5-|
    C|-7-7-7-5-7---------------------|

    D|-----------------------------|
    A|-----------------------------|
GTR F|-----------------------------|    
1+2 C|-7-7-7-7-------2-2-2-2-------|              
    G|-7-7-7-7-5h7h8-2-2-2-2-2h3h5-|
    C|-7-7-7-7-------2-2-2-2-------|

    D|-----------------------------|
    A|-----------------------------|
GTR F|-----------------------------|    
1+2 C|-3-3-3-3-2h3h5-5-5-5---------|              
    G|-3-3-3-3-------5-5-5-5h7p5-3-|
    C|-3-3-3-3-------5-5-5---------|


    D|--------------------------------|
    A|--------------------------------|
GTR F|--------------------------------|    
 1  C|-7-7-7-5-7-------7-------5------|              
    G|-7-7-7-5-7-8-7-5----------------|
    C|-7-7-7-5-7---------5-3-2--------|

    D|-------------------------------|
    A|-------------------------------|
GTR F|-----------10-10-10-10-9-9-7-7-|    
 2  C|-7-7-7-5-7---------------------|              
    G|-7-7-7-5-7-8--8--8---8-7-7-5-5-|
    C|-7-7-7-5-7---------------------|

    D|---------------------|-------------------|
    A|---------------------|-11-11-11-10-10-10-|
GTR F|---------8-8-8-7-7-7-|-------------------|    
1+2 C|-5-5-3-5-------------|-8--8--8--7--7--7--|              
    G|-5-5-3-5-6-6-6-5-5-5-|-------------------|
    C|-5-5-3-5-------------|-------------------|

    D|-------------------------------------------------|
    A|-------------------------------------------------|
GTR F|-3333-5555---------------3333-7777---------------|    
1+2 C|-----------7-7-7-5-8-8-8-----------7-7-7-5-8-8-8-|              
    G|-----------7-7-7-5-8-8-8-----------7-7-7-5-8-8-8-|
    C|-----------7-7-7-5-8-8-8-----------7-7-7-5-8-8-8-|

    D|-------------------------|
    A|-------------------------|
GTR F|-------------------------|    
1+2 C|-------------------------|              
    G|-0-0-0-0-0-0-0-0-0-0-0-0-|
    C|-0-0-0-0-0-0-0-0-0-0-0-0-|
       P M P M P M P M P M P M


    D|---------------------------------------------------|
    A|-10-8-6-10-8-6-------------------------------------|
GTR F|---------------9-7-5-9-7-5-------2h3p0-------2h3p0-| 1,3,5   
1+2 C|---------------------------------------------------|              
    G|---------------------------0-0-0-------0-0-0-------|
    C|---------------------------0-0-0-------0-0-0-------|
                                 P M PM      P M PM

    D|---------------------------------------------------|
    A|-10-8-6-10-8-6-------------------------------------|
GTR F|---------------9-7-5-9-7-5-------2h3p0-------2h3p0-| 2    
 1  C|---------------------------------------------------|              
    G|---------------------------0-0-0-------0-0-0-------|
    C|---------------------------0-0-0-------0-0-0-------|
                                 P M PM      P M PM

    D|---------------------------------------------------|
    A|-10-8-6-8-6---6------------------------------------|
GTR F|------------9---7-5-9-7-5-------2h3p0-------2h3p0--|    
 2  C|---------------------------------------------------| 2              
    G|---------------------------0-0-0-------0-0-0-------|
    C|---------------------------0-0-0-------0-0-0-------|
                                 P M PM      P M PM

    D|---------------------------------|
    A|-10-8-6-10-8-6-13-11-10-13-11-10-|
GTR F|---------------------------------| 4   
1+2 C|---------------------------------|              
    G|---------------------------------|
    C|---------------------------------|
                                      
    D|------------------------|
    A|------------------------|
GTR F|------2h3p0-------2h3p0-| 4   
1+2 C|------------------------|              
    G|0-0-0-------0-0-0-------|
    C|0-0-0-------0-0-0-------|
      P M PM      P M PM

    D|-------------|
    A|-------------|
GTR F|-------2h3p0-|    
1+2 C|-------------|              
    G|-0-0-0-------|
    C|-0-0-0-------|
       P M PM

    D|------------|---------------------------|
    A|------------|---------------------------|
GTR F|------------|---------------------------|    
1+2 C|------------|---------------------------|              
    G|-0-0---0-0--|-0-0----0-0-0--1-1-1-1-1-1-|
    C|-0-0---0-0--|-0-0----0-0-0--1-1-1-1-1-1-|

    D|----------------------------------------------|
    A|-9-------9-------9----11-------11-------11----|
GTR F|---12-12---12-12---12----14-14----14-14----14-|    
 1  C|----------------------------------------------|              
    G|----------------------------------------------|
    C|----------------------------------------------|

    D|----------------------------------------|
    A|----------------------------------------|
GTR F|----------------------------------------|    
 2  C|----------------------------------------|              
    G|-0------------0----------0--------0-----|
    C|-0------------0----------0--------0-----|
       PMRO         PMRO       PMRO     PMRO

    D|----------------------------------------|
    A|----------------------------------------|
GTR F|----------------------------------------|    
1+2 C|----------------------------------------|              
    G|-0-0-0--0-0--0-0-0--0-0-0--0-0--0-0-0---|
    C|-0-0-0--0-0--0-0-0--0-0-0--0-0--0-0-0---|
       P M PM P M  P M PM P M PM P M  P M PM

    D|----------------------------------------|
    A|----------------------------------------|
GTR F|-----5---5---4---3---3-------6----------|    
1+2 C|-0---5---5---5---3---3---0---3----------|              
    G|-0---3---2---2---1---1---0---4----------|
    C|-0---3-----------1---1---0--------------|
comments
We did not receive enough feedback on this tab! Please rate:
print report bad tab
1 2 3 4 5
I want to post or [tab]
guest
You may want to rate the tab now too:
select rating
Please do not post tabs as comments. Select "correction" instead!