Oops, an error
Loading. Please wait.

A Legend Reborn Tab

ver1
ver1

Intro

Whole song

Interactive

More versions @911Tabs.com
3,567 views 3 this week
3 commentsread comments
1 2 3 4 5
worth learning
x 1
Autoscroll
+/-
esc
set tempo
stop
Contributor
Tuning
D# G# C# F# A# D#
WARNING: You are trying to view
                                    content from Ultimate-Guitar.com
                                    in an unauthorized application,
                                    which is prohibited.

                                    Please use an official Ultimate
                                    Guitar Tabs application for iPhone,
                                    iPad or Android to access legitimate
                                    chords, guitar, bass, and drum tabs
                                    from Ultimate-Guitar.com database.

                                    Type "ultimate guitar tabs" in Apple
                                    App Store's or Android Market's
                                    search to find the application.
#----------------------------------PLEASE NOTE---------------------------------#
#This file is the author's own work and represents their interpretation of the #
#song. You may only use this file for private study, scholarship, or research. #
#------------------------------------------------------------------------------#

LEGEND REBORN
As recorded by Hammerfall
(From the 2000 Album RENEGADE)


Transcribed by Ivan - (peekaboo104@hotmail.com)

 Words and Music by Oscar Dronjak, Joacim Cans, Jesper Strömblad 

 

Gtr I (Eb Ab Db Gb Bb Eb) - 'Acoustic'
Gtr II (Eb Ab Db Gb Bb Eb) - 'Acoustic 12 string effect'
Gtr III (Eb Ab Db Gb Bb Eb) - 'Lead 1'
Gtr IV (Eb Ab Db Gb Bb Eb) - 'Lead 2'
Gtr V (Eb Ab Db Gb Bb Eb) - 'Rhythm'


 Intro
  Moderately Q=120
  Am             Dm      Am            C          Em        F  G Am
 4/4
  Gtrs I, II
  Q  E Q  Q  E   E E  E  E +E  E E E   Q  E E +E  E +E  E   Q  E E +H
|-0--0-0--0--0-|-1-1-(x)-0-(0)-0-0-0-|-0--0-0-(0)-0-(0)-0-|-1--3-5-(5)----|
|-1--1-1--1--1-|-3-3--3--1-(1)-1-1-1-|-1--1-0-(0)-0-(0)-0-|-1--3-5-(5)----|
|-2----2--2----|-2-2--2--2-(2)-2-2-2-|-0--0-0-(0)-0-(0)-0-|-2--4-5-(5)----|
|-2-------2----|-0----0--2-(2)---2---|-2--2-------2-(2)-2-|-3--5-7-(7)----|
|-0-------0----|-----------------0---|-3--3-------2-(2)---|-3--5-7-(7)----|
|--------------|---------------------|------------0-(0)---|-1--3-5-(5)----|


  Am             Dm          Am            C          Em        F  G Am
  Q  E Q  Q  E   E S T T  E  E +E  E E E   Q  E E +E  E +E  E   Q  E E +H
|-0--0-0--0--0-|-1-1h3p1-(x)-0-(0)-0-0-0-|-0--0-0-(0)-0-(0)-0-|-1----0-(0)----||
|-1--1-1--1--1-|-3-3------3--1-(1)-1-1-1-|-1--1-0-(0)-0-(0)-0-|-1----1-(1)----||
|-2----2--2----|-2-2------2--2-(2)-2-2-2-|-0--0-0-(0)-0-(0)-0-|-2--0-2-(2)----||
|-2-------2----|-0--------0--2-(2)---2---|-2--2-------2-(2)-2-|-3--0-2-(2)----||
|-0-------0----|---------------------0---|-3--3-------2-(2)---|-3--2-0-(0)----||
|--------------|-------------------------|------------0-(0)---|-1--3----------||


  A5
  Gtr III
   Q.    Q   Q.      Q    E  E  +H
|-------17--------|--------------------|
|-17--------17----|-18---15-17-(17)----|
|-----------------|--------------------|
|-----------------|--------------------|
|-----------------|--------------------|
|-----------------|--------------------|
|
| Gtr IV
|  Q.    Q   Q.      Q    E  E  +H
|-----------------|--------------------|
|-------10--------|--------------------|
|--9---------9----|-10----7--9--(9)----|
|-----------------|--------------------|
|-----------------|--------------------|
|-----------------|--------------------|
|
| Gtr V
|  W                +W
|-----------------|--------------------|
|-----------------|--------------------|
|-----------------|--------------------|
|--2--------------|-(2)----------------|
|--0--------------|-(0)----------------|
|-----------------|--------------------|


  C5    E5             F5      A5
   Q.    Q      Q.      Q    E  E  +H
|--------------------|--------------------|
|-------15-----------|------15-17-(17)----|
|-17-----------16----|-17-----------------|
|--------------------|--------------------|
|--------------------|--------------------|
|--------------------|--------------------|
|
|  Q.    Q      Q.      Q    E  E  +H
|--------------------|--------------------|
|--------------------|--------------------|
|--------7-----------|-------7--9--(9)----|
|-10------------9----|-10-----------------|
|--------------------|--------------------|
|--------------------|--------------------|
|
|  Q.    E +H           Q.      E  +H
|--------------------|--------------------|
|--------------------|--------------------|
|--------------------|--------------------|
|--5-----------------|----------2--(2)----|
|--3-----2-(2)-------|--3-------0--(0)----|
|--------0-(0)-------|--1-----------------|


  A5
   Q.    Q   Q.      E   S  S  E  E  +H
|-------17--------|-------------------------|
|-17--------17----|-18--20p18----17-(17)----|
|-----------------|-----------19------------|
|-----------------|-------------------------|
|-----------------|-------------------------|
|-----------------|-------------------------|
|
|  Q.    Q   Q.      E   S  S  E  E  +H
|-----------------|-------------------------|
|-------10--------|-------------------------|
|--9---------9----|-10--12p10-----9--(9)----|
|-----------------|-----------12------------|
|-----------------|-------------------------|
|-----------------|-------------------------|
|
|  W                +W
|-----------------|-------------------------|
|-----------------|-------------------------|
|-----------------|-------------------------|
|--2--------------|-(2)---------------------|
|--0--------------|-(0)---------------------|
|-----------------|-------------------------|


  C5    E5             F5    G5 A5
   Q.    Q      Q.      E  E  E  E H
|--------------------|------------------||
|-------15-----------|------------------||
|-17-----------16----|-17-17-16-14------||
|--------------------|------------------||
|--------------------|------------------||
|--------------------|------------------||
|
|  Q.    Q      Q.      E  E  E  E H
|--------------------|------------------||
|--------------------|------------------||
|--------7-----------|------------------||
|-10------------9----|-10-10--9--7------||
|--------------------|------------------||
|--------------------|------------------||
|
|  Q.    E +H           E  E  E  E H
|--------------------|------------------||
|--------------------|------------------||
|--------------------|------------------||
|--5-----------------|-----------2------||
|--3-----2-(2)-------|--3--3--5--0------||
|--------0-(0)-------|--1--1--3---------||


    A5                F/A D5A5          C5    E5         F5  G5A5
      PM----|     PM          PM----|            PM--|     PM     PM--|
    E E E E E E E E   E E E E E E E E    Q.   Q  E E E   E E E Q  E E E
||------------------|-----------------|----------------|------------------||
||o-----------------|-----------------|----------------|-----------------o||
||--2---------2-2---|-5-5---2---------|--5-------------|------------------||
||--2---------2-2---|-3-3-0-2---------|--5-------------|-------2----------||
||o-0-0-0-0-0-0-0-0-|-0-0-0-0-0-0-0-0-|--3----2--------|-3---5-0--0-0-0--o||
||------------------|-----------------|-------0--0-0-0-|-1-1-3------------||
|
|     PM----|     PM          PM----|            PM--|     PM     PM--|
|   E E E E E E E E   E E E E E E E E    Q.   Q  E E E   E E E Q  E E E
||------------------|-----------------|----------------|------------------||
||o-----------------|-----------------|----------------|-----------------o||
||------------------|-----------------|----------------|------------------||
||------------------|-----------------|----------------|------------------||
||o-7---------7-7---|-8-8-5-7---------|-10----2--------|-3---5-7---------o||
||--5-5-5-5-5-5-5-5-|-5-5-5-5-5-5-5-5-|--8----0--0-0-0-|-1-1-3-5--5-5-5---||


   1st and 2nd Verses
    A5
      PM----|                 PM--|
    E E E E E E +E  E   +E  E E E E E +E  E
||--------------------|---------------------|
||o-------------------|---------------------|
||--9---------5-(5)-4-|-(4)---------5-(5)-4-|
||--7---------7-(7)-5-|-(5)-7-------7-(7)-5-|
||o-0-0-0-0-0---------|-------0-0-0---------|
||--------------------|---------------------|
|
|     PM-------------------------------------
|   E E E E E E  E  E    E  E E E E E  E  E
||--------------------|---------------------|
||o-------------------|---------------------|
||--------------------|---------------------|
||--------------------|---------------------|
||o-7-----------------|---------------------|
||--5-5-5-5-5-5--5--5-|--5--5-5-5-5-5--5--5-|


  (F)                 C5            G5A5
          PM------|     PM|
  +E  E E E E E E E   E E E E +E  E E E
|-------------------|--------------------|
|-------------------|--------------------|
|-(4)---------------|-5------------------|
|-(5)-7---3-3-3-3-3-|-5-----2-(2)-5-5-7--|
|-------0-----------|-3-3-3-3-(3)-5-5-7--|
|-------------------|--------------------|
|
|-----------------|     PM|       PM
|  E  E E E E E E E   E E E E +E  E E E
|-------------------|--------------------|
|-------------------|--------------------|
|-------------------|--------------------|
|-------------------|-5-----5-(5)--------|
|-------------------|-3-3-3-3-(3)---5-7--|
|--1--1-1-1-1-1-1-1-|-------------3-3-5--|


  A5
      PM----|                 PM--|
   E  E E E E E +E  E   +E  E E E E E +E  E
|---------------------|---------------------|
|---------------------|---------------------|
|--9----------5-(5)-4-|-(4)---------5-(5)-4-|
|--7----------7-(7)-5-|-(5)-7-------7-(7)-5-|
|--0--0-0-0-0---------|-------0-0-0---------|
|---------------------|---------------------|
|
|     PM-------------------------------------
| +E  E E E E E  E  E    E  E E E E E  E  E
|---------------------|---------------------|
|---------------------|---------------------|
|---------------------|---------------------|
|---------------------|---------------------|
|-(7)-----------------|---------------------|
|-(5)-5-5-5-5-5--5--5-|--5--5-5-5-5-5--5--5-|


  (F)                               A5
          PM----------------------|
  +E  E E E E E E E   E E E E E E E E
|-------------------|-----------------|
|-------------------|-----------------|
|-(4)---------------|---------------2-|
|-(5)-7---3-3-3-3-3-|---3-2-3-5-3-2-2-|
|-------0-----------|---------------0-|
|-------------------|-----------------|
|
|-----------------------------------|
|  E  E E E E E E E   E E E E E E E E
|-------------------|-----------------|
|-------------------|-----------------|
|-------------------|-----------------|
|-------------------|-----------------|
|-------------------|---------------7-|
|--1--1-1-1-1-1-1-1-|-1-1-1-1-1-1-1-5-|


      PM----|                 PM--|
  +E  E E E E E +E  E   +E  E E E E E +E  E
|---------------------|---------------------|
|---------------------|---------------------|
|-(2)---------5-(5)-4-|-(4)---------5-(5)-4-|
|-(2)---------7-(7)-5-|-(5)-7-------7-(7)-5-|
|-(0)-0-0-0-0---------|-------0-0-0---------|
|---------------------|---------------------|
|
|     PM-------------------------------------
| +E  E E E E E  E  E    E  E E E E E  E  E
|---------------------|---------------------|
|---------------------|---------------------|
|---------------------|---------------------|
|---------------------|---------------------|
|-(7)-----------------|---------------------|
|-(5)-5-5-5-5-5--5--5-|--5--5-5-5-5-5--5--5-|


  (F)                 C5            G5A5
          PM------|     PM|
  +E  E E E E E E E   E E E E +E  E E E
|-------------------|-------------------|
|-------------------|-------------------|
|-(4)---------------|-5-----------0-0-2-|
|-(5)-7---3-3-3-3-3-|-5-----2-(2)-0-0-2-|
|-------0-----------|-3-3-3-3-(3)-----0-|
|-------------------|-------------------|
|
|-----------------|     PM|       PM
|  E  E E E E E E E   E E E E +E  E E E
|-------------------|-------------------|
|-------------------|-------------------|
|-------------------|-------------------|
|-------------------|-5-----5-(5)-------|
|-------------------|-3-3-3-3-(3)---5-7-|
|--1--1-1-1-1-1-1-1-|-------------3-3-5-|


  A5
    PM----|                 PM--|
  E E E E E E +E  E   +E  E E E E E +E  E
|-------------------|---------------------|
|-------------------|---------------------|
|-2---------5-(5)-4-|-(4)---------5-(5)-4-|
|-2---------7-(7)-5-|-(5)-7-------7-(7)-5-|
|-0-0-0-0-0---------|-------0-0-0---------|
|-------------------|---------------------|
|
|   PM-------------------------------------
| E E E E E E  E  E    E  E E E E E  E  E
|-------------------|---------------------|
|-------------------|---------------------|
|-------------------|---------------------|
|-------------------|---------------------|
|-7-----------------|---------------------|
|-5-5-5-5-5-5--5--5-|--5--5-5-5-5-5--5--5-|


  (F)                               D5
          PM----------------------|
  +E  E E E E E E E   E E E E E E E E
|-------------------|-----------------|
|-------------------|-----------------|
|-(4)---------------|---------------2-|
|-(5)-7---3-3-3-3-3-|---3-2-3-5-3-2-0-|
|-------0-----------|-----------------|
|-------------------|-----------------|
|
|-----------------------------------|
|  E  E E E E E E E   E E E E E E E E
|-------------------|-----------------|
|-------------------|-----------------|
|-------------------|-----------------|
|-------------------|-----------------|
|-------------------|---------------5-|
|--1--1-1-1-1-1-1-1-|-1-1-1-1-1-1-1---|


                                      A5
      PM----|   PM        PM--------|
  +E  E E E E E E E   +E  E E E E E E E
|-------------------|-------------------|
|-------------------|-------------------|
|-(2)---------2---2-|-(2)-------------2-|
|-(0)-0-0-0-0-0-0-0-|-(0)-3-2-3-5-3-2-2-|
|-------------------|-----------------0-|
|-------------------|-------------------|
|
|  PM------------------------------------
| +E  E E E E E E E    E  E E E E E E E
|-------------------|-------------------|
|-------------------|-------------------|
|-------------------|-------------------|
|-------------------|-------------------|
|-(5)-5-5-5-5-5-5-5-|--5--5-5-5-5-5-5---|
|-------------------|-----------------5-|


                  G5
      PM--------|         PM----------|
  +E  E E E E E E E   +E  E E E E E E E
|-------------------|-------------------|
|-------------------|-------------------|
|-(2)---------------|-------------------|
|-(2)-------------5-|-(5)---------------|
|-(0)-0-0-0-0-2-3-5-|-(5)---------------|
|-----------------3-|-(3)-3-3-3-3-3-3-3-|
|
|-------------------------------------|
| +E  E E E E E E E    E  E E E E E E E
|-------------------|-------------------|
|-------------------|-------------------|
|-------------------|-------------------|
|-------------------|-------------------|
|-------------------|-------------------|
|-(5)-5-5-5-5-5-5-3-|--3--3-3-3-3-3-3-3-|


  C5            D5                  E5
      PM--|             PM----|             PM----|
  Q   E E E E E E   +E  E E E E E E E   +E  E E E E E E E   +W
|-----------------|-------------------|-------------------|--------||
|-----------------|-------------------|-------------------|--------||
|-5-------------7-|-(7)-------------9-|-(9)---------9-9-9-|-(9)----||
|-5---------5-5-7-|-(7)---------7-7-9-|-(9)---------9-9-9-|-(9)----||
|-3---3-3-3-3-3-5-|-(5)-5-5-5-5-5-5-7-|-(7)-7-7-7-7-7-7-7-|-(7)----||
|-----------------|-----------------0-|-(0)-0-0-0-0-0-0-0-|-(0)----||
|
| PM--------------------------------------------------|
| E E E E E E E E   +E  E E E E E E E   +E  E E E E E E E   +W
|-----------------|-------------------|-------------------|--------||
|-----------------|-------------------|-------------------|--------||
|-----------------|-------------------|-------------------|--------||
|-----------------|-------------------|-----------------2-|-(2)----||
|-3-3-3-3-3-3-3-5-|-(5)-5-5-5-5-5-5---|-----------------2-|-(2)----||
|-----------------|-----------------0-|-(0)-0-0-0-0-0-0-0-|-(0)----||


 Chorus
  $
  A5                F/A D5A5          C5            E5    F5  G5A5
    PM----|     PM          PM----|               PM--|     PM     PM--|
  E E E E E E E E   E E E E E E E E    Q.   Q     E E E   E E E Q  E E E
|-----------------|-----------------|-------------------|----------------|
|-----------------|-----------------|-------------------|----------------|
|-2---------2-2---|-5-5---2---------|--5----------------|----------------|
|-2---------2-2---|-3-3-0-2---------|--5----------------|-------2--------|
|-0-0-0-0-0-0-0-0-|-0-0-0-0-0-0-0-0-|--3----2-----------|-3---5-0--0-0-0-|
|-----------------|-----------------|-------0-----0-0-0-|-1-1-3----------|
|
|   PM----|     PM          PM----|               PM--|     PM     PM--|
| E E E E E E E E   E E E E E E E E    Q.   E +E  E E E   E E E Q  E E E
|-----------------|-----------------|-------------------|----------------|
|-----------------|-----------------|-------------------|----------------|
|-----------------|-----------------|-------------------|----------------|
|-----------------|-----------------|-------------------|----------------|
|-7---------7-7---|-8-8-5-7---------|-10----2-(2)-------|-3---5-7--------|
|-5-5-5-5-5-5-5-5-|-5-5-5-5-5-5-5-5-|--8----0-(0)-0-0-0-|-1-1-3-5--5-5-5-|


                                                                To Coda
  A5                F/A D5A5          C5    E5            F5  G5A5
    PM----|     PM          PM----|               PM--|     PM     PM--|
  E E E E E E E E   E E E E E E E E    Q.   Q     E E E   E E E Q  E E E
|-----------------|-----------------|-------------------|-----------------||
|-----------------|-----------------|-------------------|----------------o||
|-2---------2-2---|-5-5-------------|--5----------------|-----------------||
|-2---------2-2---|-3-3-0-2---------|--5----------------|-------2---------||
|-0-0-0-0-0-0-0-0-|-0-0-0-0-0-0-0-0-|--3----2-----------|-3---5-0--0-0-0-o||
|-----------------|-----------------|-------0-----0-0-0-|-1-1-3-----------||
|
|   PM----|     PM          PM----|               PM--|     PM     PM--|
| E E E E E E E E   E E E E E E E E    Q.   E +E  E E E   E E E Q  E E E
|-----------------|-----------------|-------------------|-----------------||
|-----------------|-----------------|-------------------|----------------o||
|-----------------|-----------------|-------------------|-----------------||
|-----------------|-----------------|-------------------|-----------------||
|-7---------7-7---|-8-8-5-7---------|-10----2-(2)-------|-3---5-7--------o||
|-5-5-5-5-5-5-5-5-|-5-5-5-5-5-5-5-5-|--8----0-(0)-0-0-0-|-1-1-3-5--5-5-5--||


 Bridge
  G5                            C5   A5                  C5
    PM------------------------|
  E E E E E E E E   E E E E E E Q    W          +H.      Q
|-----------------|----------------|----------|-------------|
|-----------------|----------------|----------|-------------|
|-----------------|----------------|----------|-------------|
|-----------------|-------------5--|----------|----------5--|
|-5---------------|-------------3--|-7--------|-(7)------3--|
|-3-3-3-3-3-3-3-3-|-3-3-3-3-3-3----|-5--------|-(5)---------|
|
|   PM------------------------|
| E E E E E E E E   E E E E E E Q    W          +H.      Q
|-----------------|----------------|----------|-------------|
|-----------------|----------------|----------|-------------|
|-----------------|----------------|----------|-------------|
|-----------------|-------------5--|----------|----------5--|
|-5---------------|-------------3--|-7--------|-(7)------3--|
|-3-3-3-3-3-3-3-3-|-3-3-3-3-3-3----|-5--------|-(5)---------|


  D5                            E5
    PM------------------------|
  E E E E E E E E   E E E E E E Q
|-----------------|----------------|
|-----------------|----------------|
|-----------------|----------------|
|-7---------------|-------------9--|
|-5-5-5-5-5-5-5-5-|-5-5-5-5-5-5-7--|
|-----------------|----------------|
|
|   PM------------------------|
| E E E E E E E E   E E E E E E Q
|-----------------|----------------|
|-----------------|----------------|
|-----------------|----------------|
|-7---------------|-------------9--|
|-5-5-5-5-5-5-5-5-|-5-5-5-5-5-5-7--|
|-----------------|----------------|


  F5             G5
     PM--------|                                  ~~~~
   E E E E E E E  E    +H.                 E     +E
|-------------------|--------------------------------||
|-------------------|---------------------12b14r(12)-||
|-------------------|--------------------------------||
|-10-------------12-|-(12)---------------------------||
|--8-8-8-8-8-8-8-10-|-(10)---------------------------||
|-------------------|--------------------------------||
|
|    PM--------|            PM------------------|
|  E E E E E E E  E    +E   E  E  E  E  E  E      E
|-------------------|--------------------------------||
|-------------------|--------------------------------||
|-------------------|--------------------------------||
|-10-------------12-|-(12)---------------------------||
|--8-8-8-8-8-8-8-10-|-(10)-10-10-10-10-10-10-----10--||
|-------------------|--------------------------------||


 Guitar Solo - S.Elmgren
  F#5                                                             G#5
           ~~~~~~~~~~                                  ~~~~~~~
   S      +E.    +Q     +E   E E E    E     +S   S  E  E  +Q.      S S
|----------------------------9-9-9-|-----------------------------------|
|-12b14==(12)---(12)---(12)r-------|-12b14r(12)-10-12----------------9-|
|----------------------------------|------------------11-(11)-----11---|
|----------------------------------|-----------------------------------|
|----------------------------------|-----------------------------------|
|----------------------------------|-----------------------------------|
|
|             PM-------|       PM     PM------------------------|
|  E          E   E  E   E   E E E    E      E      E  E   E  E E  E
|----------------------------------|-----------------------------------|
|----------------------------------|-----------------------------------|
|----------------------------------|-----------------------------------|
|----------------------------------|-----------------------------------|
|--4-------------------------4---4-|-------------------------------6---|
|--2----------2---2--2---2---2-2-2-|--2------2------2--2---2--2-2--4---|


  A5                          E5
   ~~~                         ~~~~~~~~~
   Q.      S  S  E     +E   E  E    +H         E  E  S  S  S S
|--------------------------------|-----------------------------|
|-10------10-10-12b14r(12)-10-12-|-(12)-------10-12-10-12-10-9-|
|--------------------------------|-----------------------------|
|--------------------------------|-----------------------------|
|--------------------------------|-----------------------------|
|--------------------------------|-----------------------------|
|
|     PM-------------------|            PM----------------|
|  E  E E  E     E      E   E  E    +E  E E E  E  E  E     E
|--------------------------------|-----------------------------|
|--------------------------------|-----------------------------|
|--------------------------------|-----------------------------|
|--------------------------------|-----------------------------|
|--7---------------------------2-|--(2)------------------------|
|--5--5-5--5-----5------5---5--0-|--(0)-0-0-0--0--0--0-----0---|


  F#5
        ~~~            ~~~~
   S S  Q.      E     +E   E  E
|-------------------------14-16-|
|-10p9---------17b19-(17)-------|
|------11-----------------------|
|-------------------------------|
|-------------------------------|
|-------------------------------|
|
|  E    E  E E  E      E   E  E
|-------------------------------|
|-------------------------------|
|-------------------------------|
|-------------------------------|
|--4-------------------4------4-|
|--2----2--2-2--2------2---2--2-|


                                                       G#5
                                              ~~~~~~~~~
   S  S  S  S  S  S  S  S      +E   +E       +S   +S    S  S
|-17-16-14-16-14----14---------------------------------14-16-|
|----------------17----17b19==(17)r(17)b19==(17)-(17)r-------|
|------------------------------------------------------------|
|------------------------------------------------------------|
|------------------------------------------------------------|
|------------------------------------------------------------|
|
|  E     E     E     E          E    E        E         E
|------------------------------------------------------------|
|------------------------------------------------------------|
|------------------------------------------------------------|
|------------------------------------------------------------|
|-------------------------------------------------------6----|
|--2-----2-----2-----2----------2----2--------2---------4----|


  A5                                        E5
   ~~       PM-|
   H        a   a   S      +S   +S   +S   E  E
|-17-----------(x)-19b21==(19)-(19)r(19)-17-19-|
|----------(x)---------------------------------|
|----------------------------------------------|
|----------------------------------------------|
|----------------------------------------------|
|----------------------------------------------|
|
|    PM----------------------------------|
|  E E E E          E            E        E  E
|----------------------------------------------|
|----------------------------------------------|
|----------------------------------------------|
|----------------------------------------------|
|--7-----------------------------------------2-|
|--5-5-5-5----------5------------5--------5--0-|


    ~~~~
          |------6-------|  |------6-------|  |------6-------|
   +Q     S  S  S  S  S  S  S  S  S  S  S  S  S  S  S  S  S  S
|-(19)---17-19-21-19-17-19-17-16-17-16-14-14-16-14-12-14-12-10--||
|---------------------------------------------------------------||
|---------------------------------------------------------------||
|---------------------------------------------------------------||
|---------------------------------------------------------------||
|---------------------------------------------------------------||
|
|      PM---------------------------------------------|
|  +E  E  E        E        E        E        E        E
|---------------------------------------------------------------||
|---------------------------------------------------------------||
|---------------------------------------------------------------||
|---------------------------------------------------------------||
|--(2)----------------------------------------------------------||
|--(0)-0--0--------0--------0--------0--------0--------0--------||


  F#5                                                           G#5
                        ~~~~~~~~~~                    ~
   |-----6-----|
   S  S S  S S S S     +E.   +Q.      S S   S  S S  S H       E S  S
|-12-10-9-10-9-7-9b10==(9)---(9)r-----9p7-|-9h10p9h10-9---------9h10-|
|-----------------------------------------|--------------------------|
|-----------------------------------------|--------------------------|
|-----------------------------------------|--------------------------|
|-----------------------------------------|--------------------------|
|-----------------------------------------|--------------------------|
|
|  E       E     E         E  E   E E E     E    E    E E E E E E
|-----------------------------------------|--------------------------|
|-----------------------------------------|--------------------------|
|-----------------------------------------|--------------------------|
|-----------------------------------------|--------------------------|
|--4------------------------------4---4---|---------------------6----|
|--2-------2-----2---------2--2---2-2-2---|-2----2----2-2-2-2-2-4----|


  A5                          E5
   ~~~                         ~~~~~~~~~            ~~~~
                    |--3--|
   Q.      S  S  E  S  S  S E  E    +Q.      E     +Q      S S  S S
|-12------12-12-12-10h12p10s9----|---------------------------9------|
|-----------------------------12-|-(12)-----10b12-(10)---/12---12-9-|
|--------------------------------|----------------------------------|
|--------------------------------|----------------------------------|
|--------------------------------|----------------------------------|
|--------------------------------|----------------------------------|
|
|     PM--------------------|           PM---------------------|
|  E  E E  E     E  E       E  E    +E  E E  E      E  E   E    E
|--------------------------------|----------------------------------|
|--------------------------------|----------------------------------|
|--------------------------------|----------------------------------|
|--------------------------------|----------------------------------|
|--7---------------------------2-|--(2)-----------------------------|
|--5--5-5--5-----5--5-------5--0-|--(0)-0-0--0------0--0---0----0---|


  F#5                                                         G#5
        ~~          ~~~~                    ~~~~~~~~~~~~~~
   S S  Q    E     +Q      S S  S S    S S  E  +Q     +Q.      S  S
|----------------------------9------|-------------------------------|
|-10-9------10b12-(10)---/12---12-9-|-10p9-----------------------10-|
|------11---------------------------|------11-(11)---(11)-----11----|
|-----------------------------------|-------------------------------|
|-----------------------------------|-------------------------------|
|-----------------------------------|-------------------------------|
|
|  E    E E  E      E  E   E    E      E    E   E  E   E  E E  E
|-----------------------------------|-------------------------------|
|-----------------------------------|-------------------------------|
|-----------------------------------|-------------------------------|
|-----------------------------------|-------------------------------|
|--4-------------------4--------4---|--------------------------6----|
|--2----2-2--2------2--2---2----2---|--2----2---2--2---2--2-2--4----|


  A5                                                   E5
  |-----6------|         |------6-------|
  S  S S  S S  S   S  S  S  S  S  S  S  S  S  S   S  S  S  S
|-9-14p9----9h14-/17p14----------------14-17p14-/21p17-------|
|--------10-------------14----------14-----------------19----|
|--------------------------14----14-----------------------18-|
|-----------------------------16-----------------------------|
|------------------------------------------------------------|
|------------------------------------------------------------|
|
|         PM------------------------------------|
| E       E        E     E        E        E      E     E
|------------------------------------------------------------|
|------------------------------------------------------------|
|------------------------------------------------------------|
|------------------------------------------------------------|
|-7-----------------------------------------------------2----|
|-5-------5--------5-----5--------5--------5------5-----0----|


   ~~~
   W
|-------------------|
|-------------------|
|-16----------------|
|-------------------|
|-------------------|
|-------------------|
|
|     PM----------|
| +E  E E E E E E E
|-------------------|
|-------------------|
|-------------------|
|-------------------|
|-(2)---------------|
|-(0)-0-0-0-0-0-0-0-|


  G5
           TP TP TP TP TP TP TP TP TP TP
   Q       E  E  S  S  S  S  S  S  S  S
|---------------------------------------|
|---------------------------------------|
|-14b16===14-14-14-14-14-14-14-14-14-14-|
|---------------------------------------|
|---------------------------------------|
|---------------------------------------|
|
|  W
|---------------------------------------|
|---------------------------------------|
|---------------------------------------|
|---------------------------------------|
|--5------------------------------------|
|--3------------------------------------|


                                        C5
   TP  TP TP TP TP TP TP TP TP  TP
   S   S  S  S  S  S  S  S  S  +S   +E   E      +S   +S
|--------------------------------------------------------|
|--------------------------------------------------------|
|-14--14-14-14-14-14-14-14-14-(14)r(14)-14b17==(14)r(14)-|
|--------------------------------------------------------|
|--------------------------------------------------------|
|--------------------------------------------------------|
|
| +H.                                    Q
|--------------------------------------------------------|
|--------------------------------------------------------|
|--------------------------------------------------------|
|----------------------------------------5---------------|
|-(5)------------------------------------3---------------|
|-(3)----------------------------------------------------|


  A5
   ~~
         |------6-------|  |------6-------|
   H     S  S  S  S  S  S  S  S  S  S  S  S
|-------12-13-15-13-12----------------------|
|----------------------15-13-12-15-13-12----|
|-14-------------------------------------14-|
|-------------------------------------------|
|-------------------------------------------|
|-------------------------------------------|
|
|  W
|-------------------------------------------|
|-------------------------------------------|
|-------------------------------------------|
|-------------------------------------------|
|--7----------------------------------------|
|--5----------------------------------------|


                                     C5
                            ~~~~~~~
   |-------6-------|  |--3--|
   S   S  S  S  S  S  S  S  S  +Q.    Q
|----------------------------------------|
|------------------------------------13--|
|-12--10-14-12-10----10-12-14-(14)-------|
|-----------------14---------------------|
|----------------------------------------|
|----------------------------------------|
|
| +H.                                 Q
|----------------------------------------|
|----------------------------------------|
|----------------------------------------|
|-------------------------------------5--|
|-(7)---------------------------------3--|
|-(5)------------------------------------|


  D5
               TP TP TP TP TP TP TP TP TP TP
   S      +E.  E  E  S  S  S  S  S  S  S  S
|-------------------------------------------|
|-13b15==(13)-13-13-13-13-13-13-13-13-13-13-|
|-------------------------------------------|
|-------------------------------------------|
|-------------------------------------------|
|-------------------------------------------|
|
|  W
|-------------------------------------------|
|-------------------------------------------|
|-------------------------------------------|
|--7----------------------------------------|
|--5----------------------------------------|
|-------------------------------------------|


                                       E5
   TP  TP TP TP TP TP TP TP TP TP TP TP ~~~
   S   S  S  S  S  S  S  S  S  S  S  S  Q
|-------------------------------------------|
|-13--13-13-13-13-13-13-13-13-13-13-13-13r--|
|-------------------------------------------|
|-------------------------------------------|
|-------------------------------------------|
|-------------------------------------------|
|
| +H.                                   Q
|-------------------------------------------|
|-------------------------------------------|
|-------------------------------------------|
|-(7)-----------------------------------9---|
|-(5)-----------------------------------7---|
|-------------------------------------------|


  F5                             E5
    ~~~~~~~                        ~~~~
    Q.         H           +E      W
|------------------------------|-------------------||
|-[15]b17-----17b20r======(17)-|-[17]--------------||
|------------------------------|-------------------||
|------------------------------|-------------------||
|------------------------------|-------------------||
|------------------------------|-------------------||
|
|         PM--------------|           PM--------|
|   E     E E  E    E E E   E      E  E E E E E Q
|------------------------------|-------------------||
|------------------------------|-------------------||
|------------------------------|-------------------||
|--10--------------------------|---9---------------||
|---8-----8-8--8----8-8-8---8--|---7--7-7-7-7-7-7--||
|------------------------------|-------------------||


 Interlude
  A5
  Gtr III
   Q.     Q    Q.      Q   E  E  +H
|--------17---------|-------------------|
|-17----------17----|-18--15-17-(17)----|
|-------------------|-------------------|
|-------------------|-------------------|
|-------------------|-------------------|
|-------------------|-------------------|
|
| Gtr IV
|  Q.     Q    Q.      Q   E  E  +H
|-------------------|-------------------|
|--------10---------|-------------------|
|--9-----------9----|-10---7--9--(9)----|
|-------------------|-------------------|
|-------------------|-------------------|
|-------------------|-------------------|
|
| Gtr V
|  Q   Q    H          W
|-------------------|-------------------|
|-------------------|-------------------|
|-------------------|-------------------|
|--2----------------|-------------------|
|--0----------------|-------------------|
|-------------------|-------------------|


  C5    E5           F5      A5
   Q.    Q    Q.      Q    E  E  +H
|------------------|--------------------|
|-------15---------|------15-17-(17)----|
|-17---------16----|-17-----------------|
|------------------|--------------------|
|------------------|--------------------|
|------------------|--------------------|
|
|  Q.    Q    Q.      Q    E  E  +H
|------------------|--------------------|
|------------------|--------------------|
|--------7---------|-------7--9--(9)----|
|-10----------9----|-10-----------------|
|------------------|--------------------|
|------------------|--------------------|
|
|  Q.    E H          Q.      E  +H
|------------------|--------------------|
|------------------|--------------------|
|------------------|--------------------|
|--5---------------|----------2--(2)----|
|--3-----2---------|--3-------0--(0)----|
|--------0---------|--1-----------------|


  A5
   Q.     Q    Q.      E  S  S  E  E  +H
|--------17---------|------------------------|
|-17----------17----|-18-20p18----17-(17)----|
|-------------------|----------19------------|
|-------------------|------------------------|
|-------------------|------------------------|
|-------------------|------------------------|
|
|  Q.     Q    Q.      E  S  S  E  E  +H
|-------------------|------------------------|
|--------10---------|------------------------|
|--9-----------9----|-10-12p10-----9--(9)----|
|-------------------|----------12------------|
|-------------------|------------------------|
|-------------------|------------------------|
|
|  Q   Q    H          W
|-------------------|------------------------|
|-------------------|------------------------|
|-------------------|------------------------|
|--2----------------|------------------------|
|--0----------------|------------------------|
|-------------------|------------------------|


                          D.S. al Coda
  C5    E5           F5    G5 A5
   Q.    Q    Q.      E  E  E  E  +H
|------------------|----------------------|
|-------15---------|----------------------|
|-17---------16----|-17-17-16-14-(14)-----|
|------------------|----------------------|
|------------------|----------------------|
|------------------|----------------------|
|
|  Q.    Q    Q.      Q     E  E  +H
|------------------|----------------------|
|------------------|----------------------|
|--------7---------|----------------------|
|-10----------9----|-10-----9--7--(7)-----|
|------------------|----------------------|
|------------------|----------------------|
|
|  Q.    E H          E  E  E  E  +H
|------------------|----------------------|
|------------------|----------------------|
|------------------|----------------------|
|--5---------------|----------------------|
|--3-----2---------|--3--3--5--7--(7)-----|
|--------0---------|--1--1--3--5--(5)-----|


 Outro
  &
  A5                     F/A  D5/A5
   Q.      Q    Q.        Q    E  E  +H
|---------17-----------|-----------------------|
|-17-----------17------|-18---15-17-(17)-------|
|----------------------|-----------------------|
|----------------------|-----------------------|
|----------------------|-----------------------|
|----------------------|-----------------------|
|
|  Q.      Q    Q.        Q    E  E  +H
|----------------------|-----------------------|
|---------10-----------|-----------------------|
|--9------------9------|-10----7--9--(9)-------|
|----------------------|-----------------------|
|----------------------|-----------------------|
|----------------------|-----------------------|
|
|     PM-----|       PM               PM-----|
|  E  E E  E E  E  E E    E E  E  E   E  E E E
|----------------------|-----------------------|
|----------------------|-----------------------|
|----------------------|-----------------------|
|----------------------|-----------------------|
|--7------------7--7---|--8-8--5--7------------|
|--5--5-5--5-5--5--5-5-|--5-5--5--5---5--5-5-5-|


  C5    E5            F5   G5 A5
   Q.    Q   Q.        Q    E  E  +H
|-------------------|-----------------------|
|-------15----------|------15-17-(17)-------|
|-17--------16------|-17--------------------|
|-------------------|-----------------------|
|-------------------|-----------------------|
|-------------------|-----------------------|
|
|  Q.    Q   Q.        Q    E  E  +H
|-------------------|-----------------------|
|-------------------|-----------------------|
|--------7----------|-------7--9--(9)-------|
|-10---------9------|-10--------------------|
|-------------------|-----------------------|
|-------------------|-----------------------|
|
|            PM---|      PM        PM-----|
|  Q.    Q   E  E E    E E  E  E   E  E E E
|-------------------|-----------------------|
|-------------------|-----------------------|
|-------------------|-----------------------|
|--5-----2----------|--3----5--7------------|
|--3-----2----------|--3----5--7------------|
|--------0---0--0-0-|--1-1--3--5---5--5-5-5-|


  A5                     F/A      D5/A5
   Q.      Q    Q.        E  S  S  E  E  +H
|---------17-----------|---------------------------|
|-17-----------17------|-18-20p18----17-(17)-------|
|----------------------|----------19---------------|
|----------------------|---------------------------|
|----------------------|---------------------------|
|----------------------|---------------------------|
|
|  Q.      Q    Q.        E  S  S  E  E  +H
|----------------------|---------------------------|
|---------10-----------|---------------------------|
|--9------------9------|-10-12p10-----9--(9)-------|
|----------------------|----------12---------------|
|----------------------|---------------------------|
|----------------------|---------------------------|
|
|     PM-----|       PM                   PM-----|
|  E  E E  E E  E  E E    E  E     E  E   E  E E E
|----------------------|---------------------------|
|----------------------|---------------------------|
|----------------------|---------------------------|
|----------------------|---------------------------|
|--7------------7--7---|--8--8-----5--7------------|
|--5--5-5--5-5--5--5-5-|--5--5-----5--5---5--5-5-5-|


  C5    E5            F5    G5 A5
   Q.    Q   Q.        E  E  E  E  +H
|-------------------|---------------------||
|-------15----------|---------------------||
|-17--------16------|-17-17-16-14-(14)----||
|-------------------|---------------------||
|-------------------|---------------------||
|-------------------|---------------------||
|
|  Q.    Q   Q.        Q     E  E  +H
|-------------------|---------------------||
|-------------------|---------------------||
|--------7----------|---------------------||
|-10---------9------|-10-----9--7--(7)----||
|-------------------|---------------------||
|-------------------|---------------------||
|
|            PM---|       PM
|  Q.    Q   E  E E    E  E  E  E  +H
|-------------------|---------------------||
|-------------------|---------------------||
|-------------------|---------------------||
|--5-----2----------|---------------------||
|--3-----2----------|--3-----5--7--(7)----||
|--------0---0--0-0-|--1--1--3--5--(5)----||


  Am             Dm      Am            C          Em        F  G Am
  Gtrs I, II
  Q  E Q  Q  E   E E  E  E +E  E E E   Q  E E +E  E +E  E   Q  E E +H
|-0--0-0--0--0-|-1-1-(x)-0-(0)-0-0-0-|-0--0-0-(0)-0-(0)-0-|-1--3-5-(5)----|
|-1--1-1--1--1-|-3-3--3--1-(1)-1-1-1-|-1--1-0-(0)-0-(0)-0-|-1--3-5-(5)----|
|-2----2--2----|-2-2--2--2-(2)-2-2-2-|-0--0-0-(0)-0-(0)-0-|-2--4-5-(5)----|
|-2-------2----|-0----0--2-(2)---2---|-2--2-------2-(2)-2-|-3--5-7-(7)----|
|-0-------0----|-----------------0---|-3--3-------2-(2)---|-3--5-7-(7)----|
|--------------|---------------------|------------0-(0)---|-1--3-5-(5)----|


                                                          H.=H
  Am             Dm              Am    C          Em        F
  Q  E Q  Q  E   E E  E  E +E  E E E   Q  E E +E  E +E  E   H    E. S E E
|-0--0-0--0--0-|-1-1-(x)-0-(0)-0-0-0-|-0--0-0-(0)-0-(0)-0-|-1-------------|
|-1--1-1--1--1-|-3-3--3--1-(1)-1-1-1-|-1--1-0-(0)-0-(0)-0-|-1----1--1h3p1-|
|-2----2--2----|-2-2--2--2-(2)-2-2-2-|-0--0-0-(0)-0-(0)-0-|-2-------------|
|-2-------2----|-0----0--2-(2)---2---|-2--2-------2-(2)-2-|-3-------------|
|-0-------0----|-----------------0---|-3--3-------2-(2)---|-3-------------|
|--------------|---------------------|------------0-(0)---|-1-------------|


  G              (Am/E)
                 |----6----|
  H    E E E E   S S S S S S +H.        +W
|--------------|-----------0-(0)------|-(0)----*|
|-0----0h1-0---|---------1------------|--------*|
|-0----------0-|-------2--------------|--------*|
|-0------------|-----2----------------|--------*|
|-2------------|---0------------------|--------*|
|-3------------|-0--------------------|--------*|




--------------------------------------------------------------------------------


Duration Legend
---------------
W - whole; H - half; Q - quarter; E - 8th; S - 16th; T - 32nd; X - 64th; a - acciaccatura
+ - note tied to previous; . - note dotted; .. - note double dotted
Uncapitalized letters represent notes that are staccato (1/2 duration)
Irregular groupings are notated above the duration line
Duration letters will always appear directly above the note/fret number it represents the
duration for.  Duration letters with no fret number below them represent rests.  Multi-
bar rests are notated in the form Wxn, where n is the number of bars to rest for.  Low
melody durations appear below the staff

Tablature Legend
----------------
 h   - hammer-on
 p   - pull-off
 b   - bend
 pb  - pre-bend
 r   - bend release (if no number after the r, then release immediately)
 /\  - slide into or out of (from/to "nowhere")
 s   - legato slide
 S   - shift slide
<n> - natural harmonic
[n]  - artificial harmonic
n(n) - tapped harmonic
 ~   - vibrato
 tr  - trill
 T   - tap
 TP  - trem. picking
 PM  - palm muting
\n/  - tremolo bar dip; n = amount to dip
 \n  - tremolo bar down
 n/  - tremolo bar up
/n\  - tremolo bar inverted dip
 =   - hold bend; also acts as connecting device for hammers/pulls
 <> - volume swell (louder/softer)
 x   - on rhythm slash represents muted slash
 o   - on rhythm slash represents single note slash

Misc Legend
-----------
 |  - bar
||  - double bar
||o - repeat start
o|| - repeat end
*|  - double bar (ending)
 :  - bar (freetime)
 $  - Segno
 &  - Coda
Tempo markers - <E/E./Q/Q./H/H.> = BPM(8/16=s8/s16), where s8 = swing 8ths, s16 = swing 16ths

comments
We did not receive enough feedback on this tab! Please rate:
print report bad tab
1 2 3 4 5
3 comments total.
0 reply
jonke38 wrote on September 6 2008, 06:24 pm

To many guitars! Hammerfall have two guitars, not five!

0 reply
tonedeafidiot wrote on September 6 2008, 07:12 pm

it's called dubbing moron. they could have twenty guitars in a song.

0 reply
zhmirlan wrote on May 23 2009, 06:41 am

onother idiot who cant add the simple text to the song.

I want to post or [tab]
guest
You may want to rate the tab now too:
select rating
Please do not post tabs as comments. Select "correction" instead!