Oops, an error
Loading. Please wait.

Always Will Be Tab

ver2
ver2

Whole song

Interactive

More versions @911Tabs.com
7,056 views 1 this week
no commentswrite comment
1 2 3 4 5
excellent!
x 3
Autoscroll
+/-
esc
set tempo
stop
Contributor
Hey! There's an official Ultimate Guitar app which is ideal
for learning songs when you're away from computer. Get the app
WARNING: You are trying to view
                                    content from Ultimate-Guitar.com
                                    in an unauthorized application,
                                    which is prohibited.

                                    Please use an official Ultimate
                                    Guitar Tabs application for iPhone,
                                    iPad or Android to access legitimate
                                    chords, guitar, bass, and drum tabs
                                    from Ultimate-Guitar.com database.

                                    Type "ultimate guitar tabs" in Apple
                                    App Store's or Android Market's
                                    search to find the application.
#----------------------------------PLEASE NOTE---------------------------------#
#This file is the author's own work and represents their interpretation of the #
#song. You may only use this file for private study, scholarship, or research. #
#------------------------------------------------------------------------------#

ALWAYS WILL BE
As recorded by HammerFall
(From the 2001 Album RENEGADE)


Transcribed by Ivan - (peekaboo104@hotmail.com)

 Words and Music by J.Cans, S.Elmgren, O.Dronjak, M.Rosen and A.Johanson

 

Gtr I (E A D G B E) - 'Jesper (In Flames)'
Gtr II (E A D G B E) - 'Stefan Emgren'
Gtr III (E A D G B E) - 'Strings'
Gtr IV (E A D G B E) - 'Oscar Dronjak'
Gtr V (E A D G B E) - 'Overdubb'


 Intro
  Moderately Q=131
  D
 4/4
  Gtr I
  Q  E E  E E  E  E    +E   E  E  E +E   E  E  E
|---------1-------3-|--(3)--------1-(1)----------|
|------3----3-------|-------3------------3-----3-|
|----2---------2----|----------2------------2----|
|-0-----------------|----------------------------|
|-------------------|----------------------------|
|-------------------|----------------------------|
|
| Gtr II
|                 ~~~~~~~~~
| H       Q    E  E    +E   E  E  E  E   E  E  E
|-------------------|----------------------------|
|--------10---10-10-|-(10)-------10-10-----------|
|-------------------|------12-12--------10-10-12-|
|-------------------|----------------------------|
|-------------------|----------------------------|
|-------------------|----------------------------|
|
| Gtr V
|                 ~~~~~~~~~
| H       Q    E  E    +E   E  E  E  E   E  E  E
|-------------------|----------------------------|
|-------------------|----------------------------|
|--------10---10-10-|-(10)-------10-10---------9-|
|-------------------|------12-12--------12-12----|
|-------------------|----------------------------|
|-------------------|----------------------------|


  C                  Am
   Q  E E   E   E  E  E    +E  E E E          H
|-----------0-----------|---------------------0--------------|
|-------1-------1-------|----------1-------------------------|
|-----0------------0----|--------2---------------------------|
|-----------------------|------2-----------------------------|
|--3------------------0-|--(0)-------------------------------|
|-----------------------|------------------------------------|
|
|  ~~~~~~~~~~~~       ~~~~~~~~~
|  H       +E   E  E  E    +H         a      +E   +E   E  E
|-----------------------|------------------------------------|
|-----------------------|------------------------------------|
|-12------(12)-10--9--9-|--(9)--------9b10===(9)r=(9)--------|
|-----------------------|-----------------------------12-10--|
|-----------------------|------------------------------------|
|-----------------------|------------------------------------|
|
|  ~~~~~~~~~~~~       ~~~~~~~~~
|  H       +E   E  E  E    +H         a      +E   +E   E  E
|-----------------------|------------------------------------|
|-----------------------|------------------------------------|
|--9-------(9)----------|------------------------------------|
|--------------12-10-10-|-(10)-------10b12==(10)r(10)--9-----|
|-----------------------|--------------------------------12--|
|-----------------------|------------------------------------|


  D
   Q  E E  E  E  E  E   +E   E  E  E +E   E  E  E
|----------1--------3-|-(3)--------1-(1)----------|
|-------3-----3-------|------3------------3-----3-|
|-----2----------2----|---------2------------2----|
|--0------------------|---------------------------|
|---------------------|---------------------------|
|---------------------|---------------------------|
|
|  ~~                                           ~~~
|  H       E  E  E  E    E   E  E  E  E   E  E  E
|---------------------|---------------------------|
|---------------------|----------------------8-10-|
|----------------9-10-|------9-10-12--9--10-------|
|-12------10-12-------|-12------------------------|
|---------------------|---------------------------|
|---------------------|---------------------------|
|
|  ~~                                           ~~~
|  H       E  E  E  E    E   E  E  E  E   E  E  E
|---------------------|---------------------------|
|---------------------|---------------------------|
|---------------------|---------------------10-10-|
|--9----------9-10-10-|--9--10-10-12-10--12-------|
|---------12----------|---------------------------|
|---------------------|---------------------------|


  F                    C
    Q   E E   E   E  E  E    +E           E    E   E   Q   E E
|-------------5-----------|------------------------0---3-------||
|---------6-------6-------|--------------------1---------------||
|-------5------------5----|---------------0--------------------||
|---3---------------------|--------------------------------0-2-||
|-----------------------3-|--(3)-------------------------------||
|-------------------------|------------------------------------||
|
|~~~~~~~~~~~~~~~~~~~                               ~~~~~~~
|  +H        +E   E  E  E    +E   a      +E   +E   E  +H
|-------------------------|------------------------------------||
|-(10)------(10)-------10-|-(10)-10b11==(10)r(10)--------------||
|----------------10-12----|-----------------------12-(12)------||
|-------------------------|------------------------------------||
|-------------------------|------------------------------------||
|-------------------------|------------------------------------||
|
|~~~~~~~~~~~~~~~~~~~                               ~~~~~~~
|  +H        +E   E  E  E    +E   a      +E   +E   E  +H
|-------------------------|------------------------------------||
|-------------------------|------------------------------------||
|-(10)------(10)-----9-10-|-(10)-10b11==(10)r(10)--9--(9)------||
|----------------12-------|------------------------------------||
|-------------------------|------------------------------------||
|-------------------------|------------------------------------||


  D
  Q   E E   E  E  E  E    +E   E  E  E +E   E  E  E
|-----------1--------3-|--(3)--------1-(1)----------|
|-------3------3-------|-------3------------3-----3-|
|-----2-----------2----|----------2------------2----|
|-0--------------------|----------------------------|
|----------------------|----------------------------|
|----------------------|----------------------------|
|
|                          ~~~~
| Q   Q     Q     E  E    +E   E  E  E  E   E  E  E
|----------------------|----------------------------|
|----------15-------17-|-(17)----18----17-----15----|
|----14----------14----|------14----14-----14----14-|
|----------------------|----------------------------|
|----------------------|----------------------------|
|----------------------|----------------------------|
|
|                    ~~~~~~~~~
| Q   Q     Q     E  E    +E   E  E  E  E   E  E  E
|----------------------|----------------------------|
|----------------------|---------18-----------------|
|----14---(16)---14-17-|-(17)-14----14-17--14-14-14-|
|----------------------|----------------------------|
|----------------------|----------------------------|
|----------------------|----------------------------|


  C                    Am
   Q  E E   E    E   E  E    +E  E E E  H
|-----------0-------------|-------------0--------|
|-------1--------1--------|----------1-----------|
|-----0--------------0----|--------2-------------|
|-------------------------|------2---------------|
|--3--------------------0-|--(0)-----------------|
|-------------------------|----------------------|
|
|  ~~~~~~~~~~~~         ~~~~~~~~~
|  H       +E    E   E  E    +H         E  E  Q
|-------------------------|----------------------|
|-17------(17)--15--13-13-|-(13)-------13-15-17--|
|-------------------------|----------------------|
|-------------------------|----------------------|
|-------------------------|----------------------|
|-------------------------|----------------------|
|
|  ~~~~~~~~~~~~         ~~~~~~~~~
|  H       +E    E   E  E    +H         E  E  Q
|-------------------------|----------------------|
|-------------------------|----------------------|
|-17------(17)-(16)-14-14-|-(14)-------14-16-17--|
|-------------------------|----------------------|
|-------------------------|----------------------|
|-------------------------|----------------------|


  D
   Q  E E   E   E  E  E    +E   E  E  E  +E   E  E E
|-----------1---------3-|--(3)--------1--(1)---------|
|-------3-------3-------|-------3-------------3----3-|
|-----2------------2----|----------2-------------2---|
|--0--------------------|----------------------------|
|-----------------------|----------------------------|
|-----------------------|----------------------------|
|
|  ~~~~~~~~~~~~       ~~~~~~~~~       ~~~~~~~
|  H       +E   E  E  E    +E   E  E  E  +E   E  Q
|-----------------------|----------------------------|
|-18------(18)-15-17-18-|-(18)-15-17-18-(18)-17-15---|
|-----------------------|----------------------------|
|-----------------------|----------------------------|
|-----------------------|----------------------------|
|-----------------------|----------------------------|
|
|  ~~~~~~~~~~~~       ~~~~~~~~~       ~~~~~~~
|  H       +E   E  E  E    +E   E  E  E  +E   E  Q
|-----------------------|----------------------------|
|-----------------------|----------------------------|
|-19------(19)-16-17-19-|-(19)-16-17-19-(19)-17-16---|
|-----------------------|----------------------------|
|-----------------------|----------------------------|
|-----------------------|----------------------------|


  F
   Q        E    E     E    E     E    E         +E   E      E   E   Q     E  E
|----------------------5----------------------|------------------0---3------------||
|----------------6----------6-----------------|--------------1--------------------||
|-----------5---------------------5-----------|-------0---------------------------||
|--3------------------------------------------|----------------------------0--2---||
|--------------------------------------3------|--(3)------------------------------||
|---------------------------------------------|-----------------------------------||
|
|                                                                          >
|                                                                ~~~~~~~~~~~~~
|  |--3--|  |---3---|  |---3---|  |---3----|
|  E  E  E  E  E    E  E  E    E  E  E    +E     +E   E     +E   E  +Q    +Q
|----------15------15-17-15---17-18-17---(17)-|-(17)-17b18r(17)-15-(15)--(15)-----||
|-18-17-18----18------------------------------|-----------------------------------||
|---------------------------------------------|-----------------------------------||
|---------------------------------------------|-----------------------------------||
|---------------------------------------------|-----------------------------------||
|---------------------------------------------|-----------------------------------||
|
|                                                                          >
|                                                                ~~~~~~~~~~~~~
|  |--3--|  |---3---|  |---3---|  |---3----|
|  E  E  E  E  E    E  E  E    E  E  E    +E     +E   E     +E   E  +Q    +Q
|---------------------------------------------|-----------------------------------||
|----------15------15-17-15---17-18-17---(17)-|-(17)-17b18r(17)-15-(15)--(15)-----||
|-19-17-19----19------------------------------|-----------------------------------||
|---------------------------------------------|-----------------------------------||
|---------------------------------------------|-----------------------------------||
|---------------------------------------------|-----------------------------------||


 1st Verse
  D                                      C            Am
  Q  E E E E E E   +E  E E E +E  E E E   Q  E E E E E E   +E  E E E H
|--------1-----3-|-(3)-----1-(1)-------|--------0-------|-----------0----|
|------3---3-----|-----3---------3---3-|------1---1-----|---------1------|
|----2-------2---|-------2---------2---|----0-------0---|-------2--------|
|-0--------------|---------------------|----------------|-----2----------|
|----------------|---------------------|-3------------0-|-(0)------------|
|----------------|---------------------|----------------|----------------|


  D                                      F
  Q  E E E E E E   +E  E E E +E  E E E   Q  E E E E E E   +E  E E E Q  E E
|--------1-----3-|-(3)-----1-(1)-------|--------5-------|---------0-3------|
|------3---3-----|-----3---------3---3-|------6---6-----|-------1----------|
|----2-------2---|-------2---------2---|----5-------5---|-----0------------|
|-0--------------|---------------------|-3--------------|--------------0-2-|
|----------------|---------------------|--------------3-|-(3)--------------|
|----------------|---------------------|----------------|------------------|


  D                                      C            Am
  Q  E E E E E E   +E  E E E +E  E E E   Q  E E E E E E   +E  E E E H
|--------1-----3-|-(3)-----1-(1)-------|--------0-------|-----------0----|
|------3---3-----|-----3---------3---3-|------1---1-----|---------1------|
|----2-------2---|-------2---------2---|----0-------0---|-------2--------|
|-0--------------|---------------------|----------------|-----2----------|
|----------------|---------------------|-3------------0-|-(0)------------|
|----------------|---------------------|----------------|----------------|


  D                                      F
  Q  E E E E E E   +E  E E E +E  E E E   Q  E E E E E E   +E  E E E H
|--------1-----3-|-(3)-----1-(1)-------|--------5-------|---------0-3----||
|------3---3-----|-----3---------3---3-|------6---6-----|-------1--------||
|----2-------2---|-------2---------2---|----5-------5---|-----0----------||
|-0--------------|---------------------|-3--------------|----------------||
|----------------|---------------------|--------------3-|-(3)------------||
|----------------|---------------------|----------------|----------------||


 Chorus
  A                                  G
  Gtr III
   W              +W                  W              +W
   |               |                  |               |
   o               /                  o               /

   H     Q.   E   +E  E E E E E Q     H     Q.   E   +E  E E E E E Q
|-^5----^5------|------------------|-^3----^3------|------------------|
|-^5----^5----5-|-(5)-------5------|-^3----^3----3-|-(3)-------3------|
|-^5----^5------|-----5---5---5----|-^4----^4------|-----4---4---4----|
|-^7----^7------|-------7-------7--|-^5----^5------|-------5-------5--|
|-^7----^7------|------------------|-^5----^5------|------------------|
|-^5----^5------|------------------|-^3----^3------|------------------|


  F                                C
  W             +W                  W             +W
  |              |                  |              |
  o              /                  o              /

  H    Q.   E   +E  E E E E E Q     H    E E Q     E E E E S S E E E
|-1----1------|------------------|-^0----0---0--|--------------------|
|-1----1----1-|-(1)-------1------|-^1-----------|----------0h1p0-----|
|-2----2------|-----2---2---2----|-^0------0----|----0-----------0---|
|-3----3------|-------3-------3--|-^2-----------|--2-----2---------2-|
|-3----3------|------------------|-^3-----------|------2-------------|
|-1----1------|------------------|--------------|--------------------|


  A                                  G
   W              +W                  W              +W
   |               |                  |               |
   o               /                  o               /

   H     Q.   E   +E  E E E E E Q     H     Q.   E   +E  E E E E E Q
|-^5----^5------|------------------|-^3----^3------|------------------|
|-^5----^5----5-|-(5)-------5------|-^3----^3----3-|-(3)-------3------|
|-^5----^5------|-----5---5---5----|-^4----^4------|-----4---4---4----|
|-^7----^7------|-------7-------7--|-^5----^5------|-------5-------5--|
|-^7----^7------|------------------|-^5----^5------|------------------|
|-^5----^5------|------------------|-^3----^3------|------------------|


  C                                  D
   W              +W                  W          +W
   |               |                  |           |
   o               /                  o           /

   H     Q.   E   +E  E E E E E Q     W          +W
|-^0----^0------|-----0-------0----|-^2--------|-(2)----||
|-^1----^1------|-------1---1---1--|-^3--------|-(3)----||
|-^0----^0----0-|-(0)-----0--------|-^2--------|--------||
|-^2----^2------|------------------|-^0--------|--------||
|-^3----^3------|------------------|-----------|--------||
|---------------|------------------|-----------|--------||


 2nd Verse
  F                 A                 F       A         G
  W                 W                 H       H         W
  |                 |                 |       |         |
  o                 o                 o       o         o

  E E E E E E E E   E E E E E E E E   E E E E E E E E   E E E E E E E E
|---------1-------|---------0-------|---1-------0-----|-----------------|
|-------1---1-----|-------1---1-----|-----1-------1---|-3-------3-------|
|-----2-------2---|-----2-------2---|-------2-------2-|---4---4---4---4-|
|---3-----------3-|---2-----------2-|-----------------|-----5-------5---|
|-----------------|-0---------------|---------0-------|-----------------|
|-1---------------|-----------------|-1---------------|-----------------|
|
| Gtr IV
| H       Q   Q     H       Q   Q     Q   E E Q   E E   Q   E E Q   E E
|-1-------1---1---|-0-------0---0---|-1---1-1-0---0-0-|-3---3-3-3---3-3-|
|-1-------1---1---|-1-------1---1---|-1---1-1-1---1-1-|-3---3-3-3---3-3-|
|-2-------2---2---|-2-------2---2---|-2---2-2-2---2-2-|-0---0-0-0---0-0-|
|-3-------3---3---|-2-------2---2---|-3---3-3-2---2-2-|-0---0-0-0---0-0-|
|-3-------3---3---|-0-------0---0---|-3---3-3-0---0-0-|-2---2-2-2---2-2-|
|-1-------1---1---|-----------------|-1---1-1---------|-3---3-3-3---3-3-|


  D                 F       G         A
  W                 H       H         W          +W
  |                 |       |         |           |
  o                 o       o         o           /

  E E E E E E E E   E E E E E E E E   W          +W
|---------5-------|---5-------7-----|-5--------|-(5)----||
|-------6---6-----|-----6-------8---|-5--------|-(5)----||
|-----7-------7---|-------5-------7-|-5--------|-(5)----||
|---7-----------7-|-3-------5-------|-7--------|-(7)----||
|-5---------------|-----------------|-7--------|-(7)----||
|-----------------|-----------------|-5--------|-(5)----||
|
| H       Q   Q     H       H         W          +W
|-5-------5---5---|-5-------7-------|-5--------|-(5)----||
|-6-------6---6---|-6-------8-------|-5--------|-(5)----||
|-7-------7---7---|-5-------7-------|-5--------|-(5)----||
|-7-------7---7---|-7-------5-------|-7--------|-(7)----||
|-5-------5---5---|-8---------------|-7--------|-(7)----||
|-----------------|-----------------|-5--------|-(5)----||


  D                                      C            Am
  Q  E E E E E E   +E  E E E +E  E E E   Q  E E E E E E   +E  E E E H
|--------1-----3-|-(3)-----1-(1)-------|--------0-------|-----------0----|
|------3---3-----|-----3---------3---3-|------1---1-----|---------1------|
|----2-------2---|-------2---------2---|----0-------0---|-------2--------|
|-0--------------|---------------------|----------------|-----2----------|
|----------------|---------------------|-3------------0-|-(0)------------|
|----------------|---------------------|----------------|----------------|


  D                                      F
  Q  E E E E E E   +E  E E E +E  E E E   Q  E E E E E E   +E  E E E Q  E E
|--------1-----3-|-(3)-----1-(1)-------|--------5-------|---------0-3------|
|------3---3-----|-----3---------3---3-|------6---6-----|-------1----------|
|----2-------2---|-------2---------2---|----5-------5---|-----0------------|
|-0--------------|---------------------|-3--------------|--------------0-2-|
|----------------|---------------------|--------------3-|-(3)--------------|
|----------------|---------------------|----------------|------------------|


  D                                      C            Am
  Q  E E E E E E   +E  E E E +E  E E E   Q  E E E E E E   +E  E E E H
|--------1-----3-|-(3)-----1-(1)-------|--------0-------|-----------0----|
|------3---3-----|-----3---------3---3-|------1---1-----|---------1------|
|----2-------2---|-------2---------2---|----0-------0---|-------2--------|
|-0--------------|---------------------|----------------|-----2----------|
|----------------|---------------------|-3------------0-|-(0)------------|
|----------------|---------------------|----------------|----------------|


  D                                      F
  Q  E E E E E E   +E  E E E +E  E E E   Q  E E E E E E   +E  E E E H
|--------1-----3-|-(3)-----1-(1)-------|--------5-------|-----------3----||
|------3---3-----|-----3---------3---3-|------6---6-----|---------5------||
|----2-------2---|-------2---------2---|----5-------5---|-------5--------||
|-0--------------|---------------------|-3--------------|-----5----------||
|----------------|---------------------|--------------3-|-(3)------------||
|----------------|---------------------|----------------|----------------||


 Chorus
  A                                  G
  Gtr III
   W              +W                  W              +W
   |               |                  |               |
   o               /                  o               /

   H     Q.   E   +E  E E E E E Q     H     Q.   E   +E  E E E E E Q
|-^5----^5------|------------------|-^3----^3------|------------------|
|-^5----^5----5-|-(5)-------5------|-^3----^3----3-|-(3)-------3------|
|-^5----^5------|-----5---5---5----|-^4----^4------|-----4---4---4----|
|-^7----^7------|-------7-------7--|-^5----^5------|-------5-------5--|
|-^7----^7------|------------------|-^5----^5------|------------------|
|-^5----^5------|------------------|-^3----^3------|------------------|


  F                                C
  W             +W                  W             +W
  |              |                  |              |
  o              /                  o              /

  H    Q.   E   +E  E E E E E Q     H    E E Q     E E E E S S E E E
|-1----1------|------------------|-^0----0---0--|--------------------|
|-1----1----1-|-(1)-------1------|-^1-----------|----------0h1p0-----|
|-2----2------|-----2---2---2----|-^0------0----|----0-----------0---|
|-3----3------|-------3-------3--|-^2-----------|--2-----2---------2-|
|-3----3------|------------------|-^3-----------|------2-------------|
|-1----1------|------------------|--------------|--------------------|


  A                                  G
   W              +W                  W              +W
   |               |                  |               |
   o               /                  o               /

   H     Q.   E   +E  E E E E E Q     H     Q.   E   +E  E E E E E Q
|-^5----^5------|------------------|-^3----^3------|------------------|
|-^5----^5----5-|-(5)-------5------|-^3----^3----3-|-(3)-------3------|
|-^5----^5------|-----5---5---5----|-^4----^4------|-----4---4---4----|
|-^7----^7------|-------7-------7--|-^5----^5------|-------5-------5--|
|-^7----^7------|------------------|-^5----^5------|------------------|
|-^5----^5------|------------------|-^3----^3------|------------------|


  C                                  D
   W              +W                  W          +W
   |               |                  |           |
   o               /                  o           /

   H     Q.   E   +E  E E E E E Q     W          +W
|-^0----^0------|-----0-------0----|-^2--------|-(2)----||
|-^1----^1------|-------1---1---1--|-^3--------|-(3)----||
|-^0----^0----0-|-(0)-----0--------|-^2--------|--------||
|-^2----^2------|------------------|-^0--------|--------||
|-^3----^3------|------------------|-----------|--------||
|---------------|------------------|-----------|--------||


 Bridge
  F                 A                 F       A         G
  W                 W                 H       H         W
  |                 |                 |       |         |
  o                 o                 o       o         o

  E E E E E E E E   E E E E E E E E   E E E E E E E E   E E E E E E E E
|-----------------|---------0-------|-----------------|-----------------|
|---------1-------|-------1---1-----|---------------1-|-3-------3-------|
|-------2---2-----|-----2-------2---|-------2-----2---|---4---4---4---4-|
|-----3-------3---|---2-----------2-|-----3-----2-----|-----5-------5---|
|---3-----------3-|-0---------------|---3-----0-------|-----------------|
|-1---------------|-----------------|-1---------------|-----------------|
|
| Gtr IV
| H       Q   Q     H       Q   Q     Q   E E Q   E E   Q   E E Q   E E
|-1-------1---1---|-0-------0---0---|-1---1-1-0---0-0-|-3---3-3-3---3-3-|
|-1-------1---1---|-1-------1---1---|-1---1-1-1---1-1-|-3---3-3-3---3-3-|
|-2-------2---2---|-2-------2---2---|-2---2-2-2---2-2-|-0---0-0-0---0-0-|
|-3-------3---3---|-2-------2---2---|-3---3-3-2---2-2-|-0---0-0-0---0-0-|
|-3-------3---3---|-0-------0---0---|-3---3-3-0---0-0-|-2---2-2-2---2-2-|
|-1-------1---1---|-----------------|-1---1-1---------|-3---3-3-3---3-3-|


  D                 F       G         A                 F
  W                 H       H         W                 W
  |                 |       |         |                 |
  o                 o       o         o                 o

  E E E E E E E E   E E E E E E E E   E E E E E E E E   E E E E E E E E
|---------5-------|---5-------7-----|---------5-------|-----------------|
|-------6---6-----|-----6-------8---|-----------5-----|---------1-------|
|-----7-------7---|-------5-------7-|-------5-----5---|-------2---2-----|
|---7-----------7-|-3-------5-------|-----7---------7-|-----3-------3---|
|-5---------------|-----------------|---7-------------|---3-----------3-|
|-----------------|-----------------|-5---------------|-1---------------|
|
| H       Q   Q     H       H         H       Q   Q     H       Q   Q
|-5-------5---5---|-5-------7-------|-5-------5---5---|-1-------1---1---|
|-6-------6---6---|-6-------8-------|-5-------5---5---|-1-------1---1---|
|-7-------7---7---|-5-------7-------|-5-------5---5---|-2-------2---2---|
|-7-------7---7---|-7-------5-------|-7-------7---7---|-3-------3---3---|
|-5-------5---5---|-8---------------|-7-------7---7---|-3-------3---3---|
|-----------------|-----------------|-5-------5---5---|-1-------1---1---|


  A                 F       A         G                 D
  W                 H       H         W                 W
  |                 |       |         |                 |
  o                 o       o         o                 o

  E E E E E E E E   E E E E E E E E   E E E E E E E E   E E E E E E E E
|---------0-------|-----------------|-----------------|---------5-------|
|-------1---1-----|---------------1-|-3-------3-------|-------6---6-----|
|-----2-------2---|-------2-----2---|---4---4---4---4-|-----7-------7---|
|---2-----------2-|-----3-----2-----|-----5-------5---|---7-----------7-|
|-0---------------|---3-----0-------|-----------------|-5---------------|
|-----------------|-1---------------|-----------------|-----------------|
|
| H       Q   Q     Q   E E Q   E E   Q   E E Q   E E   H       Q   Q
|-0-------0---0---|-1---1-1-0---0-0-|-3---3-3-3---3-3-|-5-------5---5---|
|-1-------1---1---|-1---1-1-1---1-1-|-3---3-3-3---3-3-|-6-------6---6---|
|-2-------2---2---|-2---2-2-2---2-2-|-0---0-0-0---0-0-|-7-------7---7---|
|-2-------2---2---|-3---3-3-2---2-2-|-0---0-0-0---0-0-|-7-------7---7---|
|-0-------0---0---|-3---3-3-0---0-0-|-2---2-2-2---2-2-|-5-------5---5---|
|-----------------|-1---1-1---------|-3---3-3-3---3-3-|-----------------|


                                                   Chorus
  F       G         A                               C
  H       H         W                 +W             W
  |       |         |                  |             |
  o       o         o                  /             o

  E E E E E E E E   E E E E E E E E    W             Q  E E E E E E
|---5-------7-----|---------5-------|------------||-^3--------------|
|-----6-------8---|-----------5-----|------------||-^5------5-------|
|-------5-------7-|-------5-----5---|------------||-^5----5---5---5-|
|-3-------5-------|-----7---------7-|------------||-^5--5-------5---|
|-----------------|---7-------------|------------||-^3--------------|
|-----------------|-5---------------|------------||-----------------|
|
| H       H         W                 +W             H      Q   E E
|-5-------7-------|-5---------------|-(5)--------||--3------3---3-3-|
|-6-------8-------|-5---------------|-(5)--------||--5------5---5-5-|
|-5-------7-------|-5---------------|-(5)--------||--5------5---5-5-|
|-7-------5-------|-7---------------|-(7)--------||--5------5---5-5-|
|-8---------------|-7---------------|-(7)--------||--3------3---3-3-|
|-----------------|-5---------------|-(5)--------||-----------------|


  D                 B                 E                 G
   W                 W                 W                 W
   |                 |                 |                 |
   o                 o                 o                 o

   Q  E E E E E E    Q  E E E E E E    Q  E E E E E E    Q  E E E E E E
|-----------------|-^2------2-------|-----------------|-^3--------3-----|
|-^7------7-------|-^3----3---3---3-|-^8------8-------|-^3------3---3---|
|-^7----7---7---7-|-^4--4-------4---|-^9----9---9---9-|-^4----4-------4-|
|-^7--7-------7---|-^4--------------|-^9--9-------9---|-^5--5-----------|
|-^5--------------|-^2--------------|-^7--------------|-^5--------------|
|-----------------|-----------------|-----------------|-^3--------------|
|
|  H      Q   E E    H      Q   E E    H      Q   E E    H      Q   E E
|--2------2---2-2-|--2------2---2-2-|-----------------|--3------3---3-3-|
|--3------3---3-3-|--3------3---3-3-|--8------8---8-8-|--3------3---3-3-|
|--2------2---2-2-|--4------4---4-4-|--9------9---9-9-|--4------4---4-4-|
|--0------0---0-0-|--4------4---4-4-|--9------9---9-9-|--5------5---5-5-|
|-----------------|--2------2---2-2-|--7------7---7-7-|--5------5---5-5-|
|-----------------|-----------------|-----------------|--3------3---3-3-|


  D                 B                                   C
   W                 W                +W                 W
   |                 |                 |                 |
   o                 o                 /                 o

   Q  E E E E E E    Q  E E E E E E    Q  E E E E E E    Q  E E E E E E
|-----------------|-^2------2-------|-^2------2-------|-^3--------------|
|-^7------7-------|-^3----3---3---3-|-^3----3---3---3-|-^5------5-------|
|-^7----7---7---7-|-^4--4-------4---|-^4--4-------4---|-^5----5---5---5-|
|-^7--7-------7---|-^4--------------|-^4--------------|-^5--5-------5---|
|-^5--------------|-^2--------------|-^2--------------|-^3--------------|
|-----------------|-----------------|-----------------|-----------------|
|
|  H      Q   E E    H      Q   E E    H      Q   E E    H      Q   E E
|--2------2---2-2-|--2------2---2-2-|--2------2---2-2-|--3------3---3-3-|
|--3------3---3-3-|--3------3---3-3-|--3------3---3-3-|--5------5---5-5-|
|--2------2---2-2-|--4------4---4-4-|--4------4---4-4-|--5------5---5-5-|
|--0------0---0-0-|--4------4---4-4-|--4------4---4-4-|--5------5---5-5-|
|-----------------|--2------2---2-2-|--2------2---2-2-|--3------3---3-3-|
|-----------------|-----------------|-----------------|-----------------|


  D                 B                 E                 F
   W                 W                 W                  W
   |                 |                 |                  |
   o                 o                 o                  o

   Q  E E E E E E    Q  E E E E E E    Q  E E E E E E     Q   E  E  E  E  E  E
|-----------------|-^2------2-------|-----------------|------------------------|
|-^7------7-------|-^3----3---3---3-|-^8------8-------|-^10--------10----------|
|-^7----7---7---7-|-^4--4-------4---|-^9----9---9---9-|-^10-----10----10----10-|
|-^7--7-------7---|-^4--------------|-^9--9-------9---|-^10--10----------10----|
|-^5--------------|-^2--------------|-^7--------------|-^-8--------------------|
|-----------------|-----------------|-----------------|------------------------|
|
|  H      Q   E E    H      Q   E E    H      Q   E E     H         Q     E  E
|--2------2---2-2-|--2------2---2-2-|-----------------|------------------------|
|--3------3---3-3-|--3------3---3-3-|--8------8---8-8-|--10--------10----10-10-|
|--2------2---2-2-|--4------4---4-4-|--9------9---9-9-|--10--------10----10-10-|
|--0------0---0-0-|--4------4---4-4-|--9------9---9-9-|--10--------10----10-10-|
|-----------------|--2------2---2-2-|--7------7---7-7-|---8---------8-----8--8-|
|-----------------|-----------------|-----------------|------------------------|


                                             Bridge
  C                 G                         F
   W                 W          +W            W
   |                 |           |            |
   o                 o           /            o

   Q  E E E E E E    W          +W            E E E E E E E E
|-^3--------3-----|-^3--------|-(3)--------||-----------------|
|-^5------5---5---|-^3--------|-(3)--------||---------1-------|
|-^5----5-------5-|-^0--------|-(0)--------||-------2---2-----|
|-^5--5-----------|-^0--------|-(0)--------||-----3-------3---|
|-^3--------------|-^2--------|-(2)--------||---3-----------3-|
|-----------------|-^3--------|-(3)--------||-1---------------|
|
|  H      Q   E E    W          +W            H       Q   Q
|--3------3---3-3-|-^3--------|-(3)--------||-1-------1---1---|
|--5------5---5-5-|-^3--------|-(3)--------||-1-------1---1---|
|--5------5---5-5-|-^0--------|-(0)--------||-2-------2---2---|
|--5------5---5-5-|-^0--------|-(0)--------||-3-------3---3---|
|--3------3---3-3-|-^2--------|-(2)--------||-3-------3---3---|
|-----------------|-^3--------|-(3)--------||-1-------1---1---|


  A                 F       A         G                 D
  W                 H       H         W                 W
  |                 |       |         |                 |
  o                 o       o         o                 o

  E E E E E E E E   E E E E E E E E   E E E E E E E E   E E E E E E E E
|---------0-------|-----------------|-----------------|---------5-------|
|-------1---1-----|---------------1-|-3-------3-------|-------6---6-----|
|-----2-------2---|-------2-----2---|---4---4---4---4-|-----7-------7---|
|---2-----------2-|-----3-----2-----|-----5-------5---|---7-----------7-|
|-0---------------|---3-----0-------|-----------------|-5---------------|
|-----------------|-1---------------|-----------------|-----------------|
|
| H       Q   Q     Q   E E Q   E E   Q   E E Q   E E   H       Q   Q
|-0-------0---0---|-1---1-1-0---0-0-|-3---3-3-3---3-3-|-5-------5---5---|
|-1-------1---1---|-1---1-1-1---1-1-|-3---3-3-3---3-3-|-6-------6---6---|
|-2-------2---2---|-2---2-2-2---2-2-|-0---0-0-0---0-0-|-7-------7---7---|
|-2-------2---2---|-3---3-3-2---2-2-|-0---0-0-0---0-0-|-7-------7---7---|
|-0-------0---0---|-3---3-3-0---0-0-|-2---2-2-2---2-2-|-5-------5---5---|
|-----------------|-1---1-1---------|-3---3-3-3---3-3-|-----------------|


  F       G         A                 F                 A
  H       H         W                 W                 W
  |       |         |                 |                 |
  o       o         o                 o                 o

  E E E E E E E E   E E E E E E E E   E E E E E E E E   E E E E E E E E
|---5-------7-----|---------5-------|-----------------|---------0-------|
|-----6-------8---|-----------5-----|---------1-------|-------1---1-----|
|-------5-------7-|-------5-----5---|-------2---2-----|-----2-------2---|
|-3-------5-------|-----7---------7-|-----3-------3---|---2-----------2-|
|-----------------|---7-------------|---3-----------3-|-0---------------|
|-----------------|-5---------------|-1---------------|-----------------|
|
| H       H         H       Q   Q     H       Q   Q     H       Q   Q
|-5-------7-------|-5-------5---5---|-1-------1---1---|-0-------0---0---|
|-6-------8-------|-5-------5---5---|-1-------1---1---|-1-------1---1---|
|-5-------7-------|-5-------5---5---|-2-------2---2---|-2-------2---2---|
|-7-------5-------|-7-------7---7---|-3-------3---3---|-2-------2---2---|
|-8---------------|-7-------7---7---|-3-------3---3---|-0-------0---0---|
|-----------------|-5-------5---5---|-1-------1---1---|-----------------|


  F       A         G                 D                 F       G
  H       H         W                 W                 H       H
  |       |         |                 |                 |       |
  o       o         o                 o                 o       o

  E E E E E E E E   E E E E E E E E   E E E E E E E E   E E E E E E E E
|-----------------|-----------------|---------5-------|---5-------7-----|
|---------------1-|-3-------3-------|-------6---6-----|-----6-------8---|
|-------2-----2---|---4---4---4---4-|-----7-------7---|-------5-------7-|
|-----3-----2-----|-----5-------5---|---7-----------7-|-3-------5-------|
|---3-----0-------|-----------------|-5---------------|-----------------|
|-1---------------|-----------------|-----------------|-----------------|
|
| Q   E E Q   E E   Q   E E Q   E E   H       Q   Q     H       H
|-1---1-1-0---0-0-|-3---3-3-3---3-3-|-5-------5---5---|-5-------7-------|
|-1---1-1-1---1-1-|-3---3-3-3---3-3-|-6-------6---6---|-6-------8-------|
|-2---2-2-2---2-2-|-0---0-0-0---0-0-|-7-------7---7---|-5-------7-------|
|-3---3-3-2---2-2-|-0---0-0-0---0-0-|-7-------7---7---|-7-------5-------|
|-3---3-3-0---0-0-|-2---2-2-2---2-2-|-5-------5---5---|-8---------------|
|-1---1-1---------|-3---3-3-3---3-3-|-----------------|-----------------|


  A                        F#                Bb
   W          +W           W                 W
   |           |           |                 |
   o           /           o                 o

   W          +W           E E E E E E E E   E E E E E E E E
|-^5--------|-(5)--------|-----------------|---------1-------|
|-^5--------|-(5)--------|---------2-------|-------2---2-----|
|-^5--------|-(5)--------|-------3---3-----|-----3-------3---|
|-^7--------|-(7)--------|-----4-------4---|---3-----------3-|
|-^7--------|-(7)--------|---4-----------4-|-1---------------|
|-^5--------|-(5)--------|-2---------------|-----------------|
|
|  W          +W           H       Q   Q     H       Q   Q
|-^5--------|-(5)--------|-2-------2---2---|-1-------1---1---|
|-^5--------|-(5)--------|-2-------2---2---|-2-------2---2---|
|-^5--------|-(5)--------|-3-------3---3---|-3-------3---3---|
|-^7--------|-(7)--------|-4-------4---4---|-3-------3---3---|
|-^7--------|-(7)--------|-4-------4---4---|-1-------1---1---|
|-^5--------|-(5)--------|-2-------2---2---|-----------------|


  F#      Bb        Ab                Eb                F#      Ab
  H       H         W                 W                 H       H
  |       |         |                 |                 |       |
  o       o         o                 o                 o       o

  E E E E E E E E   E E E E E E E E   E E E E E E E E   E E E E E E E E
|-----------------|-----------------|-2-------2-------|---6-------8-----|
|---------------2-|-4-------4-------|---4---4---4---4-|-----7-------9---|
|-------3-----3---|---5---5---5---5-|-----3-------3---|-------6-------8-|
|-----4-----3-----|-----6-------6---|-----------------|-4-------6-------|
|---4-----1-------|-----------------|-----------------|-----------------|
|-2---------------|-----------------|-----------------|-----------------|
|
| Q   E E Q   E E   Q   E E Q   E E   H       Q   Q     H       H
|-2---2-2-1---1-1-|-4---4-4-4---4-4-|-6-------6---6---|-6-------8-------|
|-2---2-2-2---2-2-|-4---4-4-4---4-4-|-7-------7---7---|-7-------9-------|
|-3---3-3-3---3-3-|-5---5-5-5---5-5-|-8-------8---8---|-6-------8-------|
|-4---4-4-3---3-3-|-6---6-6-6---6-6-|-8-------8---8---|-8-------6-------|
|-4---4-4-1---1-1-|-6---6-6-6---6-6-|-6-------6---6---|-9---------------|
|-2---2-2---------|-4---4-4-4---4-4-|-----------------|-----------------|


  Bb                F#                Bb                F#      Bb
  W                 W                 W                 H       H
  |                 |                 |                 |       |
  o                 o                 o                 o       o

  E E E E E E E E   E E E E E E E E   E E E E E E E E   E E E E E E E E
|---------6-------|-----------------|---------1-------|-----------------|
|-------2---6-----|---------2-------|-------2---2-----|---------------2-|
|-----3-------6---|-------3---3-----|-----3-------3---|-------3-----3---|
|---3-----------8-|-----4-------4---|---3-----------3-|-----4-----3-----|
|-1---------------|---4-----------4-|-1---------------|---4-----1-------|
|-----------------|-2---------------|-----------------|-2---------------|
|
| H       Q   Q     H       Q   Q     H       Q   Q     Q   E E Q   E E
|-6-------6---6---|-2-------2---2---|-1-------1---1---|-2---2-2-1---1-1-|
|-6-------6---6---|-2-------2---2---|-2-------2---2---|-2---2-2-2---2-2-|
|-6-------6---6---|-3-------3---3---|-3-------3---3---|-3---3-3-3---3-3-|
|-8-------8---8---|-4-------4---4---|-3-------3---3---|-4---4-4-3---3-3-|
|-8-------8---8---|-4-------4---4---|-1-------1---1---|-4---4-4-1---1-1-|
|-6-------6---6---|-2-------2---2---|-----------------|-2---2-2---------|


  Ab                Eb                F#      Ab        Bb
  W                 W                 H       H         W
  |                 |                 |       |         |
  o                 o                 o       o         o

  E E E E E E E E   E E E E E E E E   E E E E E E E E   E E E E E E E E
|-----------------|-2-------2-------|---6-------8-----|---------6-------|
|-4-------4-------|---4---4---4---4-|-----7-------9---|-------2---6-----|
|---5---5---5---5-|-----3-------3---|-------6-------8-|-----3-------6---|
|-----6-------6---|-----------------|-4-------6-------|---3-----------8-|
|-----------------|-----------------|-----------------|-1---------------|
|-----------------|-----------------|-----------------|-----------------|
|
| Q   E E Q   E E   H       Q   Q     H       H         H       Q   Q
|-4---4-4-4---4-4-|-6-------6---6---|-6-------8-------|-6-------6---6---|
|-4---4-4-4---4-4-|-7-------7---7---|-7-------9-------|-6-------6---6---|
|-5---5-5-5---5-5-|-8-------8---8---|-6-------8-------|-6-------6---6---|
|-6---6-6-6---6-6-|-8-------8---8---|-8-------6-------|-8-------8---8---|
|-6---6-6-6---6-6-|-6-------6---6---|-9---------------|-8-------8---8---|
|-4---4-4-4---4-4-|-----------------|-----------------|-6-------6---6---|


                     Outro
                      Slowly Q=75
                      Eb               F#      Ab        C#
  +W                  W                H       H          W
   |                  |                |       |          |
   /                  o                o       o          o

   E E E E E E E E    Q  E E E E E E   E E E E E E E E    W
|----------6-------||-6--------6-----|---6-------8-----|-^4----*|
|------------6-----||-7------7---7---|-----7-------9---|-^6----*|
|--------6-----6---||-8----8-------8-|-------6-------8-|-^6----*|
|------8---------8-||-8--8-----------|-4-------6-------|-^6----*|
|----8-------------||-6--------------|-----------------|-^4----*|
|--6---------------||----------------|-----------------|-------*|
|
|  H       Q   Q      H      Q   Q     H       H          W
|--6-------6---6---||-6------6---6---|-6-------8-------|-^4----*|
|--6-------6---6---||-7------7---7---|-7-------9-------|-^6----*|
|--6-------6---6---||-8------8---8---|-6-------8-------|-^6----*|
|--8-------8---8---||-8------8---8---|-8-------6-------|-^6----*|
|--8-------8---8---||-6------6---6---|-9---------------|-^4----*|
|--6-------6---6---||----------------|-----------------|-------*|




--------------------------------------------------------------------------------


Duration Legend
---------------
W - whole; H - half; Q - quarter; E - 8th; S - 16th; T - 32nd; X - 64th; a - acciaccatura
+ - note tied to previous; . - note dotted; .. - note double dotted
Uncapitalized letters represent notes that are staccato (1/2 duration)
Irregular groupings are notated above the duration line
Duration letters will always appear directly above the note/fret number it represents the
duration for.  Duration letters with no fret number below them represent rests.  Multi-
bar rests are notated in the form Wxn, where n is the number of bars to rest for.  Low
melody durations appear below the staff

Tablature Legend
----------------
 h   - hammer-on
 p   - pull-off
 b   - bend
 pb  - pre-bend
 r   - bend release (if no number after the r, then release immediately)
 /\  - slide into or out of (from/to "nowhere")
 s   - legato slide
 S   - shift slide
 - natural harmonic
[n]  - artificial harmonic
n(n) - tapped harmonic
 ~   - vibrato
 tr  - trill
 T   - tap
 TP  - trem. picking
 PM  - palm muting
\n/  - tremolo bar dip; n = amount to dip
 \n  - tremolo bar down
 n/  - tremolo bar up
/n\  - tremolo bar inverted dip
 =   - hold bend; also acts as connecting device for hammers/pulls
 <> - volume swell (louder/softer)
 x   - on rhythm slash represents muted slash
 o   - on rhythm slash represents single note slash

Misc Legend
-----------
 |  - bar
||  - double bar
||o - repeat start
o|| - repeat end
*|  - double bar (ending)
 :  - bar (freetime)
 $  - Segno
 &  - Coda
Tempo markers -  = BPM(8/16=s8/s16), where s8 = swing 8ths, s16 = swing 16ths

comments
We did not receive enough feedback on this tab! Please rate:
print report bad tab
1 2 3 4 5
I want to post or [tab]
guest
You may want to rate the tab now too:
select rating
Please do not post tabs as comments. Select "correction" instead!