Oops, an error
Loading. Please wait.

Angel Of Mercy Bass Tab

ver1
ver1

Whole song

Interactive

More versions @911Tabs.com
553 views 1 this week
no commentswrite comment
1 2 3 4 5
please rate
Autoscroll
+/-
esc
set tempo
stop
Contributor
Hey! There's an official Ultimate Guitar app which is ideal
for learning songs when you're away from computer. Get the app
WARNING: You are trying to view
                                    content from Ultimate-Guitar.com
                                    in an unauthorized application,
                                    which is prohibited.

                                    Please use an official Ultimate
                                    Guitar Tabs application for iPhone,
                                    iPad or Android to access legitimate
                                    chords, guitar, bass, and drum tabs
                                    from Ultimate-Guitar.com database.

                                    Type "ultimate guitar tabs" in Apple
                                    App Store's or Android Market's
                                    search to find the application.
angel of mercy                                  

transcribed by an unregistered user

hammerfalll
Bass (D# C# C# F#)
.............



      E  E  E  E  E  E  E  E      E  E   E  E  E  E  E  E   
F#||--------------------------|----------------------------|
C#||--9-----9-----9-----9-----|--10-----10-----7-----7-----|
G#||-----7-----7-----7-----7--|------7------7-----7-----7--|
D#||--------------------------|----------------------------|


  E  E  E  E  E  E  E  E      E  E   E  E   E   E   E   E   
--------------------------|--------------------------------|
--9-----9-----9-----9-----|--10-----10-----12------12------|
-----7-----7-----7-----7--|------7------7------10------10--|
--------------------------|--------------------------------|


  E  E  E  E  E  E  E  E      E  E   E  E  E  E  E  E   
--------------------------|----------------------------|
--9-----9-----9-----9-----|--10-----10-----7-----7-----|
-----7-----7-----7-----7--|------7------7-----7-----7--|
--------------------------|----------------------------|


  E  E  E  E  E  E  E  E     E  E  E  E  E  E  E  E   
--------------------------|--------------------------|
--9-----9-----9-----9-----|--7-----7-----7-----7-----|
-----7-----7-----7-----7--|-----7-----7-----7-----7--|
--------------------------|--------------------------|


    E  E  E  E  E  E  E  E      E  E   E  E  E  E  E  E   
|---------------------------|----------------------------|
|*--9-----9-----9-----9-----|--10-----10-----7-----7-----|
|*-----7-----7-----7-----7--|------7------7-----7-----7--|
|---------------------------|----------------------------|


  E  E  E  E  E  E  E  E      E  E   E  E   E   E   E   E   
--------------------------|--------------------------------|
--9-----9-----9-----9-----|--10-----10-----12------12------|
-----7-----7-----7-----7--|------7------7------10------10--|
--------------------------|--------------------------------|


  E  E  E  E  E  E  E  E      E  E   E  E  E  E  E  E   
--------------------------|----------------------------|
--9-----9-----9-----9-----|--10-----10-----7-----7-----|
-----7-----7-----7-----7--|------7------7-----7-----7--|
--------------------------|----------------------------|


  E  E  E  E  E  E  E  E     E  E  E  E  E  E  E  E     
--------------------------|---------------------------||
--9-----9-----9-----9-----|--7-----7-----7-----7-----*||
-----7-----7-----7-----7--|-----7-----7-----7-----7--*||
--------------------------|---------------------------||


    E  E   E  E   E  E   E  E     E  E  E  E  E  E  E  E   3x
-------------------------------|---------------------------||
*--10-----10-----10-----10-----|--9-----9-----7-----7-----*||
*------7------7------7------7--|-----7-----7-----7-----7--*||
-------------------------------|---------------------------||


   E  E   E  E   E  E   E  E     W                   E  E  E  E  E  E  E  E   
------------------------------|-------------------|--------------------------|
--10-----10-----10-----10-----|--9----------------|--9-----9-----9-----9-----|
------7------7------7------7--|--7----------------|-----7-----7-----7-----7--|
------------------------------|-------------------|--------------------------|


   E  E   E  E  E  E  E  E     E  E  E  E  E  E  E  E   
----------------------------|--------------------------|
--10-----10-----7-----7-----|--9-----9-----9-----9-----|
------7------7-----7-----7--|-----7-----7-----7-----7--|
----------------------------|--------------------------|


   E  E   E  E   E   E   E   E     E  E  E  E  E  E  E  E   
--------------------------------|--------------------------|
--10-----10-----12------12------|--9-----9-----9-----9-----|
------7------7------10------10--|-----7-----7-----7-----7--|
--------------------------------|--------------------------|


   E  E   E  E  E  E  E  E     E  E  E  E  E  E  E  E   
----------------------------|--------------------------|
--10-----10-----7-----7-----|--9-----9-----9-----9-----|
------7------7-----7-----7--|-----7-----7-----7-----7--|
----------------------------|--------------------------|


  E  E  E  E  E  E  E  E       E  E  E  E  H           H        H         
--------------------------||------------------------|--------------------|
--7-----7-----7-----7-----||*-----------------------|--------------------|
-----7-----7-----7-----7--||*-----------------------|--3-----------------|
--------------------------||---0--0--0--0--0--------|-----------5--------|


  E  E  E  E  H           H        H           E  E  E  E  H         
-----------------------|--------------------|-----------------------|
-----------------------|--------------------|-----------------------|
-----------------------|--3--------5--------|--------------7--------|
--0--0--0--0--0--------|--------------------|--0--0--0--0-----------|


  H        H           E  E  E  E  H           E  E  E  E  H           
--------------------|-----------------------|------------------------||
--------------------|-----------------------|-----------------------*||
--3-----------------|-----------------------|-----------------------*||
-----------5--------|--0--0--0--0--0--------|--5--5--5--5--5---------||


  E  E  E  E  H           H        H           E  E  E  E  H         
-----------------------|--------------------|-----------------------|
-----------------------|--------------------|-----------------------|
--3--3--3--3--3--------|--2--------0--------|--3--3--3--3--3--------|
-----------------------|--------------------|-----------------------|


  H        H           E  E  E  E  H           H        H         
--------------------|-----------------------|--------------------|
--------------------|-----------------------|--------------------|
--2--------0--------|--3--3--3--3--3--------|--2--------0--------|
--------------------|-----------------------|--------------------|


  E  E  E  E  H           Q    H.              E  E  E  E  E  E  E  E   
-----------------------|--------------------|--------------------------|
-----------------------|--------------------|--9-----9-----9-----9-----|
--3--3--3--3--3--------|--2-----------------|-----7-----7-----7-----7--|
-----------------------|--------------------|--------------------------|


   E  E   E  E  E  E  E  E     E  E  E  E  E  E  E  E   
----------------------------|--------------------------|
--10-----10-----7-----7-----|--9-----9-----9-----9-----|
------7------7-----7-----7--|-----7-----7-----7-----7--|
----------------------------|--------------------------|


   E  E   E  E   E   E   E   E     E  E  E  E  E  E  E  E   
--------------------------------|--------------------------|
--10-----10-----12------12------|--9-----9-----9-----9-----|
------7------7------10------10--|-----7-----7-----7-----7--|
--------------------------------|--------------------------|


   E  E   E  E  E  E  E  E     E  E  E  E  E  E  E  E   
----------------------------|--------------------------|
--10-----10-----7-----7-----|--9-----9-----9-----9-----|
------7------7-----7-----7--|-----7-----7-----7-----7--|
----------------------------|--------------------------|


  E  E  E  E  E  E  E  E     E  E  E  E  E  E  E  E   
--------------------------|--------------------------|
--7-----7-----7-----7-----|--------------------------|
-----7-----7-----7-----7--|--7--7--7--7--7--7--7--7--|
--------------------------|--------------------------|


  E  E  E  E  E  E  E  E     E  E  E  E  H           E  E  E  E  E  E  E  E   
--------------------------|-----------------------|--------------------------|
--------------------------|-----------------------|--------------------------|
--5--5--5--5--7--7--7--7--|--------------7--------|--3--3--3--3--5--5--5--5--|
--------------------------|--0--0--0--0--0--------|--------------------------|


  E  E  E  E  E  E  E  E     E  E  E  E  E  E  E  E     W                 
--------------------------|--------------------------|-------------------|
--------------------------|--------------------------|-------------------|
--7--7--7--7--7--7--7--7--|--5--5--5--5--7--7--7--7--|-------------------|
--------------------------|--------------------------|--0----------------|


    Q    Q    H           Q    Q    H           Q    Q    H         
|----------------------|---------------------|---------------------|
|*---------------------|---------------------|---------------------|
|*--7----3----5--------|--7----3-------------|--7----3----5--------|
|----------------------|------------5--------|---------------------|


                          |--3--|  |--3--|  |--3--|  |--3--|   
  Q    Q    H             E  E  E  E  E  E  E  E  E  E  E  E   
----------------------||--------------------------------------|
---------------------*||--------------------------------------|
---------------------*||--------------------5--5--5--5--5--5--|
--5----2----3---------||--5--5--5--5--5--5--------------------|


  |--3--|  |--3--|  |--3--|  |--3--|     |--3--|  |--3--|  |--3--|  |--3--|   
  E  E  E  E  E  E  E  E  E  E  E  E     E  E  E  E  E  E  E  E  E  E  E  E   
--------------------------------------|--------------------------------------|
--------------------------------------|--------------------------------------|
--------------------3--3--3--3--3--3--|--------------------2--2--2--2--2--2--|
--3--3--3--3--3--3--------------------|--1--1--1--1--1--1--------------------|


  |--3--|  |--3--|  |--3--|  |--3--|     |--3--|  |--3--|  |--3--|  |--3--|   
  E  E  E  E  E  E  E  E  E  E  E  E     E  E  E  E  E  E  E  E  E  E  E  E   
--------------------------------------|--------------------------------------|
--------------------------------------|--------------------------------------|
--------------------0--0--0--0--0--0--|--------------------5--5--5--5--5--5--|
--0--0--0--0--0--0--------------------|--5--5--5--5--5--5--------------------|


  |--3--|  |--3--|  |--3--|  |--3--|     |--3--|  |--3--|  |--3--|  |--3--|   
  E  E  E  E  E  E  E  E  E  E  E  E     E  E  E  E  E  E  E  E  E  E  E  E   
--------------------------------------|--------------------------------------|
--------------------------------------|--------------------------------------|
--------------------3--3--3--3--3--3--|--------------------2--2--2--2--2--2--|
--3--3--3--3--3--3--------------------|--1--1--1--1--1--1--------------------|


  |--3--|  |--3--|                                            
  E  E  E  E  E  E  S S S S E  E     E  E  E  E  E  E  E  E   
----------------------------------|--------------------------|
----------------------------------|--------------------------|
--------------------0-0-0-0-0-----|--------------------------|
--0--0--0--0--0--0----------------|--0--0--2--3--0--0--2--3--|


  E  E  E  E  E  E  E  E     E  E  E  E  E  E  E  E   
--------------------------|--------------------------|
--------------------------|--------------------------|
--------------------------|--------------------------|
--0--0--2--3--0--0--2--3--|--0--0--2--3--0--0--2--3--|


  E  E  E  E  E  E  E  E     E  E  E  E  E  E  E  E   
--------------------------|--------------------------|
--------------------------|--------------------------|
--------------------------|--------------------------|
--0--0--2--3--0--0--2--3--|--0--0--2--3--0--0--2--3--|


  E  E  E  E  E  E  E  E     E  E  E  E  E  E  E  E   
--------------------------|--------------------------|
--------------------------|--------------------------|
--------------------------|--------------------------|
--0--0--2--3--0--0--2--3--|--0--0--2--3--0--0--2--3--|


  E  E  E  E  E  E  E  E     E  E  E  E  E  E  E  E   
--------------------------|--------------------------|
--------------------------|--------------------------|
-----------------3--5--7--|--------------------------|
--0--0--2--3--0-----------|--0--0--2--3--0--0--2--3--|


  E  E  E  E  E  E  E  E     E  E  E  E  E  E  E  E   
--------------------------|--------------------------|
--------------------------|--------------------------|
-----------------3--5--7--|--------------------------|
--0--0--2--3--0-----------|--0--0--2--3--0--0--2--3--|


  E  E  E  E  E  E  E  E     E  E  E  E  E  E  E  E   
--------------------------|--------------------------|
--------------------------|--------------------------|
-----------------3--5--7--|--3--3--3--3--3--3--3--3--|
--0--0--2--3--0-----------|--------------------------|


  E  E  E  E  E  E  E  E     E  E  E  E  E  E  E  E   
--------------------------|--------------------------|
--------------------------|--------------------------|
--5--5--5--5--5--5--5--5--|--0--0--0--0--0--0--0--0--|
--------------------------|--------------------------|


  E  E  E  E  E  E  E  E     E  E  E  E  E  E  E  E   
--------------------------|--------------------------|
--------------------------|--------------------------|
--------------------------|--3--3--3--3--3--3--3--3--|
--3--3--3--3--3--3--3--3--|--------------------------|


  E  E  E  E  E  E  E  E     E  E  E  E  E  E  E  E   
--------------------------|--------------------------|
--------------------------|--------------------------|
--5--5--5--5--5--5--5--5--|--0--0--0--0--0--0--0--0--|
--------------------------|--------------------------|


  E  E  E  E  E  E  E  E     E  E  E  E  E  E  E  E   
--------------------------|--------------------------|
--------------------------|--9-----9-----9-----9-----|
--------------------------|-----7-----7-----7-----7--|
--3--3--3--3--3--3--3--3--|--------------------------|


   E  E   E  E  E  E  E  E     E  E  E  E  E  E  E  E   
----------------------------|--------------------------|
--10-----10-----7-----7-----|--9-----9-----9-----9-----|
------7------7-----7-----7--|-----7-----7-----7-----7--|
----------------------------|--------------------------|


   E  E   E  E   E   E   E   E     E  E  E  E  E  E  E  E   
--------------------------------|--------------------------|
--10-----10-----12------12------|--9-----9-----9-----9-----|
------7------7------10------10--|-----7-----7-----7-----7--|
--------------------------------|--------------------------|


   E  E   E  E  E  E  E  E     E  E  E  E  E  E  E  E   
----------------------------|--------------------------|
--10-----10-----7-----7-----|--9-----9-----9-----9-----|
------7------7-----7-----7--|-----7-----7-----7-----7--|
----------------------------|--------------------------|


  E  E  E  E  E  E  E  E     E  E  E  E  E  E  E  E   
--------------------------|--------------------------|
--7-----7-----7-----7-----|--9-----9-----9-----9-----|
-----7-----7-----7-----7--|-----7-----7-----7-----7--|
--------------------------|--------------------------|


   E  E   E  E  E  E  E  E     E  E  E  E  E  E  E  E   
----------------------------|--------------------------|
--10-----10-----7-----7-----|--9-----9-----9-----9-----|
------7------7-----7-----7--|-----7-----7-----7-----7--|
----------------------------|--------------------------|


   E  E   E  E   E   E   E   E     E  E  E  E  E  E  E  E   
--------------------------------|--------------------------|
--10-----10-----12------12------|--9-----9-----9-----9-----|
------7------7------10------10--|-----7-----7-----7-----7--|
--------------------------------|--------------------------|


   E  E   E  E  E  E  E  E     E  E  E  E  E  E  E  E   
----------------------------|--------------------------|
--10-----10-----7-----7-----|--9-----9-----9-----9-----|
------7------7-----7-----7--|-----7-----7-----7-----7--|
----------------------------|--------------------------|


  E  E  E  E  E  E  E  E     E  E  E  E  H           H        H         
--------------------------|-----------------------|--------------------|
--7-----7-----7-----7-----|-----------------------|--------------------|
-----7-----7-----7-----7--|-----------------------|--3-----------------|
--------------------------|--0--0--0--0--0--------|-----------5--------|


  E  E  E  E  H           H        H           E  E  E  E  H         
-----------------------|--------------------|-----------------------|
-----------------------|--------------------|-----------------------|
-----------------------|--3--------5--------|--------------7--------|
--0--0--0--0--0--------|--------------------|--0--0--0--0-----------|


  H        H           E  E  E  E  H           E  E  E  E  H         
--------------------|-----------------------|-----------------------|
--------------------|-----------------------|-----------------------|
--3-----------------|-----------------------|-----------------------|
-----------5--------|--0--0--0--0--0--------|--5--5--5--5--5--------|


  E  E  E  E  H           H        H           E  E  E  E  H         
-----------------------|--------------------|-----------------------|
-----------------------|--------------------|-----------------------|
--3--3--3--3--3--------|--2--------0--------|--3--3--3--3--3--------|
-----------------------|--------------------|-----------------------|


  H        H           E  E  E  E  H           H        H         
--------------------|-----------------------|--------------------|
--------------------|-----------------------|--------------------|
--2--------0--------|--3--3--3--3--3--------|--2--------0--------|
--------------------|-----------------------|--------------------|


  E  E  E  E  H           Q    H.              E  E  E  E  E  E  E  E   
-----------------------|--------------------|--------------------------|
-----------------------|--------------------|--9-----9-----9-----9-----|
--3--3--3--3--3--------|--2-----------------|-----7-----7-----7-----7--|
-----------------------|--------------------|--------------------------|


   E  E   E  E  E  E  E  E     E  E  E  E  E  E  E  E   
----------------------------|--------------------------|
--10-----10-----7-----7-----|--9-----9-----9-----9-----|
------7------7-----7-----7--|-----7-----7-----7-----7--|
----------------------------|--------------------------|


   E  E   E  E   E   E   E   E     E  E  E  E  E  E  E  E   
--------------------------------|--------------------------|
--10-----10-----12------12------|--9-----9-----9-----9-----|
------7------7------10------10--|-----7-----7-----7-----7--|
--------------------------------|--------------------------|


   E  E   E  E  E  E  E  E     E  E  E  E  E  E  E  E   
----------------------------|--------------------------|
--10-----10-----7-----7-----|--9-----9-----9-----9-----|
------7------7-----7-----7--|-----7-----7-----7-----7--|
----------------------------|--------------------------|


  E  E  E  E  E  E  E  E     E  E  E  E  E  E  E  E   
--------------------------|--------------------------|
--7-----7-----7-----7-----|--------------------------|
-----7-----7-----7-----7--|--7--7--7--7--7--7--7--7--|
--------------------------|--------------------------|


  E  E  E  E  E  E  E  E     E  E  E  E  H           E  E  E  E  E  E  E  E   
--------------------------|-----------------------|--------------------------|
--------------------------|-----------------------|--------------------------|
--5--5--5--5--7--7--7--7--|--------------7--------|--3--3--3--3--5--5--5--5--|
--------------------------|--0--0--0--0--0--------|--------------------------|


  E  E  E  E  E  E  E  E     E  E  E  E  E  E  E  E     E  E  E  E  H         
--------------------------|--------------------------|-----------------------|
--------------------------|--------------------------|-----------------------|
--7--7--7--7--7--7--7--7--|--5--5--5--5--7--7--7--7--|--------------7--------|
--------------------------|--------------------------|--0--0--0--0--0--------|


  E  E  E  E  E  E  E  E     E  E  E  E  H           H        H         
--------------------------|-----------------------|--------------------|
--------------------------|-----------------------|--------------------|
--3--3--3--3--5--5--5--5--|--------------7--------|--3--------5--------|
--------------------------|--0--0--0--0-----------|--------------------|


  E  E  E  E  H           H        H           E  E  E  E  H         
-----------------------|--------------------|-----------------------|
-----------------------|--------------------|-----------------------|
--------------7--------|--3--------5--------|--------------7--------|
--0--0--0--0-----------|--------------------|--0--0--0--0-----------|


  H        H           E  E  E  E  H           W                 
--------------------|-----------------------|-------------------|
--------------------|-----------------------|-------------------|
--3--------5--------|--------------7--------|--3----------------|
--------------------|--0--0--0--0-----------|-------------------|


  W                   H        H           W                 
-------------------|--------------------|-------------------|
-------------------|--------------------|-------------------|
--5----------------|--L--------7--------|--L----------------|
-------------------|--------------------|-------------------|


-------------------|-------------------|-----|-----||
-------------------|-------------------|-----|-----||
-------------------|-------------------|-----|-----||
-------------------|-------------------|-----|-----||




Duration Legend
---------------
W - whole
H - half
Q - quarter
E - 8th
S - 16th
T - 32nd
X - 64th
. - note dotted
|-n-|  - n-tuplets


Tablature Legend
----------------
L - tied note
x - dead note
g - grace note
(n) - ghost note
> - accentuded note
NH - natural harmonic
AH - artificial harmonic
TH - tapped harmonic
SH - semi harmonic
PH - pitch harmonic
h - hammer on
p - pull off
b - bend
br - bendRelease
pb - preBend
pbr - preBendRelease
brb - bendReleaseBend
\n/ - tremolo bar dip
\n - tremolo bar dive
-/n - tremolo bar Release up
/n\ - tremolo bar inverted dip
/n - tremolo bar return
-\n - tremolo bar Release down
S - shift slide
s - legato slide
/ -  slide into from below or out of upwards
\ -  slide into from above or out of downwards
~ - vibrato
W - wide vibrato
tr - trill
TP - tremolo picking
T - tapping
S - slap
P - pop
< - fade in
^ - brush up
v - brush down
comments
We did not receive enough feedback on this tab! Please rate:
print report bad tab
1 2 3 4 5
I want to post or [tab]
guest
You may want to rate the tab now too:
select rating
Please do not post tabs as comments. Select "correction" instead!