Oops, an error
Loading. Please wait.

Crimson Thunder Tab

ver1
ver1

Whole song

More versions @911Tabs.com
10,260 views 9 this week
no commentswrite comment
1 2 3 4 5
excellent!
x 6
Autoscroll
+/-
esc
set tempo
stop
Contributor
WARNING: You are trying to view
                                    content from Ultimate-Guitar.com
                                    in an unauthorized application,
                                    which is prohibited.

                                    Please use an official Ultimate
                                    Guitar Tabs application for iPhone,
                                    iPad or Android to access legitimate
                                    chords, guitar, bass, and drum tabs
                                    from Ultimate-Guitar.com database.

                                    Type "ultimate guitar tabs" in Apple
                                    App Store's or Android Market's
                                    search to find the application.
Band - Hammerfall
Song - Crimson Thunder

   Guitar 1
D#|-------|------------------|------------------|-------------------------|-------------------|
A#|-------|------------------|------------------|-------------------------|-------------------|
F#|-------|o-----------------|------------------|-------------------------|------------------o|
C#|-------|o-5h7-----8----7--|--5h7-----8--5-7--|--3h5-----7----5---3--5--|--5h7-----8----7--o|
G#|--12/--|--5---5-5-5--5-5--|--5---5-5-5--5-5--|--3---3-3-3--3-3---3--3--|--5-5-5-5-5--5-5---|
D#|--10/--|------------------|------------------|-------------------------|-------------------|
  |                                                                                           |
  |Guitar 2                                                                                   |
D#|-------|------------------|------------------|-------------------------|-------------------|
A#|-------|------------------|------------------|-------------------------|-------------------|
F#|-------|o-----------------|------------------|-------------------------|------------------o|
C#|-------|o-5h7-----8----7--|--5h7-----8----7--|--3h5-----7----5---3--5--|--5h7-----8----7--o|
G#|-------|--5-5-5-5-5--5-5--|--5-5-5-5-5--5-5--|--3-3-3-3-3--3-3---3--3--|--5-5-5-5-5--5-5---|
D#|-------|------------------|------------------|-------------------------|-------------------|


   Guitar 1
D#|------------------------------|------------------------------|-----------------------------|
A#|------------------------------|------------------------------|-----------------------------|
F#|o---------------10-9----9--7--|----------------10-9----9--7--|----------------9-7---7-10---|
C#|o-7--7-7-7--7-7-10-10---10-8--|--7--7-7-7--7-7-10-10---10-8--|--5--5-5-5--5-5-9-8---8-8----|
G#|--5--5-5-5--5-5---------------|--5--5-5-5--5-5---------------|--3--3-3-3--3-3--------------|
D#|------------------------------|------------------------------|-----------------------------|
  |                                                                                           |
  |Guitar 2                                                                                   |
D#|------------------------------|------------------------------|-----------------------------|
A#|------------------------------|------------------------------|-----------------------------|
F#|o---------------10-9----9--7--|----------------10-9----9--7--|--5--------------------------|
C#|o-7--7-7-7--7-7-10-10---10-8--|--7--7-7-7--7-7-10-10---10-8--|--5--------------------------|
G#|--5--5-5-5--5-5---------------|--5--5-5-5--5-5---------------|--3--------------------------|
D#|------------------------------|------------------------------|-----------------------------|


   Guitar 1
D#|---------------------------------|
A#|---------------------------------|
F#|----------------10-9----9--12---o|
C#|--7--7-7-7--7-7-10-10---10-10---o|
G#|--5--5-5-5--5-5------------------|
D#|---------------------------------|
  |                                 |
  |Guitar 2                         |
D#|---------------------------------|
A#|---------------------------------|
F#|----------------10-9----9--12---o|
C#|--7--7-7-7--7-7-10-10---10-10---o|
G#|--5--5-5-5--5-5------------------|
D#|---------------------------------|


   Guitar 1
D#|-----------------|----------------------------------|-----------------|--------------------|
A#|-----------------|----------------------------------|-----------------|--------------------|
F#|-----------------|----------------------------------|-----------------|----------9-----9/--|
C#|---3---------5---|------------------10-----5-----7--|---3---------5---|----------9-----9/--|
G#|---3---------5---|--5/7-----7-------10-----5-----7--|---3---------5---|----------7-----7/--|
D#|---1---------3---|--3/5-5-5-5---5-5-8------3-----5--|---1---------3---|--0-0-0-0---0-0-----|
  |                                                                                           |
  |Guitar 2                                                                                   |
D#|-----------------|----------------------------------|-----------------|--------------------|
A#|-----------------|----------------------------------|-----------------|--------------------|
F#|-----------------|----------------------------------|-----------------|----------9-----9/--|
C#|---3---------5---|------------------10-----5-----7--|---3---------5---|----------9-----9/--|
G#|---3---------5---|--5/7-----7-------10-----5-----7--|---3---------5---|----------7-----7/--|
D#|---1---------3---|--3/5-5-5-5---5-5-8------3-----5--|---1---------3---|--0-0-0-0---0-0-----|


   Guitar 1
D#|-----|----------------|---------------------|-------------------------|--------------------|
A#|-----|----------------|---------------------|-------------------------|--------------------|
F#|-----|----------------|-------------7-------|-------------------------|--------------------|
C#|--4--|--5----------7--|--4----------7----4--|-------------------------|--7--------------4--|
G#|--2--|--5----------7--|--2----------5----2--|----2--2--4--5--4--2--0--|--5--------------4--|
D#|--2--|--3----------5--|--2---------------2--|-------------------------|--5--------------2--|
  |                                                                                           |
  |Guitar 2                                                                                   |
D#|-----|----------------|---------------------|-------------------------|--------------------|
A#|-----|----------------|---------------------|-------------------------|--------------------|
F#|-----|----------------|-------------7-------|-------------------------|--------------------|
C#|--4--|--5----------7--|--4----------7----4--|-------------------------|--7--------------4--|
G#|--2--|--5----------7--|--2----------5----2--|----2--2--4--5--4--2--0--|--5--------------4--|
D#|--2--|--3----------5--|--2---------------2--|-------------------------|--5--------------2--|


   Guitar 1
D#|-------------------|-----|------------------|------------------|---------------------------|
A#|-------------------|-----|------------------|------------------|---------------------------|
F#|-------------------|--5--|------------------|------------------|---------------------------|
C#|--5-------------7--|--5--|--5h7-----8----7--|--5h7-----8----7--|--3h5-----7----5-----3--5--|
G#|--5-------------7--|--3--|--5---5-5-5--5-5--|--5---5-5-5--5-5--|--3---3-3-3--3-3-----3--3--|
D#|--3-------------5--|-----|------------------|------------------|---------------------------|
  |                                                                                           |
  |Guitar 2                                                                                   |
D#|-------------------|-----|------------------|------------------|---------------------------|
A#|-------------------|-----|------------------|------------------|---------------------------|
F#|-------------------|--5--|------------------|------------------|---------------------------|
C#|--5-------------7--|--5--|--5h7-----8----7--|--5h7-----8----7--|--3h5-----7----5-----3--5--|
G#|--5-------------7--|--3--|--5-5-5-5-5--5-5--|--5-5-5-5-5--5-5--|--3-3-3-3-3--3-3-----3--3--|
D#|--3-------------5--|-----|------------------|------------------|---------------------------|


   Guitar 1
D#|------------------|------------------------------|-------------------------------|
A#|------------------|------------------------------|-------------------------------|
F#|------------------|----------------10-9----9--7--|----------------10-9----9--7---|
C#|--5h7-----8----7--|--7--7-7-7--7-7-10-10---10-8--|--7--7-7-7--7-7-10-10---10-8---|
G#|--5---5-5-5--5-5--|--5--5-5-5--5-5---------------|--5--5-5-5--5-5----------------|
D#|------------------|------------------------------|-------------------------------|
  |                                                                                 |
  |Guitar 2                                                                         |
D#|------------------|------------------------------|-------------------------------|
A#|------------------|--3---------------------------|-------------------------------|
F#|------------------|--2---------------------------|-------------------------------|
C#|--5h7-----8----7--|--0---------------------------|-------------------------------|
G#|--5-5-5-5-5--5-5--|------------------------------|-------------------------------|
D#|------------------|------------------------------|-------------------------------|


   Guitar 1
D#|-------------------------------|---------------------------------|
A#|-------------------------------|---------------------------------|
F#|------------------9-7---7-10---|------------------10-9----9--12--|
C#|----5--5-5-5--5-5-9-8---8-8----|----7--7-7-7--7-7-10-10---10-10--|
G#|----3--3-3-3--3-3--------------|----5--5-5-5--5-5----------------|
D#|-------------------------------|---------------------------------|
  |                                                                 |
  |Guitar 2                                                         |
D#|-------------------------------|---------------------------------|
A#|-------------------------------|----3----------------------------|
F#|----5--------------------------|----2----------------------------|
C#|----5--------------------------|----0----------------------------|
G#|----3--------------------------|---------------------------------|
D#|-------------------------------|---------------------------------|


   Guitar 1
D#|-------------------------------|------------------------------|----------------------------|
A#|-------------------------------|------------------------------|----------------------------|
F#|o----------------10-9----9--7--|----------------10-9----9--7--|----------------9-7---7-10--|
C#|o--7--7-7-7--7-7-10-10---10-8--|--7--7-7-7--7-7-10-10---10-8--|--5--5-5-5--5-5-9-8---8-8---|
G#|---5--5-5-5--5-5---------------|--5--5-5-5--5-5---------------|--3--3-3-3--3-3-------------|
D#|-------------------------------|------------------------------|----------------------------|
  |                                                                                           |
  |Guitar 2                                                                                   |
D#|-------------------------------|------------------------------|----------------------------|
A#|-------------------------------|------------------------------|----------------------------|
F#|o----------------10-9----9--7--|----------------10-9----9--7--|--5-------------------------|
C#|o--7--7-7-7--7-7-10-10---10-8--|--7--7-7-7--7-7-10-10---10-8--|--5-------------------------|
G#|---5--5-5-5--5-5---------------|--5--5-5-5--5-5---------------|--3-------------------------|
D#|-------------------------------|------------------------------|----------------------------|


   Guitar 1
D#|-------------------------------||-------------|-------------------------------|------------|
A#|-------------------------------||-------------|-------------------------------|------------|
F#|----------------10-9----9--12-o||-------------|-------------------------------|------------|
C#|--7--7-7-7--7-7-10-10---10-10-o||--3-------5--|-----------------10----5----7--|--3------5--|
G#|--5--5-5-5--5-5----------------||--3-------5--|--5/7-----7------10----5----7--|--3------5--|
D#|-------------------------------||--1-------3--|--3/5-5-5-5--5-5-8-----3----5--|--1------3--|
  |                                                                                           |
  |Guitar 2                                                                                   |
D#|-------------------------------||-------------|-------------------------------|------------|
A#|-------------------------------||-------------|-------------------------------|------------|
F#|----------------10-9----9--12-o||-------------|-------------------------------|------------|
C#|--7--7-7-7--7-7-10-10---10-10-o||--3-------5--|-----------------10----5----7--|--3------5--|
G#|--5--5-5-5--5-5----------------||--3-------5--|--5/7-----7------10----5----7--|--3------5--|
D#|-------------------------------||--1-------3--|--3/5-5-5-5--5-5-8-----3----5--|--1------3--|


   Guitar 1
D#|------------------------|-----|--------------|---------------------|-----------------------|
A#|------------------------|-----|--------------|---------------------|-----------------------|
F#|----------9-----9/------|-----|--------------|-------------7-------|-----------------------|
C#|----------9-----9/------|--4--|--5--------7--|--4----------7----4--|-----------------------|
G#|----------7-----7/------|--2--|--5--------7--|--2----------5----2--|--2--2--4--5--4--2--0--|
D#|--0-0-0-0---0-0---------|--2--|--3--------5--|--2---------------2--|-----------------------|
  |                                                                                           |
  |Guitar 2                                                                                   |
D#|------------------------|-----|--------------|---------------------|-----------------------|
A#|------------------------|-----|--------------|---------------------|-----------------------|
F#|----------9-----9/------|-----|--------------|-------------7-------|-----------------------|
C#|----------9-----9/------|--4--|--5--------7--|--4----------7----4--|-----------------------|
G#|----------7-----7/------|--2--|--5--------7--|--2----------5----2--|--2--2--4--5--4--2--0--|
D#|--0-0-0-0---0-0---------|--2--|--3--------5--|--2---------------2--|-----------------------|


   Guitar 1
D#|-----------------|--------------------|-----|--------------------------|-------------------|
A#|-----------------|--------------------|-----|--------------------------|-------------------|
F#|-----------------|--------------------|--5--|o--5h7-----8----7---------|--5h7-----8----7--o|
C#|--7-----------4--|--5--------------7--|--5--|o--5---5-5-5--5-5---------|--5---5-5-5--5-5--o|
G#|--5-----------4--|--5--------------7--|--3--|--------------------------|-------------------|
D#|--5-----------2--|--3--------------5--|-----|--------------------------|-------------------|
  |                                                                                           |
  |Guitar 2                                                                                   |
D#|-----------------|--------------------|-----|--------------------------|-------------------|
A#|-----------------|--------------------|-----|--------------------------|-------------------|
F#|-----------------|--------------------|--5--|o-------------------------|------------------o|
C#|--7-----------4--|--5--------------7--|--5--|o--5----------------------|------------------o|
G#|--5-----------4--|--5--------------7--|--3--|---5----------------------|-------------------|
D#|--5-----------2--|--3--------------5--|-----|---3----------------------|-------------------|


   Guitar 1
D#|-----------------------------|-------------------------------|-----------------------12-14-|
A#|-----------------------------|-------------------------------|-15b-----15p12-15~-----------|
F#|--14b----------14p12-14b-----|--14-12-11h12p11h12p11h12------|-----------------------------|
C#|-----------------------------|--------------------------14~--|-----------------------------|
G#|-----------------------------|-------------------------------|-----------------------------|
D#|-----------------------------|-------------------------------|-----------------------------|
  |                                                                                           |
  |Guitar 2                                                                                   |
D#|-----------------------------|-------------------------------|-----------------------------|
A#|-----------------------------|-------------------------------|-----------------------------|
F#|-----------------------------|-------------------------------|-----------------------------|
C#|--2------------2-2-----------|--2-2-----------2-2------------|-2------------2-2------------|
G#|--2------------3-2-----------|--3-2-----------3-2----0-------|-2------------3-2------------|
D#|--0--0--0--0-0-----0--0--0-0-|------0--0--0-0-----0----3-2-0-|-0--0--0--0-0-----0--0--0-0--|


   Guitar 1
D#|--15-14-12--------------------------------|
A#|-----------15-13-12-15-13-12----12-13-15~-|
F#|-----------------------------14-----------|
C#|------------------------------------------|
G#|------------------------------------------|
D#|------------------------------------------|
  |                                          
  |Guitar 2                                  
D#|-------------------------------|
A#|-------------------------------|
F#|-------------------------------|
C#|--2-2--------------------------|
G#|--3-2-------------0-2-3-3--2-0-|
D#|------0--0--0-0-0--------------|


   Guitar 1
D#|--15p12p7-15p12p7-15p12p7-15p12p7-14p11p7-14p11p7-14p11p7-14p11p7-|
A#|------------------------------------------------------------------|
F#|------------------------------------------------------------------|
C#|------------------------------------------------------------------|
G#|------------------------------------------------------------------|
D#|------------------------------------------------------------------|
  |                             
  |Guitar 2                     
D#|-----------------------------|
A#|-----------------------------|
F#|-----------------------------|
C#|--2------------2-2-----------|
G#|--2------------3p2-----------|
D#|--0--0--0--0-0-----0--0--0-0-|


   Guitar 1
D#|--20p14p11-20p14p11-20p14p11-20p14p11-19p15p12-19p15p12-19p15p12-19p15p12-|
A#|--------------------------------------------------------------------------|
F#|--------------------------------------------------------------------------|
C#|--------------------------------------------------------------------------|
G#|--------------------------------------------------------------------------|
D#|--------------------------------------------------------------------------|
  |                               
  |Guitar 2                       
D#|-------------------------------|
A#|-------------------------------|
F#|-------------------------------|
C#|--2-2-----------2-2------------|
G#|--3-2-----------3-2----0-------|
D#|------0--0--0-0-----0----3-2-0-|


   Guitar 1
D#|--17~-----15h17p15---------15-17-|
A#|-------------------17~-----------|
F#|---------------------------------|
C#|---------------------------------|
G#|---------------------------------|
D#|---------------------------------|
  |                             
  |Guitar 2                     
D#|-----------------------------|
A#|-----------------------------|
F#|-----------------------------|
C#|--2------------2-2-----------|
G#|--2------------3p2-----------|
D#|--0--0--0--0-0-----0--0--0-0-|


   Guitar 1
D#|--19-17-15-17-15-14-15-14-12-14-12-12-------------------------------------------------|
A#|--------------------------------------15-13-12----13-12-------------------------------|
F#|-----------------------------------------------14-------14-12-14-12-11----------------|
C#|-----------------------------------------------------------------------14-12-10-------|
G#|--------------------------------------------------------------------------------14-12-|
D#|--------------------------------------------------------------------------------------|
  |                               
  |Guitar 2                       
D#|-------------------------------|
A#|-------------------------------|
F#|-------------------------------|
C#|--2-2--------------------------|
G#|--3-2-------------0-2-3-3--2-0-|
D#|------0--0--0-0-0--------------|


   Guitar 1
D#|-------------|-------------------------------|-------------|--------------------|-----|
A#|-------------|-------------------------------|-------------|--------------------|-----|
F#|--10~--------|-------------------------------|-------------|----------9-----9/--|-----|
C#|-------------|-----------------10----5----7--|--3-------5--|----------9-----9/--|-----|
G#|-------------|--5/7-----7------10----5----7--|--3-------5--|----------7-----7/--|-----|
D#|-------------|--3/5-5-5-5--5-5-8-----3----5--|--1-------3--|--0-0-0-0---0-0-----|-----|
  |                                                                                      |
  |Guitar 2                                                                              |
D#|-------------|-------------------------------|-------------|--------------------|-----|
A#|-------------|-------------------------------|-------------|--------------------|-----|
F#|-------------|-------------------------------|-------------|----------9-----9/--|--4--|
C#|--3-------5--|-----------------10----5----7--|--3-------5--|----------9-----9/--|--4--|
G#|--3-------5--|--5/7-----7------10----5----7--|--3-------5--|----------7-----7/--|--2--|
D#|--1-------3--|--3/5-5-5-5--5-5-8-----3----5--|--1-------3--|--0-0-0-0---0-0-----|-----|


   Guitar 1
D#|-----------|-------------------|-------------------|--------------------------|-------|
A#|-----------|-------------------|-------------------|--------------------------|-------|
F#|-----------|--7----------------|-------------------|--------------------------|--5-5--|
C#|--12----9--|--7----------------|--4----------------|-----------------------7--|--5-5--|
G#|--12----9--|--5----------------|--4----------------|--------------5--5--5--7--|--3-3--|
D#|--10----7--|-------------------|--2----------------|--3--3--3--3--3--3--3--5--|-------|
  |                                                                                      |
  |Guitar 2                                                                              |
D#|-----------|-------------------|-------------------|--------------------------|-------|
A#|-----------|-------------------|-------------------|--------------------------|-------|
F#|-----------|-------------------|-------------------|--------------------------|-------|
C#|-----------|-------------------|-------------------|--------------------------|-------|
G#|-----------|-------------------|-------------------|--------------------------|-------|
D#|-----------|-------------------|-------------------|--------------------------|-------|


   Guitar 1
D#|------|--------------|---------------------|-----------------------|------------------|
A#|------|--------------|---------------------|-----------------------|------------------|
F#|o-----|--------------|-------------7-------|-----------------------|------------------|
C#|o--4--|--5--------7--|--4----------7----4--|-----------------------|--7------------4--|
G#|---2--|--5--------7--|--2----------5----2--|--2--2--4--5--4--2--0--|--5------------4--|
D#|---2--|--3--------5--|--2---------------2--|-----------------------|--5------------2--|
  |                                                                                      |
  |Guitar 2                                                                              |
D#|------|--------------|---------------------|-----------------------|------------------|
A#|------|--------------|---------------------|-----------------------|------------------|
F#|o-----|--------------|-------------7-------|-----------------------|------------------|
C#|o--4--|--5--------7--|--4----------7----4--|-----------------------|--7------------4--|
G#|---2--|--5--------7--|--2----------5----2--|--2--2--4--5--4--2--0--|--5------------4--|
D#|---2--|--3--------5--|--2---------------2--|-----------------------|--5------------2--|


   Guitar 1
D#|-------|----|------------------|------------------|------------------|----------------|
A#|-------|----|------------------|------------------|------------------|----------------|
F#|-------|-5-o|--5h7-----8----7--|--5h7-----8----7--|--5h7-----8----7--|-5h7-----8----7-|
C#|-5---7-|-5-o|--5---5-5-5--5-5--|--5---5-5-5--5-5--|--5---5-5-5--5-5--|-5---5-5-5--5-5-|
G#|-5---7-|-3--|------------------|------------------|------------------|----------------|
D#|-3---5-|----|------------------|------------------|------------------|----------------|
  |                                                                                      |
  |Guitar 2                                                                              |
D#|-------|----|------------------|------------------|------------------|----------------|
A#|-------|----|------------------|------------------|------------------|----------------|
F#|-------|-5-o|------------------|------------------|------------------|-5h7-----8--5-7-|
C#|-5---7-|-5-o|--5---------------|------------------|--5---------------|-5---5-5-5--5-5-|
G#|-5---7-|-3--|--5---------------|------------------|--5---------------|----------------|
D#|-3---5-|----|--3---------------|------------------|--3---------------|----------------|
I want to post or [tab]
guest
You may want to rate the tab now too:
select rating
Please do not post tabs as comments. Select "correction" instead!