Oops, an error
Loading. Please wait.

Dreams Come True Bass Tab

549 views 1 this week
no commentswrite comment
1 2 3 4 5
please rate
Autoscroll
+/-
esc
set tempo
stop
Contributor
Tuning
D# G# C# F# A# D#
WARNING: You are trying to view
                                    content from Ultimate-Guitar.com
                                    in an unauthorized application,
                                    which is prohibited.

                                    Please use an official Ultimate
                                    Guitar Tabs application for iPhone,
                                    iPad or Android to access legitimate
                                    chords, guitar, bass, and drum tabs
                                    from Ultimate-Guitar.com database.

                                    Type "ultimate guitar tabs" in Apple
                                    App Store's or Android Market's
                                    search to find the application.
Dreams Come True                                 


HammerFall
Bass (D# G# C# F#)
http://gtp3.narod.ru



      W                   W                   W                 
F#||-------------------|-------------------|-------------------|
C#||-------------------|-------------------|-------------------|
G#||-------------------|-------------------|--3----------------|
D#||--5----------------|--L----------------|-------------------|


  W                   W                   W                   W                 
-------------------|-------------------|-------------------|-------------------|
-------------------|-------------------|-------------------|-------------------|
-------------------|-------------------|-------------------|-------------------|
--3----------------|--5----------------|--L----------------|--0----------------|


  H        H           W                   W                 
--------------------|-------------------|-------------------|
--------------------|-------------------|-------------------|
--------------------|-------------------|-------------------|
--0--------3--------|--5----------------|--L----------------|


  W                   H        H           W                 
-------------------|--------------------|-------------------|
-------------------|--------------------|-------------------|
--5----------------|--3--------0--------|-------------------|
-------------------|--------------------|--3----------------|


  W                   W                   H        H         
-------------------|-------------------|--------------------|
-------------------|-------------------|--------------------|
-------------------|-------------------|--------------------|
--L----------------|--0----------------|--0--------3--------|


  W                   W                   W                 
-------------------|-------------------|-------------------|
-------------------|-------------------|-------------------|
-------------------|-------------------|--5----------------|
--5----------------|--L----------------|-------------------|


  H        H           W                   W                 
--------------------|-------------------|-------------------|
--------------------|-------------------|-------------------|
--3--------0--------|-------------------|-------------------|
--------------------|--3----------------|--L----------------|


  W                   Q    Q    Q    Q       W                 
-------------------|----------------------|-------------------|
-------------------|----------------------|-------------------|
-------------------|----------------------|-------------------|
--5----------------|--5----5---------5----|--0----------------|


  Q    Q    Q    Q       W                   Q    Q    Q    Q     
----------------------|-------------------|----------------------|
----------------------|-------------------|----------------------|
----------------------|--5----------------|--5----5---------5----|
--0----0---------0----|-------------------|----------------------|


  W                   Q    Q    Q    Q       W                 
-------------------|----------------------|-------------------|
-------------------|----------------------|-------------------|
-------------------|----------------------|-------------------|
--3----------------|--3----3---------3----|--5----------------|


  Q    Q    Q    Q       W                   Q    Q    Q    Q     
----------------------|-------------------|----------------------|
----------------------|-------------------|----------------------|
-----------------7----|-------------------|-----------------5----|
--5----5----5---------|--3----------------|--3----3----3---------|


  W                   Q    Q    Q    Q       H        Q    E  E   
-------------------|----------------------|----------------------|
-------------------|-----------------7----|----------------------|
--5----------------|--5----5----5---------|--3-------------3--0--|
-------------------|----------------------|----------------------|


  H        H           W                   Q    Q    Q    Q     
--------------------|-------------------|----------------------|
--------------------|-------------------|-----------------5----|
--------------------|--3----------------|--3----3----3---------|
--3--------5--------|-------------------|----------------------|


  W                   Q    Q    Q    Q       W                 
-------------------|----------------------|-------------------|
-------------------|----------------------|-------------------|
-------------------|-----------------5----|-------------------|
--3----------------|--3----3----3---------|--5----------------|


  Q    Q    Q    Q       H        Q    Q       H        Q    Q     
----------------------|---------------------|---------------------|
----------------------|----------------7----|---------------------|
-----------------7----|--5--------5---------|----------------5----|
--5----5----5---------|---------------------|--3--------3---------|


  H        Q    Q       H        Q    Q       W                 
---------------------|---------------------|-------------------|
---------------------|---------------------|-------------------|
----------------7----|-----------3---------|-------------------|
--5--------5---------|--5-------------3----|--0----------------|


  W                   W                   H        H         
-------------------|-------------------|--------------------|
-------------------|-------------------|--------------------|
-------------------|-------------------|--------------------|
--L----------------|--0----------------|--0--------3--------|


  W                   W                   W                 
-------------------|-------------------|-------------------|
-------------------|-------------------|-------------------|
-------------------|-------------------|--5----------------|
--5----------------|--L----------------|-------------------|


  H        H           W                   W                 
--------------------|-------------------|-------------------|
--------------------|-------------------|-------------------|
--3--------0--------|-------------------|-------------------|
--------------------|--3----------------|--L----------------|


  W                   H        H           W                 
-------------------|--------------------|-------------------|
-------------------|--------------------|-------------------|
-------------------|--------------------|-------------------|
--0----------------|--0--------3--------|--5----------------|


  W                   W                   H        H         
-------------------|-------------------|--------------------|
-------------------|-------------------|--------------------|
-------------------|--5----------------|--3--------0--------|
--L----------------|-------------------|--------------------|


  W                   W                   W                 
-------------------|-------------------|-------------------|
-------------------|-------------------|-------------------|
-------------------|-------------------|-------------------|
--3----------------|--L----------------|--5----------------|


  Q    Q    Q    Q       W                   Q    Q    Q    Q     
----------------------|-------------------|----------------------|
----------------------|-------------------|----------------------|
----------------------|-------------------|----------------------|
--5----5---------5----|--0----------------|--0----0---------0----|


  W                   Q    Q    Q    Q       W                 
-------------------|----------------------|-------------------|
-------------------|----------------------|-------------------|
--5----------------|--5----5---------5----|-------------------|
-------------------|----------------------|--3----------------|


  Q    Q    Q    Q       W                   Q    Q    Q    Q     
----------------------|-------------------|----------------------|
----------------------|-------------------|----------------------|
----------------------|-------------------|-----------------7----|
--3----3---------3----|--5----------------|--5----5----5---------|


  W                   Q    Q    Q    Q       W                 
-------------------|----------------------|-------------------|
-------------------|----------------------|-------------------|
-------------------|-----------------5----|--5----------------|
--3----------------|--3----3----3---------|-------------------|


  Q    Q    Q    Q       H        Q    E  E     H        H         
----------------------|----------------------|--------------------|
-----------------7----|----------------------|--------------------|
--5----5----5---------|--3-------------3--0--|--------------------|
----------------------|----------------------|--3--------5--------|


  W                   Q    Q    Q    Q       W                 
-------------------|----------------------|-------------------|
-------------------|-----------------5----|-------------------|
--3----------------|--3----3----3---------|-------------------|
-------------------|----------------------|--3----------------|


  Q    Q    Q    Q       W                   Q    Q    Q    Q     
----------------------|-------------------|----------------------|
----------------------|-------------------|----------------------|
-----------------5----|-------------------|-----------------7----|
--3----3----3---------|--5----------------|--5----5----5---------|


  H        Q    Q       H        Q    Q       H        Q    Q     
---------------------|---------------------|---------------------|
----------------7----|---------------------|---------------------|
--5--------5---------|----------------5----|----------------7----|
---------------------|--3--------3---------|--5--------5---------|


  H        Q    Q       W                   W                 
---------------------|-------------------|-------------------|
---------------------|-------------------|-------------------|
-----------3---------|-------------------|-------------------|
--5-------------3----|--0----------------|--L----------------|


  W                   H        H           W                 
-------------------|--------------------|-------------------|
-------------------|--------------------|-------------------|
-------------------|--------------------|-------------------|
--0----------------|--0--------3--------|--5----------------|


  W                   W                   H        H         
-------------------|-------------------|--------------------|
-------------------|-------------------|--------------------|
-------------------|--5----------------|--3--------0--------|
--L----------------|-------------------|--------------------|


  W                   W                   W                 
-------------------|-------------------|-------------------|
-------------------|-------------------|-------------------|
-------------------|-------------------|-------------------|
--3----------------|--L----------------|--0----------------|


  H        H           W                   W                 
--------------------|-------------------|-------------------|
--------------------|-------------------|-------------------|
--------------------|-------------------|-------------------|
--0--------3--------|--5----------------|--L----------------|


  W                   H        H           W                 
-------------------|--------------------|-------------------|
-------------------|--------------------|-------------------|
--5----------------|--3--------0--------|-------------------|
-------------------|--------------------|--3----------------|


  W                   W                   Q    Q    Q    Q     
-------------------|-------------------|----------------------|
-------------------|-------------------|----------------------|
-------------------|-------------------|----------------------|
--L----------------|--5----------------|--5----5---------5----|


  W                   Q    Q    Q    Q       W                 
-------------------|----------------------|-------------------|
-------------------|----------------------|-------------------|
-------------------|----------------------|--5----------------|
--0----------------|--0----0---------0----|-------------------|


  Q    Q    Q    Q       W                   Q    Q    Q    Q     
----------------------|-------------------|----------------------|
----------------------|-------------------|----------------------|
--5----5---------5----|-------------------|----------------------|
----------------------|--3----------------|--3----3---------3----|


  W                   Q    Q    Q    Q       W                 
-------------------|----------------------|-------------------|
-------------------|----------------------|-------------------|
-------------------|-----------------7----|-------------------|
--5----------------|--5----5----5---------|--3----------------|


  Q    Q    Q    Q       W                   Q    Q    Q    Q     
----------------------|-------------------|----------------------|
----------------------|-------------------|-----------------7----|
-----------------5----|--5----------------|--5----5----5---------|
--3----3----3---------|-------------------|----------------------|


  H        Q    E  E     H        H           W                 
----------------------|--------------------|-------------------|
----------------------|--------------------|-------------------|
--3-------------3--0--|--------------------|--3----------------|
----------------------|--3--------5--------|-------------------|


  Q    Q    Q    Q       W                   Q    Q    Q    Q     
----------------------|-------------------|----------------------|
-----------------5----|-------------------|----------------------|
--3----3----3---------|-------------------|-----------------5----|
----------------------|--3----------------|--3----3----3---------|


  W                   Q    Q    Q    Q       H        Q    Q     
-------------------|----------------------|---------------------|
-------------------|----------------------|----------------7----|
-------------------|-----------------7----|--5--------5---------|
--5----------------|--5----5----5---------|---------------------|


  H        Q    Q       H        Q    Q       H        Q    Q     
---------------------|---------------------|---------------------|
---------------------|---------------------|---------------------|
----------------5----|----------------7----|-----------3---------|
--3--------3---------|--5--------5---------|--5-------------3----|


  W                   W                  
-------------------|-------------------||
-------------------|-------------------||
-------------------|-------------------||
--0----------------|--L----------------||




Duration Legend
---------------
W - whole
H - half
Q - quarter
E - 8th
S - 16th
T - 32nd
X - 64th
. - note dotted
|-n-|  - n-tuplets


Tablature Legend
----------------
L - tied note
x - dead note
g - grace note
(n) - ghost note
> - accentuded note
NH - natural harmonic
AH - artificial harmonic
TH - tapped harmonic
SH - semi harmonic
PH - pitch harmonic
h - hammer on
p - pull off
b - bend
br - bendRelease
pb - preBend
pbr - preBendRelease
brb - bendReleaseBend
\n/ - tremolo bar dip
\n - tremolo bar dive
-/n - tremolo bar Release up
/n\ - tremolo bar inverted dip
/n - tremolo bar return
-\n - tremolo bar Release down
S - shift slide
s - legato slide
/ -  slide into from below or out of upwards
\ -  slide into from above or out of downwards
~ - vibrato
W - wide vibrato
tr - trill
TP - tremolo picking
T - tapping
S - slap
P - pop
< - fade in
^ - brush up
v - brush down
comments
We did not receive enough feedback on this tab! Please rate:
print report bad tab
1 2 3 4 5
I want to post or [tab]
guest
You may want to rate the tab now too:
select rating
Please do not post tabs as comments. Select "correction" instead!