Oops, an error
Loading. Please wait.

Fire Burns Forever Bass Tab

ver1
ver1

Whole song

Interactive

More versions @911Tabs.com
482 views 1 this week
no commentswrite comment
1 2 3 4 5
please rate
Autoscroll
+/-
esc
set tempo
stop
Contributor
Hey! There's an official Ultimate Guitar app which is ideal
for learning songs when you're away from computer. Get the app
WARNING: You are trying to view
                                    content from Ultimate-Guitar.com
                                    in an unauthorized application,
                                    which is prohibited.

                                    Please use an official Ultimate
                                    Guitar Tabs application for iPhone,
                                    iPad or Android to access legitimate
                                    chords, guitar, bass, and drum tabs
                                    from Ultimate-Guitar.com database.

                                    Type "ultimate guitar tabs" in Apple
                                    App Store's or Android Market's
                                    search to find the application.
Fire Burns Forever

Transcribed by metal_guy

Magnus Rosén (A# D# G# C# F#)

      H.           E  E     W                   H.           E  E   
F#||---------------------|-------------------|---------------------|
C#||---------------------|-------------------|---------------------|
G#||---------------------|-------------------|---------------------|
D#||--5------------L--5--|--L----------------|--5------------L--5--|
A#||---------------------|-------------------|---------------------|


  W                   H.           E  E     W                 
-------------------|---------------------|-------------------|
-------------------|---------------------|-------------------|
-------------------|---------------------|-------------------|
--L----------------|--5------------L--5--|--L----------------|
-------------------|---------------------|-------------------|


  H.           E  E     W                   Q    Q    Q    E  E   
---------------------|-------------------|-----------------------|
---------------------|-------------------|-----------------------|
---------------------|-------------------|-----------------------|
--3------------L--4--|--L----------------|--5----5----5----5--5--|
---------------------|-------------------|-----------------------|


  Q    Q    Q    Q       Q    Q    Q    E  E     Q    Q    Q    Q     
----------------------|-----------------------|----------------------|
----------------------|-----------------------|----------------------|
----------------------|-----------------------|----------------------|
--5----5----5----5----|--5----5----5----5--5--|--5----5----5----5----|
----------------------|-----------------------|----------------------|


  Q    Q    Q    E  E     Q    Q    Q    Q       Q    Q    Q    E  E   
-----------------------|----------------------|-----------------------|
-----------------------|----------------------|-----------------------|
-----------------------|----------------------|-----------------------|
--5----5----5----5--5--|--5----5----5----5----|--3----3----3----3--4--|
-----------------------|----------------------|-----------------------|


  Q    Q    H           E  E  E  E  E  E  E  E     E  E  E  E  E  E  E  E   
---------------------|--------------------------|--------------------------|
---------------------|--------------------------|--------------------------|
---------------------|--------------------------|--------------------------|
--4----4----4--------|--5--5--5--5--5--5--5--5--|--5--5--5--5--5--5--5--5--|
---------------------|--------------------------|--------------------------|


  E  E  E  E  E  E  E  E     E  E  E  E  E  E  E  E   
--------------------------|--------------------------|
--------------------------|--------------------------|
--------------------------|--------------------------|
--5--5--5--5--5--5--5--5--|--5--5--5--5--5--5--5--5--|
--------------------------|--------------------------|


  E  E  E  E  E  E  E  E     E  E  E  E  E  E  E  E   
--------------------------|--------------------------|
--------------------------|--------------------------|
--------------------------|--------------------------|
--1--1--1--1--1--1--1--1--|--1--1--1--1--1--1--1--1--|
--------------------------|--------------------------|


  E  E  E  E  E  E  E  E     Q    Q    Q    E  E     E  E  E  E  E  E  E  E   
--------------------------|-----------------------|--------------------------|
--------------------------|-----------------------|--------------------------|
--------------------------|-----------------------|--------------------------|
--1--1--1--1--1--1--1--1--|--5----5----1----1--5--|--L--5--5--5--5--5--5--5--|
--------------------------|-----------------------|--------------------------|


  E  E  E  E  E  E  E  E     E  E  E  E  E  E  E  E   
--------------------------|--------------------------|
--------------------------|--------------------------|
--------------------------|--------------------------|
--3--3--3--3--3--3--3--3--|--3--3--3--3--3--3--3--3--|
--------------------------|--------------------------|


  E  E  E  E  E  E  E  E     E  E  E  E  E  E  E  E   
--------------------------|--------------------------|
--------------------------|--------------------------|
--------------------------|--------------------------|
--5--5--5--5--5--5--5--5--|--5--5--5--5--5--5--5--5--|
--------------------------|--------------------------|


  E  E  E  E  E  E  E  E     E  E  E  E  E  E  E  E   
--------------------------|--------------------------|
--------------------------|--------------------------|
--8--8--8--8--8--8--8--8--|--8--8--8--8--8--8--8--8--|
--------------------------|--------------------------|
--------------------------|--------------------------|


  E  E  E  E  E  E  E  E     E  E  E  E  E  E  E  E   
--------------------------|--------------------------|
--------------------------|--------------------------|
--7--7--7--7--7--7--7--7--|--7--7--7--7--7--7--7--7--|
--------------------------|--------------------------|
--------------------------|--------------------------|


  E  E  E  E  E  E  E  E     E  E  E  E  E  E  E  E   
--------------------------|--------------------------|
--------------------------|--------------------------|
--------------------------|--------------------------|
--5--5--5--5--5--5--5--5--|--5--5--5--5--5--5--5--5--|
--------------------------|--------------------------|


  E  E  E  E  E  E  E  E     E  E  E  E  E  E  E  E   
--------------------------|--------------------------|
--------------------------|--------------------------|
--------------------------|--------------------------|
--5--5--5--5--5--5--5--5--|--5--5--5--5--5--5--5--5--|
--------------------------|--------------------------|


  E  E  E  E  E  E  E  E     E  E  E  E  E  E  E  E   
--------------------------|--------------------------|
--------------------------|--------------------------|
--------------------------|--------------------------|
--5--5--5--5--5--5--5--5--|--5--5--5--5--5--5--5--5--|
--------------------------|--------------------------|


  E  E  E  E  E  E  E  E     E  E  E  E  E  E  E  E   
--------------------------|--------------------------|
--------------------------|--------------------------|
--------------------------|--------------------------|
--3--3--3--3--3--3--3--4--|--4--4--4--4--4--4--4--4--|
--------------------------|--------------------------|


  E  E  E  E  E  E  E  E     E  E  E  E  E  E  E  E     Q    Q    Q    Q     
--------------------------|--------------------------|----------------------|
--------------------------|--------------------------|----------------------|
--------------------------|--------------------------|----------------------|
--5--5--5--5--5--5--5--5--|--5--5--5--5--5--5--5--5--|--5-------------------|
--------------------------|--------------------------|----------------------|


W       E  E  H.              Q    Q    Q    Q       E  E  E  E  E  E  E E   
-----|---------------------|----------------------|--------------------------|
-----|---------------------|----------------------|--------------------------|
-----|---------------------|----------------------|--------------------------|
-----|--5--5---------------|-----------------5----|--1--1--1--1--1--1--1--1--|
-----|---------------------|----------------------|--------------------------|


  E  E  E  E  E  E  E  E     E  E  E  E  E  E  E  E     Q    Q    Q    E  E   
--------------------------|--------------------------|-----------------------|
--------------------------|--------------------------|-----------------------|
--------------------------|--------------------------|-----------------------|
--1--1--1--1--1--1--1--1--|--1--1--1--1--1--1--1--1--|--5----5----1----1--5--|
--------------------------|--------------------------|-----------------------|


  E  E  E  E  E  E  E  E     E  E  E  E  E  E  E  E   
--------------------------|--------------------------|
--------------------------|--------------------------|
--------------------------|--------------------------|
--L--5--5--5--5--5--5--5--|--3--3--3--3--3--3--3--3--|
--------------------------|--------------------------|


  E  E  E  E  E  E  E  E     E  E  E  E  E  E  E  E   
--------------------------|--------------------------|
--------------------------|--------------------------|
--------------------------|--------------------------|
--3--3--3--3--3--3--3--3--|--5--5--5--5--5--5--5--5--|
--------------------------|--------------------------|


  E  E  E  E  E  E  E  E     E  E  E  E  E  E  E  E   
--------------------------|--------------------------|
--------------------------|--------------------------|
--------------------------|--8--8--8--8--8--8--8--8--|
--5--5--5--5--5--5--5--5--|--------------------------|
--------------------------|--------------------------|


  E  E  E  E  E  E  E  E     E  E  E  E  E  E  E  E   
--------------------------|--------------------------|
--------------------------|--------------------------|
--8--8--8--8--8--8--8--8--|--7--7--7--7--7--7--7--7--|
--------------------------|--------------------------|
--------------------------|--------------------------|


  E  E  E  E  E  E  E  E     E  E  E  E  E  E  E  E   
--------------------------|--------------------------|
--------------------------|--------------------------|
--7--7--7--7--7--7--7--7--|--------------------------|
--------------------------|--5--5--5--5--5--5--5--5--|
--------------------------|--------------------------|


  E  E  E  E  E  E  E  E     E  E  E  E  E  E  E  E   
--------------------------|--------------------------|
--------------------------|--------------------------|
--------------------------|--------------------------|
--5--5--5--5--5--5--5--5--|--5--5--5--5--5--5--5--5--|
--------------------------|--------------------------|


  E  E  E  E  E  E  E  E     E  E  E  E  E  E  E  E   
--------------------------|--------------------------|
--------------------------|--------------------------|
--------------------------|--------------------------|
--5--5--5--5--5--5--5--5--|--5--5--5--5--5--5--5--5--|
--------------------------|--------------------------|


  E  E  E  E  E  E  E  E     E  E  E  E  E  E  E  E   
--------------------------|--------------------------|
--------------------------|--------------------------|
--------------------------|--------------------------|
--5--5--5--5--5--5--5--5--|--3--3--3--3--3--3--3--4--|
--------------------------|--------------------------|


  E  E  E  E  E  E  E  E     E  E  E  E  E  E  E  E   
--------------------------|--------------------------|
--------------------------|--------------------------|
--------------------------|--------------------------|
--4--4--4--4--4--4--4--4--|--5--5--5--5--5--5--5--5--|
--------------------------|--------------------------|


  E  E  E  E  E  E  E  E     E  E  E  E  E  E  E  E   
--------------------------|--------------------------|
--------------------------|--------------------------|
--------------------------|--------------------------|
--5--5--5--5--5--5--5--5--|--5--5--5--5--5--5--5--5--|
--------------------------|--------------------------|


  E  E  E  E  E  E  E  E     E  E  E  E  E  E  E  E   
--------------------------|--------------------------|
--------------------------|--------------------------|
--------------------------|--------------------------|
--5--5--5--5--5--5--5--5--|--5--5--5--5--5--5--5--5--|
--------------------------|--------------------------|


  E  E  E  E  E  E  E  E     E  E  E  E  E  E  E  E   
--------------------------|--------------------------|
--------------------------|--------------------------|
--------------------------|--------------------------|
--5--5--5--5--5--5--5--5--|--3--3--3--3--3--3--3--4--|
--------------------------|--------------------------|


  E  E  E  E  E  E  E  E     E  E  E  E  E  E  E  E   
--------------------------|--------------------------|
--------------------------|--------------------------|
--------------------------|--------------------------|
--4--4--4--4--4--4--4--4--|--5--5--5--5--5--5--5--5--|
--------------------------|--------------------------|


  E  E  E  E  E  E  E  E     E  E  E  E  E  E  E  E   
--------------------------|--------------------------|
--------------------------|--------------------------|
--------------------------|--5--5--5--5--5--5--5--5--|
--5--5--5--5--5--5--5--5--|--------------------------|
--------------------------|--------------------------|


  E  E  E  E  E  E  E  E     E  E  E  E  E  E  E  E     E  E  E  H        E   
--------------------------|--------------------------|-----------------------|
--------------------------|--------------------------|-----------------------|
--8--8--8--8--8--8--8--8--|--------------------------|--7--8-----5--------L--|
--------------------------|--8--8--8--8--8--8--8--8--|-----------------------|
--------------------------|--------------------------|-----------------------|


  E  E  E  E  E  E  E  E     E  E  E  E  E  E  E  E   
--------------------------|--------------------------|
--------------------------|--------------------------|
--5--5--5--5--5--5--5--5--|--8--8--8--8--8--8--8--8--|
--------------------------|--------------------------|
--------------------------|--------------------------|


  E  E  E  E  E  E  E  E     E  E  E  H        E     E  E  E  E  E  E  E  E   
--------------------------|-----------------------|--------------------------|
--------------------------|-----------------------|--------------------------|
--------------------------|--7--8-----5--------L--|--5--5--5--5--5--5--5--5--|
--8--8--8--8--8--8--8--8--|-----------------------|--------------------------|
--------------------------|-----------------------|--------------------------|


  E  E  E  E  E  E  E  E     E  E  E  E  E  E  E  E     E  E  E  H        E   
--------------------------|--------------------------|-----------------------|
--------------------------|--------------------------|-----------------------|
--8--8--8--8--8--8--8--8--|--------------------------|--7--8-----5--------L--|
--------------------------|--8--8--8--8--8--8--8--8--|-----------------------|
--------------------------|--------------------------|-----------------------|


  E  E  E  E  E  E  E  E     E  E  E  E  E  E  E  E   
--------------------------|--------------------------|
--------------------------|--------------------------|
--5--5--5--5--5--5--5--5--|--8--8--8--8--8--8--8--8--|
--------------------------|--------------------------|
--------------------------|--------------------------|


  E  E  E  E  E  E  E  E     E  E  E  E  E  E  E  E   
--------------------------|--------------------------|
--------------------------|--3--3--3--3--3--3--3--3--|
--5--5--5--5--5--5--5--5--|--------------------------|
--------------------------|--------------------------|
--------------------------|--------------------------|


  E  E  E  E  E  E  E  E     E  E  E  E  E  E  E  E   
--------------------------|--------------------------|
--------------------------|--------------------------|
--------------------------|--------------------------|
--5--5--5--5--5--5--5--5--|--5--5--5--5--5--5--5--5--|
--------------------------|--------------------------|


  E  E  E  E  E  E  E  E     E  E  E  E  E  E  E  E   
--------------------------|--------------------------|
--------------------------|--------------------------|
--5--5--5--5--5--5--5--5--|--7--7--7--7--7--7--7--7--|
--------------------------|--------------------------|
--------------------------|--------------------------|


  E  E  E  E  E  E  E  E     E  E  E  E  E  E  E  E   
--------------------------|--------------------------|
--------------------------|--------------------------|
--------------------------|--------------------------|
--5--5--5--5--5--5--5--5--|--5--5--5--5--5--5--5--5--|
--------------------------|--------------------------|


  E  E  E  E  E  E  E  E     E  E  E  E  E  E  E  E     H.           E  E   
--------------------------|--------------------------|---------------------|
--------------------------|--------------------------|---------------------|
--------------------------|--------------------------|---------------------|
--3--3--3--3--3--3--3--3--|--0--0--0--0--0--0--0--0--|--5------------L--5--|
--------------------------|--------------------------|---------------------|


  W                   H.           E  E     W                 
-------------------|---------------------|-------------------|
-------------------|---------------------|-------------------|
-------------------|---------------------|-------------------|
--L----------------|--5------------L--5--|--L----------------|
-------------------|---------------------|-------------------|


  H.           E  E     W                   H.           E  E   
---------------------|-------------------|---------------------|
---------------------|-------------------|---------------------|
---------------------|-------------------|---------------------|
--5------------L--5--|--L----------------|--3------------L--4--|
---------------------|-------------------|---------------------|


  W                   Q    Q    Q    E  E     Q    Q    Q    Q     
-------------------|-----------------------|----------------------|
-------------------|-----------------------|----------------------|
-------------------|-----------------------|----------------------|
--L----------------|--5----5----5----5--5--|--5----5----5----5----|
-------------------|-----------------------|----------------------|


  Q    Q    Q    E  E     Q    Q    Q    Q       Q    Q    Q    E  E   
-----------------------|----------------------|-----------------------|
-----------------------|----------------------|-----------------------|
-----------------------|----------------------|-----------------------|
--5----5----5----5--5--|--5----5----5----5----|--5----5----5----5--5--|
-----------------------|----------------------|-----------------------|


  Q    Q    Q    Q       Q    Q    Q    E  E     E  H.           E   
----------------------|-----------------------|---------------------|
----------------------|-----------------------|---------------------|
----------------------|-----------------------|---------------------|
--5----5----5----5----|--3----3----3----3--4--|--L------------------|
----------------------|-----------------------|---------------------|


  E  E  E  E  E  E  E  E     E  E  E  E  E  E  E  E   
--------------------------|--------------------------|
--------------------------|--------------------------|
--------------------------|--------------------------|
--5--5--5--5--5--5--5--5--|--5--5--5--5--5--5--5--5--|
--------------------------|--------------------------|


  E  E  E  E  E  E  E  E     E  E  E  E  E  E  E  E   
--------------------------|--------------------------|
--------------------------|--------------------------|
--------------------------|--------------------------|
--5--5--5--5--5--5--5--5--|--5--5--5--5--5--5--5--5--|
--------------------------|--------------------------|


  E  E  E  E  E  E  E  E     E  E  E  E  E  E  E  E   
--------------------------|--------------------------|
--------------------------|--------------------------|
--------------------------|--------------------------|
--5--5--5--5--5--5--5--5--|--5--5--5--5--5--5--5--5--|
--------------------------|--------------------------|


  E  E  E  E  E  E  E  E     E  E  E  E  E  E  E  E   
--------------------------|--------------------------|
--------------------------|--------------------------|
--------------------------|--------------------------|
--3--3--3--3--3--3--3--4--|--4--4--4--4--4--4--4--4--|
--------------------------|--------------------------|


  E  E  E  E  E  E  E  E     E  E  E  E  E  E  E  E   
--------------------------|--------------------------|
--------------------------|--------------------------|
--------------------------|--------------------------|
--5--5--5--5--5--5--5--5--|--5--5--5--5--5--5--5--5--|
--------------------------|--------------------------|


  E  E  E  E  E  E  E  E     E  E  E  E  E  E  E  E   
--------------------------|--------------------------|
--------------------------|--------------------------|
--------------------------|--------------------------|
--5--5--5--5--5--5--5--5--|--5--5--5--5--5--5--5--5--|
--------------------------|--------------------------|


  E  E  E  E  E  E  E  E     E  E  E  E  E  E  E  E   
--------------------------|--------------------------|
--------------------------|--------------------------|
--------------------------|--------------------------|
--5--5--5--5--5--5--5--5--|--5--5--5--5--5--5--5--5--|
--------------------------|--------------------------|


  E  E  E  E  E  E  E  E     E  E  E  E  E  E  E  E   
--------------------------|--------------------------|
--------------------------|--------------------------|
--------------------------|--------------------------|
--3--3--3--3--3--3--3--4--|--4--4--4--4--4--4--4--4--|
--------------------------|--------------------------|


  E  E  E  E  E  E  E  E     W                   W                 
--------------------------|-------------------|-------------------|
--------------------------|-------------------|-------------------|
--------------------------|-------------------|-------------------|
--5--5-----5--5-----5--5--|--L----------------|--L----------------|
--------------------------|-------------------|-------------------|


  W                  W                     
-------------------|-------------------||
-------------------|-------------------||
-------------------|-------------------||
--L----------------|-------------------||
-------------------|-------------------||




Duration Legend
---------------
W - whole
H - half
Q - quarter
E - 8th
S - 16th
T - 32nd
X - 64th
. - note dotted
|-n-|  - n-tuplets


Tablature Legend
----------------
L - tied note
x - dead note
g - grace note
(n) - ghost note
> - accentuded note
NH - natural harmonic
AH - artificial harmonic
TH - tapped harmonic
SH - semi harmonic
PH - pitch harmonic
h - hammer on
p - pull off
b - bend
br - bendRelease
pb - preBend
pbr - preBendRelease
brb - bendReleaseBend
\n/ - tremolo bar dip
\n - tremolo bar dive
-/n - tremolo bar Release up
/n\ - tremolo bar inverted dip
/n - tremolo bar return
-\n - tremolo bar Release down
S - shift slide
s - legato slide
/ -  slide into from below or out of upwards
\ -  slide into from above or out of downwards
~ - vibrato
W - wide vibrato
tr - trill
TP - tremolo picking
T - tapping
S - slap
P - pop
< - fade in
^ - brush up
v - brush down
comments
We did not receive enough feedback on this tab! Please rate:
print report bad tab
1 2 3 4 5
I want to post or [tab]
guest
You may want to rate the tab now too:
select rating
Please do not post tabs as comments. Select "correction" instead!