Oops, an error
Loading. Please wait.

Genocide Tab

2,745 views 9 this week
2 commentsread comments
1 2 3 4 5
accurate
x 5
Autoscroll
+/-
esc
set tempo
stop
Contributor
Difficulty
advanced
WARNING: You are trying to view
                                    content from Ultimate-Guitar.com
                                    in an unauthorized application,
                                    which is prohibited.

                                    Please use an official Ultimate
                                    Guitar Tabs application for iPhone,
                                    iPad or Android to access legitimate
                                    chords, guitar, bass, and drum tabs
                                    from Ultimate-Guitar.com database.

                                    Type "ultimate guitar tabs" in Apple
                                    App Store's or Android Market's
                                    search to find the application.
Awesome Song!!!!!!!!!

Song:Genocide
Artist:Hammerfall
Album:Threshold
Tuning:Drop Down To eB
Notes:It is advanced level,you will need a lot of
speed,and two guitars.
Tabbed by:Elias Stasi

Key Tab:
/=slide up
\=slide down
*=palm mute
h=hammer on
b=bent
r=return bend
p=pull off
()=ghost note
X=dead note

Intro:

e-------------------------------|
B-------------------------------|
G-------7-9-10-9-7--------------|
D-7-9-10----------10-9-7-6-7--7-|
A-----------------------------5-|
E-------------------------------|


e---------------------------------|
B---------------------------------|
G-------7-9-10-9-7----------------|
D-7-9-10----------10-9-7-6-7--6-7-|
A-----------------------------4-5-|
E---------------------------------|


e-----------------------------------|
B-----------------------------------|
G-------7-9-10-9-7------------------|
D-7-9-10----------10-9-7-6-7--7-6-7-|
A-----------------------------5-4-5-|
E-----------------------------------|


e-------------------------------------|
B-------------------------------------|
G-------7-9-10-9-7--------------------|
D-7-9-10----------10-9-7-6-7--7-7-6-7-|
A-----------------------------5-4-5-4-|
E-------------------------------------|


e-----------------------------------------------|
B-------------9-10-12-13-12-10-9----------------|
G-------7-9-10------------------10-9-7----------|
D-7-9-10------------------------------10-9-7--7-|
A---------------------------------------------5-|
E-----------------------------------------------|


e-------------------------------------------------|
B-------------9-10-12-13-12-10-9------------------|
G-------7-9-10------------------10-9-7------------|
D-7-9-10------------------------------10-9-7--6-7-|
A---------------------------------------------4-5-|
E-------------------------------------------------|


e------------------------10-12-13-12-10--------------|
B--------------9-10-12-13--------------13-12-10-9-10-|
G-------7-9-10---------------------------------------|
D-7-9-10----------------------------------------9-10-|
A-----------------------------------------------7--8-|
E----------------------------------------------------|


e------------------------10-12-13-12-10-----------------------|
B--------------9-10-12-13--------------13-12-10-9-10-12-9-10b-|
G-------7-9-10------------------------------------------------|
D-7-9-10----------------------------------------9-10-12-9-10b-|
A-5---------------------------------------------7--8-10-7--8b-|
E-------------------------------------------------------------|


e-----------------------------------|
B-----------------------------------|
G-3\-2---2-------------3\-2---2-----|
D-3\-2---2-------------3\-2---2-3-3-|
A-1\-0-0-0-0-0-0-0-0-0-1\-0-0-0-3-3-|
E-------------------------------1-1-|


e-----------------------------------|
B-----------------------------------|
G-3\-2---2-------------3\-2---2-----|
D-3\-2---2-------------3\-2---2-5-5-|
A-1\-0-0-0-0-0-0-0-0-0-1\-0-0-0-5-5-|
E-------------------------------3-3-|


e-------------------------------------|
B-------------------------------------|
G-3\-2---2-------------3\-2---2-------|
D-3\-2---2-------------3\-2---2-3-3-5-|
A-1\-0-0-0-0-0-0-0-0-0-1\-0-0-0-3-3-5-|
E-------------------------------1-1-3-|


e--------------------|
B--------------------|
G--------------------|
D-5-3-2-3-2-0-2------|
A--------------5-3-2-|
E--------------------|

1st Verse:

e-------------------------------------------------|
B-------------------------------------------------|
G-2---------------------------------------------5-|
D-2-------------------------------------------3-5-|
A-0-0-0-0-0-0-0-0-0-0-3-0-0-3-0-0-3-0-0-3-0-0-3-3-|
E---------------------------------------------1---|


e-------------------------------------------------|
B-------------------------------------------------|
G-2---------------------------------------------7-|
D-2-------------------------------------------5-7-|
A-0-0-0-0-0-0-0-0-0-0-3-0-0-3-0-0-3-0-0-3-0-0-5-5-|
E---------------------------------------------3---|


e---------------------------------------------------|
B---------------------------------------------------|
G-2---------------------------------------------5---|
D-2-------------------------------------------3-5-5-|
A-0-0-0-0-0-0-0-0-0-0-3-0-0-3-0-0-3-0-0-3-0-0-3-3-5-|
E---------------------------------------------1---3-|


e--------------------|
B--------------------|
G--------------------|
D-5-3-2-3-2-0-2------|
A--------------5-3-2-|
E--------------------|


2nd Verse:

e-------------------------------------------------|
B-------------------------------------------------|
G-2---------------------------------------------5-|
D-2-------------------------------------------3-5-|
A-0-0-0-0-0-0-0-0-0-0-3-0-0-3-0-0-3-0-0-3-0-0-3-3-|
E---------------------------------------------1---|


e-------------------------------------------------|
B-------------------------------------------------|
G-2---------------------------------------------7-|
D-2-------------------------------------------5-7-|
A-0-0-0-0-0-0-0-0-0-0-3-0-0-3-0-0-3-0-0-3-0-0-5-5-|
E---------------------------------------------3---|


e---------------------------------------------------|
B---------------------------------------------------|
G-2---------------------------------------------5---|
D-2-------------------------------------------3-5-5-|
A-0-0-0-0-0-0-0-0-0-0-3-0-0-3-0-0-3-0-0-3-0-0-3-3-5-|
E---------------------------------------------1---3-|


Pre-Chorus:

e---------------|
B---------------|
G-7-------------|
D-7---2---3---5-|
A-5---2---3---5-|
E-----0---1---3-|


Chorus:

e------------------------|
B------------------------|
G-7--5--7--5--------3--5-|
D-7--5--7--5--2--3--3--5-|
A-5--3--5--3--2--3--1--3-|
E-------------0--1-------|


e------------------------|
B------------------------|
G------------------------|
D-7-7-7-5-5-5------------|
A------------8-8-8-7-7-7-|
E------------------------|


e------------------------|
B------------------------|
G-7--5--7--5--------3----|
D-7--5--7--5--2--3--3--5-|
A-5--3--5--3--2--3--1--5-|
E-------------0--1-----3-|


After Chorus:

e-----------------------------------|
B-----------------------------------|
G-3\-2---2-------------3\-2---2-----|
D-3\-2---2-------------3\-2---2-3-3-|
A-1\-0-0-0-0-0-0-0-0-0-1\-0-0-0-3-3-|
E-------------------------------1-1-|


e-----------------------------------|
B-----------------------------------|
G-3\-2---2-------------3\-2---2-----|
D-3\-2---2-------------3\-2---2-5-5-|
A-1\-0-0-0-0-0-0-0-0-0-1\-0-0-0-5-5-|
E-------------------------------3-3-|


e-------------------------------------|
B-------------------------------------|
G-3\-2---2-------------3\-2---2-------|
D-3\-2---2-------------3\-2---2-3-3-5-|
A-1\-0-0-0-0-0-0-0-0-0-1\-0-0-0-3-3-5-|
E-------------------------------1-1-3-|


e--------------------|
B--------------------|
G--------------------|
D-5-3-2-3-2-0-2------|
A--------------5-3-2-|
E--------------------|


3rd Verse:

e-------------------------------------------------|
B-------------------------------------------------|
G-2---------------------------------------------5-|
D-2-------------------------------------------3-5-|
A-0-0-0-0-0-0-0-0-0-0-3-0-0-3-0-0-3-0-0-3-0-0-3-3-|
E---------------------------------------------1---|


e-------------------------------------------------|
B-------------------------------------------------|
G-2---------------------------------------------7-|
D-2-------------------------------------------5-7-|
A-0-0-0-0-0-0-0-0-0-0-3-0-0-3-0-0-3-0-0-3-0-0-5-5-|
E---------------------------------------------3---|


e---------------------------------------------------|
B---------------------------------------------------|
G-2---------------------------------------------5---|
D-2-------------------------------------------3-5-5-|
A-0-0-0-0-0-0-0-0-0-0-3-0-0-3-0-0-3-0-0-3-0-0-3-3-5-|
E---------------------------------------------1---3-|


Pre-Chorus:

e---------------|
B---------------|
G-7-------------|
D-7---2---3---5-|
A-5---2---3---5-|
E-----0---1---3-|


Chorus:

e------------------------|
B------------------------|
G-7--5--7--5--------3--5-|
D-7--5--7--5--2--3--3--5-|
A-5--3--5--3--2--3--1--3-|
E-------------0--1-------|


e------------------------|
B------------------------|
G------------------------|
D-7-7-7-5-5-5------------|
A------------8-8-8-7-7-7-|
E------------------------|


e------------------------|
B------------------------|
G-7--5--7--5--------3----|
D-7--5--7--5--2--3--3--5-|
A-5--3--5--3--2--3--1--5-|
E-------------0--1-----3-|


After Chorus:


e-------------------------------|
B-------------------------------|
G-------7-9-10-9-7--------------|
D-7-9-10----------10-9-7-6-7--7-|
A-----------------------------5-|
E-------------------------------|


e---------------------------------|
B---------------------------------|
G-------7-9-10-9-7----------------|
D-7-9-10----------10-9-7-6-7--6-7-|
A-----------------------------4-5-|
E---------------------------------|


e------------------------10-12-13-12-10--------------|
B--------------9-10-12-13--------------13-12-10-9-10-|
G-------7-9-10---------------------------------------|
D-7-9-10----------------------------------------9-10-|
A-----------------------------------------------7--8-|
E----------------------------------------------------|


e------------------------10-12-13-12-10-----------------------|
B--------------9-10-12-13--------------13-12-10-9-10-12-9-10b-|
G-------7-9-10------------------------------------------------|
D-7-9-10----------------------------------------9-10-12-9-10b-|
A-5---------------------------------------------7--8-10-7--8b-|
E-------------------------------------------------------------|


Solo:

e-13/-15/-18--15\-13/-15-------------------------18b-18-18b\-15-|
B-----------------------18\-15/-18--15\-13/-15------------------|
G----------------------------------------------15---------------|
D---------------------------------------------------------------|
A---------------------------------------------------------------|
E---------------------------------------------------------------|


e-18\-15--13/-15---------------18-(18)-|
B---------------18\-15--18\-13---------|
G--------------------------------------|
D--------------------------------------|
A--------------------------------------|
E--------------------------------------|


e-13/-15/-18--15\-13--15\-13-------------------|
B---------------------------15/-18\-15--13/-15-|
G----------------------------------------------|
D----------------------------------------------|
A----------------------------------------------|
E----------------------------------------------|


e-----------------------------------------------------|
B-----------------------13-13b-----1/-10-10-----------|
G-17\-15\-12--17\-15\-12------------------------------|
D--------------------------------0---------17/-19\-17-|
A--------------------------------0--------------------|
E-----------------------------------------------------|


e------------------------------------------|
B------------------------------------------|
G-----------------------17/-19\-17--19/-21-|
D-19/-20\-19--20/-22\-20-------------------|
A------------------------------------------|
E------------------------------------------|


e---------------------17--20-22-22b-(22)-|
B-------18\-17--18/-20-------------------|
G-19/-21---------------------------------|
D----------------------------------------|
A----------------------------------------|
E----------------------------------------|


e-17-----------15------------------|
B-----17------------15-------18-17-|
G---14------------12---------------|
D-------14-(14)-------12-(12)------|
A----------------------------------|
E----------------------------------|


e-----------------------------------|
B-15-17-15-17-15-13-15-13-----20-19-|
G------------------------15-17------|
D-----------------------------------|
A-----------------------------------|
E-----------------------------------|


e-17-19-17-15-17---------------------|
B---------------20-18-20-18-17-18-17-|
G------------------------------------|
D------------------------------------|
A------------------------------------|
E------------------------------------|


e-13-15-17-17-19-19b-19-17-15-(15)-10-10-12-|
B-------------------------------------------|
G-------------------------------------------|
D-------------------------------------------|
A-------------------------------------------|
E-------------------------------------------|


e-12b-(12b)-10-12b-12-10-------13-15-17-17-19-|
B-----------------------13-(13)---------------|
G---------------------------------------------|
D---------------------------------------------|
A---------------------------------------------|
E---------------------------------------------|


e-19b-19-17-15-(15)\-10-10-12-12b-(12b)-10-|
B------------------------------------------|
G------------------------------------------|
D------------------------------------------|
A------------------------------------------|
E------------------------------------------|


e---------------------|
B-13-11-10------------|
G----------12-10-9-7*-|
D---------------------|
A---------------------|
E---------------------|


Solo Rythm:

e-----------------------------------|
B-----------------------------------|
G-----------------------------------|
D-----------------------------------|
A-----------------------------------|
E-2-2-2-2-2-2-2-2-2-2-2-2-2-2-2-2-2-| x many times


e-------------------------------|
B-------------------------------|
G-------------------------------|
D-------------------------------|
A-------------------------------|
E-4-4-4-4-4-4-4-4-4-4-4-4-4-4-4-| x many times


e---------|
B---------|
G-7-----9-|
D-7-----9-|
A-5-----7-|
E---------| x many times(at the end of the solo)


Chorus:

e------------------------|
B------------------------|
G-7--5--7--5--------3--5-|
D-7--5--7--5--2--3--3--5-|
A-5--3--5--3--2--3--1--3-|
E-------------0--1-------|


e------------------------|
B------------------------|
G------------------------|
D-7-7-7-5-5-5------------|
A------------8-8-8-7-7-7-|
E------------------------|


e------------------------|
B------------------------|
G-7--5--7--5--------3----|
D-7--5--7--5--2--3--3--5-|
A-5--3--5--3--2--3--1--5-|
E-------------0--1-----3-|

Outro Chorus:

e--------------------------------|
B--------------------------------|
G-0----------7-----7--------5--7-|
D--3-2-0--2--7--2--7--4--5--5--7-|
A---------2--5--2--5--4--5--3--5-|
E---------0-----0-----2--3-------|


e------------------------|
B------------------------|
G------------------------|
D-4-4-4-2-2-2-0-0-0------|
A------------------4-4-4-|
E------------------------|


e--------------------------|
B--------------------------|
G----7-----7--------5--7---|
D-2--7--2--7--4--5--5--7-4-|
A-2--5--2--5--4--5--3--5-4-|
E-0-----0-----2--3-------2-|


Outro:

e-----------------------------------|
B-----------------------------------|
G-3\-2---2-------------3\-2---2-----|
D-3\-2---2-------------3\-2---2-5-5-|
A-1\-0-0-0-0-0-0-0-0-0-1\-0-0-0-5-5-|
E-------------------------------3-3-|


e-------------------------------------|
B-------------------------------------|
G-3\-2---2-------------3\-2---2-------|
D-3\-2---2-------------3\-2---2-3-3-5-|
A-1\-0-0-0-0-0-0-0-0-0-1\-0-0-0-3-3-5-|
E-------------------------------1-1-3-|


e--------------------|
B--------------------|
G--------------------|
D-5-3-2-3-2-0-2------|
A--------------5-3-2-|
E--------------------|


e-13-12-10----------------------------------------|
B---------13-12-10-12-10-9------------------------|
G-------------------------10-9-7-10-9-7-----------|
D-7------------------------------------10-9-7-6-7-|
A-5-------------------------------------------4-5-|
E-------------------------------------------------|

                           THE   END!!!!!!
2 comments total.
0 reply
xXEvoulutionXx wrote on November 3 2009, 03:42 pm

i like this one

0 reply
12stoneslover33 wrote on July 28 2011, 01:09 pm

really good effort, but alot is wrong. 2 stars

I want to post or [tab]
guest
You may want to rate the tab now too:
select rating
Please do not post tabs as comments. Select "correction" instead!