Oops, an error
Loading. Please wait.

Legacy Of Kings Tab

ver1
ver1

Album

Whole song

More versions @911Tabs.com
1,280 views 1 this week
1 commentread comment
1 2 3 4 5
worth learning
x 1
Autoscroll
+/-
esc
set tempo
stop
Contributor
WARNING: You are trying to view
                                    content from Ultimate-Guitar.com
                                    in an unauthorized application,
                                    which is prohibited.

                                    Please use an official Ultimate
                                    Guitar Tabs application for iPhone,
                                    iPad or Android to access legitimate
                                    chords, guitar, bass, and drum tabs
                                    from Ultimate-Guitar.com database.

                                    Type "ultimate guitar tabs" in Apple
                                    App Store's or Android Market's
                                    search to find the application.
Artist:HammerFall


Album:Legacy Of Kings           Tabbed By:ELIAS STASI

Album Lineup:

Joacim Cans – lead and backing vocals
Oscar Dronjak – guitar and backing vocals
Stefan Elmgren – lead guitar
Magnus Rosén – bass guitar
Patrik Räfling - drums

Album Details:

Produced by Fredrik Nordström and Oscar Dronjak, co-produced by Joacim Cans. Recorded,
and mixed by Fredrik Nordström at Studio Fredman, Göteborg, April-June, 1998. Mastered by
Finnberg at The Mastering Room, Göteborg, June 1998. All songs written by 
except track 7 by Hamer/Owens/Atkins and track 8 by Dronjak. All songs published
Prophecies Publishing except track 7 by CBS Records. Paintings by Andreas Marschall 
a concept by Joacim Cans and Oscar Dronjak.


Track listing:

01 - Heeding The Call
02 - Legacy Of Kings
03 - Let The HammerFall
04 - Dreamland
05 - Remember Yesterday
06 - At The End Of The Rainbow
07 - Back To Back
08 - Stronger Than All
09 - Warrirs Of Faith
10 - The Fallen One

HEEDING THE CALL:

riff 1:
e|------------------------------------------|
b|------------------------------------------|
g|------------------------------------------|
d|---------9-----9-----7-----7-----5-----7--|
a|---------7-----7-----5-----5-----3-----5--|
e|-0-0-0-0---0-0---0-0---0-0---0-0---0-0----|
   p.m....   ...   ...   ...   ...   ...

riff 2:
e|-------------------------------------------|
b|-------------------------------------------|
g|-------------------------------------------|
d|---------9-----9-----7-----7------5--------|
a|---------7-----7-----5-----5------3--------|
e|-0-0-0-0---0-0---0-0---0-0---0-0-----------|
   .......   ...   ...   ...   ...

reapet riff 1:

riff 3:
e|----------------------|
b|----------------------|
g|----------------------|
d|--5--5-----7-----9----|
a|--3--3-----5-----7----|
e|-------0-0---0-0------|
         ...   ...

e|---------------------------------------------------------|
b|---------------------------------------------------------|
g|---------------------------------------------------------|
d|-----------------------------9-----9-----7-----7-----5---|
a|-----------------------------7-----7-----5-----5-----3---|
e|-0-0-0-0-0-0-0-0-0-0-0-0-0-0---0-0---0-0---0-0---0-0-----|
   ...........................   ...   ...   ...   ...


e|---------------------------------------------------|
b|---------------------------------------------------|
g|---------------------------------------------------|
d|-----------------------------5-----5-----7-----9---|
a|-----------------------------3-----3-----5-----7---|
e|-0-0-0-0-0-0-0-0-0-0-0-0-0-0---------0-0---0-0-----|
   ...........................         ...   ...


LEGACY OF KINGS:

TUNE A HALF STEP DOWN TO Eb

RIFF A:
Eb|-------------------------------------------------------------------------|
Bb|-------------------------------------------------------------------------|
Gb|---7---------7-----------------------------------------------------------|
Db|---7---------7-----------5-5---------------------------8---------8-------|
Ab|---5-5-5-5-5-5-5-5-5-5-5-----8-8-7-7-5-5-8-8-7-7-5-5---8---------8-------|
Eb|-----------------------------------------------------8-6-6-6-6-6-6-6-6-6-|
       | P.M.. | | P.M.................................. | | P.M...| | P.M.

Eb|------------------------|
Bb|------------------------|
Gb|------------------------|
Db|---5-5------------------|
Ab|-------8-8-7-7-5-5-7-8--|
Eb|------------------------|
    | P.M...........|

RIFF B:
Eb|-------------------------------------------------------------------------|
Bb|-------------------------------------------------------------------------|
Gb|---7---------7-----------------------------------------------------------|
Db|---7---------7-----------8-8-7-7-5-5-----7-7-5-5-------8---------8-------|
Ab|---5-5-5-5-5-5-5-5-5-5-5-------------8-8---------8-8-7-8---------8-------|
Eb|-------------------------------------------------------6-6-6-6-6-6-6-6-6-|
       | P.M.. | | P.M.................................  | | P.M...| | P.M........|

Eb|------------------------|
Bb|------------------------|
Gb|------------------------|
Db|---8-8-7-7-5-5----------|
Ab|---------------8-8-7-8--|
Eb|------------------------|
   | P.M............|

VERSE:  X 2
Eb|-------------------------------------------------------------------------|
Bb|-------------------------------------------------------------------------|
Gb|---7---------7-----------------------------------------7---------7-------|
Db|---7---------7-----------5-5---------------------------7---------7-------|
Ab|---5-5-5-5-5-5-5-5-5-5-5-----8-8-7-7-5-5-8-8-7-7-5-5---5-5-5-5-5-5-5-5-5-|
Eb|-----------------------------------------------------8-------------------|
       | P.M.. | | P.M.................................. | | P.M.. | | P.M.|

Eb|-----------------------------------------------------------------|
Bb|-----------------------------------------------------------------|
Gb|-----------------------------------------------------------------|
Db|---8-8-7-7-5-5-----7-7-5-5--------8---------8-----------5--7--8--|
Ab|---------------8-8---------8-8-7--8---------8-----------5--7--8--|
Eb|----------------------------------6-6-6-6-6-6-6-6-6-6-6-3--5--6--|
    | P.M......................... |  | P.M.. | | P.M.... |

BRIDGE 1:
Eb|--------------------------------------------------------------------------|
Bb|--------------------------------------------------------------------------|
Gb|--------------------------------------------------------------------------|
Db|---4---------6---------7---------4---------6---------7--------------------|
Ab|---2-2-2-2-2-4-4-4-4-4-5-5-5-5-5-2-2-2-2-2-4-4-4-4-4-5-5-5-5-5-5-4-2------|
Eb|---------------------------------------------------------------3-2-0--0-2-|
       | P.M.. | | P.M.. | | P.M.. | | P.M.. | | P.M.. | | P.M.. |

Eb|-------------------------------------------------------------------------|
Bb|-------------------------------------------------------------------------|
Gb|-------------------------------------------------------------------------|
Db|---4---------6---------7---------4---------6---------7-----------6-7-----|
Ab|---2-2-2-2-2-4-4-4-4-4-5-5-5-5-5-2-2-2-2-2-4-4-4-4-4-5-5-5-5-5-5-4-5-3-4-|
Eb|---------------------------------------------------------------3-----1-2-|
       | P.M.. | | P.M.. | | P.M.. | | P.M.. | | P.M.. | | P.M.. |

CHORUS:
Eb|-------------------------------------|
Bb|-------------------------------------|
Gb|---7--5--3--5------7--5--------------|
Db|---7--5--3--5--5---7--5--3--5--7--8--|
Ab|---5--3--1--3--7---5--3--1--5--7--8--|
Eb|---------------5------------3--5--6--|

AFTER CHORUS:
RIFF B  X 1
RIFF A  X 1

VERSE:
SAME AS ABOVE

BRIDGE:
SAME AS BRIDGE 1

CHORUS:
SAME AS ABOVE  X 2

BRIDGE 2:  X 2
Eb|--------------------------------------------------------------------------|
Bb|--------------------------------------------------------------------------|
Gb|---9--------------------------------------------------------9-------------|
Db|---9-------------10-----9-----7-----9----------------7------9-------------|
Ab|---7-7-7-7-7-7-7----7-7---7-7---7-7---7-7-7-7-7-7--7---10-9-7-7-7-7-7-7-7-|
Eb|--------------------------------------------------------------------------|
       | P.M.......|  |P.M| |P.M| |P.M| | P.M.......|           | P.M.......|  |P.M|

Eb|-------------------------------------------------------------------------|
Bb|-------------------------------------------------------------------------|
Gb|--------------------------------------9----------------------------------|
Db|--9-----7-----9---------------------7-9-------------10-----9-----7-----9-|
Ab|----7-7---7-7---7-7-7-7-7-7--7-9-10---7-7-7-7-7-7-7----7-7---7-7---7-7---|
Eb|-------------------------------------------------------------------------|
      |P.M| |P.M| |P.M........|           |P.M....... |  |P.M| |P.M| |P.M| |P.M....|

Eb|---------------------------|
Bb|---------------------------|
Gb|-------------5-------------|
Db|-----7-------5---7--5-(7)--|
Ab|---7---10-9--3---7--5-(7)--|
Eb|-----------------5--3-(5)--|

FIRST SOLO:                        SECOND:
Eb|------------------------------|------------------------------------------|
Bb|------------------------------|------------------------------------------|
Gb|------9-----7-----------7-----|-9--7--9--12--7--9--7--9--12--7--9--7--9--|
Db|---9--9--7--7--7--9--7--7--7--|-9--7--9--12--7--9--7--9--12--7--9--7--9--|
Ab|---9--7--7--5--7--9--7--5--7--|-7--5--7--10--5--7--5--7--10--5--7--5--7--|
Eb|---7-----5-----5--7--5-----5--|------------------------------------------|

Eb|---------|
Bb|---------|
Gb|---------|
Db|---5--7--|
Ab|---5--7--|
Eb|---3--5--|

CHORUS:
AS ABOVE  X 1

CHORUS AGAIN:  X 1
Eb|--------------------------------------|
Bb|--------------------------------------|
Gb|--10--8--6--8------10--8--6-----------|
Db|--10--8--6--8--10--10--8--6--8--6--8--|
Ab|---8--6--4--6--10---8--6--4--8--6--8--|
Eb|----------------8------------6--4--6--|

RIFF B:  X 1

RIFF A:  X 1

OUTRO:
Eb|----------------------------------|
Bb|----------------------------------|
Gb|---7-------5---7---7---7---7---7--|
Db|---7---8---5---7---7---7---7---7--|
Ab|---5---8---3---5---5---5---5---5--|
Eb|-------6--------------------------|


LET THE HAMMER FALL:


TUNE A HALF STEP DOWN TO Eb

INTRO:
FIRST RIFF A:
E|---------------------------------------------------------------------------|
B|---------------------------------------------------------------------------|
G|-2-----5-----7-----8-----7-----5-----2-----5-----7-----8-----7-----5---2-5-|
D|-2-----5-----7-----8-----7-----5-----2-----5-----7-----8-----7-----5-5-0-5-|
A|-0-0-0-3-0-0-5-0-0-6-0-0-5-0-0-3-0-0-0-0-0-3-0-0-5-0-0-6-0-0-5-0-0-3-5-0-3-|
E|---------------------------------------------------------------------3-----|
      |P.M| |P.M| |P.M| |P.M| |P.M| |P.M| |P.M| |P.M| |P.M| |P.M| |P.M|     |P.M| |P.M

E|--------------------------------------------------------------------------|
B|--------------------------------------------------------------------------|
G|---7-----8-----7-----5-----2-----5-----7--------5--3--2-----5-----7-----6-|
D|---7-----8-----7-----5-----2-----5-----7-----5--5--3--2-----5-----7-----6-|
A|-0-5-0-0-6-0-0-5-0-0-3-0-0-0-0-0-3-0-0-5-0-0-5--3--1--0-0-0-3-0-0-5-0-0-4-|
E|---------------------------------------------3----------------------------|
    ..| |P.M| |P.M| |P.M| |P.M| |P.M| |P.M| |P.M|          |P.M| |P.M| |P.M| |P.M|
E|---------------------------------------------------------------------------|
B|---------------------------------------------------------------------------|
G|-2-----5-----7-----8-----7-----5-----2-----5-----7-----8-----7-----5---2-5-|
D|-2-----5-----7-----8-----7-----5-----2-----5-----7-----8-----7-----5-5-0-5-|
A|-0-0-0-3-0-0-5-0-0-6-0-0-5-0-0-3-0-0-0-0-0-3-0-0-5-0-0-6-0-0-5-0-0-3-5-0-3-|
E|---------------------------------------------------------------------3-----|

    |P.M| |P.M| |P.M| |P.M| |P.M| |P.M| |P.M|     |P.M| |P.M| |P.M| |P.M| |P.M|

E|--------------|
B|--------------|
G|-----3-3-2----|
D|---3-3-3-2----|
A|---3-1-1-0----|
E|--------------|
THEN RIFF B:
E|--------------------------------------------------------------------------|
B|--------------------------------------------------------------------------|
G|---7-9-10-12-10-9-10-7--12-10-9-10-7--7-9-10-12-10-9-10-7--12-10-9-10-12--|
D|---7-7--7-10-10-9--9-7--10-10-9--9-7--7-7--7-10-10-9--9-7--10-10-9--9-12--|
A|--------------------------------------------------------------------------|
E|--------------------------------------------------------------------------|

VERSE:  X 2
ON THE SECOND TIME GUITAR 2 PLAYS RIFF B
E|---------------------------------------------------------------------------|
B|---------------------------------------------------------------------------|
G|---7-------------------------------------------------7---------------------|
D|---7---------------------------------------------8-5-7---------------------|
A|---5-5-5-5-5-5-5-5-5-5-5-5-5-5-5-5-5-5-5-5-5-5-5-8-5-5-5-5-5-5-5-5-5-5-5-5-|
E|-------------------------------------------------6-3-----------------------|
      | P.M...................................... |     | P.M......................

E|-----------------------------|
B|-----------------------------|
G|-----------------------------|
D|---------------------8-10----|
A|---5-5-5-5-5-5-5-5-5-8-10----|
E|---------------------6--8----|
    ................. |

BRIDGE:
E|---------------------------------------------------------------------------|
B|---------------------------------------------------------------------------|
G|-----------------7-----------------------------------------------------9---|
D|---9-9---9-9---5-5-7---------9-9---5-5---5-7---------11-11---11-11---7-7-9-|
A|---7-7-7-7-7-7-3---5-5-5-5-5-7-7-7-5-5-5-3-5-5-5-5-5--9--9-9--9--9-9-5---7-|
E|---------------------------------------------------------------------------|
        | |   | |     | P.M.. |   | |   | |   | P.M.. |     | |     | |     | P.M...|

E|------------------------|
B|------------------------|
G|------------------------|
D|---11-11---7-7---7-9----|
A|----9--9-9-7-7-7-5-7----|
E|------------------------|
          | |   | |

CHORUS:
E|---------------------------------------------------------------------------|
B|---------------------------------------------------------------------------|
G|---5-----7-----8-----7-----5-----2-----5-----7-----8-----7-----5-----2-----|
D|---5-----7-----8-----7-----5-----2-----5-----7-----8-----7-----5-----2-----|
A|---3-0-0-5-0-0-6-0-0-5-0-0-3-0-0-0-0-0-3-0-0-5-0-0-6-0-0-5-0-0-3-0-0-0-0-0-|
E|---------------------------------------------------------------------------|
      |P.M| |P.M| |P.M| |P.M| |P.M| |P.M| |P.M| |P.M| |P.M| |P.M| |P.M|     |P.M| |

E|------------------------------------------|
B|------------------------------------------|
G|-----7-----8-----7-----5-----5---3-3-2----|
D|-----7-----8-----7-----5---5-5-3-3-3-2----|
A|---0-5-0-0-6-0-0-5-0-0-3-0-5-3-3-1-1-0----|
E|---------------------------3--------------|
   P.M| |P.M| |P.M| |P.M| | |

VERSE:
THIS TIME GUITAR 2 PLAYS RIFF B DURING HOLE VERSE

BRIDGE:
SAME AS ABOVE

SOLO:
E|--------------------------------------------------------------------------|
B|--------------------------------------------------------------------------|
G|----------------------------------------------------------7-9-------------|
D|--7-7-7-7-9---------------5-------7-------9-------9-------7-9-7-----------|
A|--7-7-7-7-9---------------5-------7-------9-------9-------5-7-7-----------|
E|--5-5-5-5-7-7-7-7-7-7-7-7-3-3-3-3-5-5-5-5-7-7-7-7-7-7-7-7-----5-5-5-5-5-5-|
             | P.M........ | | P.M.| | P.M.| | P.M.| | P.M.|     | P.M...... |     |

E|--------------------------------------------------------------------|
B|--------------------------------------------------------------------|
G|--------------------------------------------------------------------|
D|-----------------5-------7-------5-------5-------7-----7-----7------|
A|-----------------5-------7-------5-------5-------7-----7-----7------|
E|---7-7-7-7-7-7-7-3-3-3-3-5-5-5-5-3-3-3-3-3-3-3-3-5-5-5-5-5-5-5-5----|
    | P.M........ | | P.M | | P.M | | P.M | | P.M | |P.M| |P.M| |P.M|

E|-----------------------------------------------------------------------------------|
B|-----------------------------------------------------------------------------------|
G|---7---------------3-------5-------7-------7-------7-9-5-------------10-9----------|
D|---7---------------3-------5-------7-------7-------5-7-5-------------10-9----------|
A|---5-5-5-5-5-5-5-5-1-1-1-1-3-3-3-3-5-5-5-5-5-5-5-5-----3-3-3-3-3-3-3--8-7----------|
E|-----------------------------------------------------------------------------------|
      | P.M........ | | P.M | | P.M | | P.M | | P.M |     | P.M...... |      | P.M.

E|--------------------------------------------------------------|
B|--------------------------------------------------------------|
G|-----------3-------5-------3-------3-------5-----5-----5------|
D|-----------3-------5-------3-------3-------5-----5-----5------|
A|---5-5-5-5-1-1-1-1-3-3-3-3-1-1-1-1-1-1-1-1-3-3-3-3-3-3-3-3----|
E|--------------------------------------------------------------|
    ....... | | P.M | | P.M | | P.M | | P.M | |P.M| |P.M| |P.M|

AFTER SOLO:
guitar 1:
E|------------------------------------------------------------------|
B|------------------------------------------------------------------|
G|-----------11-9---------------------------11-9----------9-11-9----|
D|---9-11-12------12-11-9-11-12-11--9-11-12------12-11-12-----------|
A|------------------------------------------------------------------|
E|------------------------------------------------------------------|

guitar 2:
E|--------------------------------------------------------------------------|
B|--------------------------------------------------------------------------|
G|----------------------------7--9----------------------------7-------------|
D|---9--5--7--9--7---9--5--7--7--9---9--5--7--9--7---9--5--7--7-------------|
A|---9--5--7--9--7---9--5--7--5--7---9--5--7--9--7---9--5--7--5-5-5-5-5-5-5-|
E|---7--3--5--7--5---7--3--5---------7--3--5--7--5---7--3--5----------------|
                                                               | P.M........ | | P.M

E|--------------------|
B|--------------------|
G|-------------5/7----|
D|-------------5-5----|
A|---7-7-7-7-7--------|
E|--------------------|
   .......... |

RIFF B:

VERSE:
SAME AS VERSE 2

BRIDGE:
SAME AS ABOVE

CHORUS:
E|---------------------------------------------------------------------------|
B|---------------------------------------------------------------------------|
G|---5-----7-----8-----7-----5-----2-----5-----7-----8-----7-----5-----2-----|
D|---5-----7-----8-----7-----5-----2-----5-----7-----8-----7-----5-----2-----|
A|---3-0-0-5-0-0-6-0-0-5-0-0-3-0-0-0-0-0-3-0-0-5-0-0-6-0-0-5-0-0-3-0-0-0-0-0-|
E|---------------------------------------------------------------------------|
      |P.M| |P.M| |P.M| |P.M| |P.M| |P.M| |P.M| |P.M| |P.M| |P.M| |P.M|     |P.M|

E|---------------------------------------------------------------------------|
B|---------------------------------------------------------------------------|
G|---5-----7-----8-----7-----5-----2-----5-----7-----8-----7-----5-----2-----|
D|---5-----7-----8-----7-----5-----2-----5-----7-----8-----7-----5-----2-----|
A|---3-0-0-5-0-0-6-0-0-5-0-0-3-0-0-0-0-0-3-0-0-5-0-0-6-0-0-5-0-0-3-0-0-0-0-0-|
E|---------------------------------------------------------------------------|
      |P.M| |P.M| |P.M| |P.M| |P.M| |P.M| |P.M| |P.M| |P.M| |P.M| |P.M| |P.M| |P.

E|---------------------------------------------------------------------------|
B|---------------------------------------------------------------------------|
G|-----7-----8-----7-----5---2-----5-----7-----8-----7-----5-----2-----5-----|
D|-----7-----8-----7-----5-5-2-----5-----7-----8-----7-----5-----2-----5-----|
A|---0-5-0-0-6-0-0-5-0-0-3-5-0-0-0-3-0-0-5-0-0-6-0-0-5-0-0-3-0-0-0-0-0-3-0-0-|
E|-------------------------3-------------------------------------------------|
    M | |P.M| |P.M| |P.M|     |P.M| |P.M| |P.M| |P.M| |P.M| |P.M| |P.M| |P.M| |P.

E|---------------------------------------------------------------------------|
B|---------------------------------------------------------------------------|
G|-----8-----7-----5---2-----5-----7-----8-----7-----5-------5-----5-----5-5-|
D|-----8-----7-----5-5-2-----5-----7-----8-----7-----5-5-5/7-5-5/7-5-5/7-5-5-|
A|---0-6-0-0-5-0-0-3-5-0-0-0-3-0-0-5-0-0-6-0-0-5-0-0-3-5-5-5---5-5---5-5-----|
E|-------------------3---------------------------------3---------------------|
    M | |P.M| |P.M|     |P.M| |P.M| |P.M| |P.M| |P.M|

DREAMLAND:


Tune to Eb

Intro:
eb|--------------------------------------------------------|
Bb|--------------------------------------------------------|
Gb|--2---4---5---7---9-------------------------------------|
Db|--2---4---5---7---9------9~-----------------------------|
Ab|--0---2---3---5---7-------------------------------------|
Eb|--------------------------------------------------------|

            ~~                                           ~
eb|---------19---------------------------------------------|
Bb|--------------------------------------------------------|
Gb|--------------------------------------------------------|
Db|---------9---------10-9-7-------------4---------------9-|
Ab|--------------------------10-9-10-9-7-6---6-7---7-9-7---|
Eb|-0-0-0-0---0-0-0-0----------------------7-----8---------|

            ~~
eb|---------19---------------------------------------------|
Bb|--------------------------------------------------------|
Gb|--------------------------------------------------------|
Db|---------9---------10-9-7-------------4-----------coda1-|
Ab|--------------------------10-9-10-9-7-6---6-7-----------|
Eb|-0-0-0-0---0-0-0-0----------------------7-----8---------|

coda1:
eb|--------------------------------------------------------|
Bb|--------------------------------------------------------|
Gb|--------------------------------------------------------|
Db|----------7-7-9-9-10-10-----7-7-9-10-9-7----------------|
Ab|-10-10-10--------------------------------10-------------|
Eb|--------------------------------------------------------|

Play twice, first one time wihout regular drums then on
time with drums, and with the drums the second guitar don´t
play the high 19 on the high eb string instead he plays a 10
on the Ab string, listen and you know what i mean.

Verse:
    E               D            E             D    C   D
eb|--------------------------------------------------------|
Bb|--------------------------------------------------------|
Gb|-9---------------7------------9-------------7----5---7--|
Db|-9---------------7-------5575-9--------5577-7----5---7--|
Ab|-7------101010-9-5------------7-------------5----3---5--|
Eb|--------------------------------------------------------|
   See the light....

eb|--------------------------------------------------------|
Bb|--------------------------------------------------------|
Gb|--------------------------------------------------------|
Db|------------9-----------9-10-9-7-------7------7-8-7-5---|
Ab|-1010101010--1010101010----------88888--88888---------8-|
Eb|--------------------------------------------------------|
    Time has come....

eb|--------------------------------------------------------|
Bb|--------------------------------------------------------|
Gb|--------------------------------------------------------|
Db|------------9-----------9-10-9-7-------7-----7-----5-78-|
Ab|-1010101010--1010101010----------88888--88888--578--8---|
Eb|--------------------------------------------------------|
    That life is a game....

Ok some explaining, This is really fast so the number of fast
10´s and 8´s might not be correct, so listen to the album !

    C          E            D
eb|--------------------------------------------------------|
Bb|--------------------------------------------------------|
Gb|-5----------9------------7------------------------------|
Db|-5-----5577-9------------7-------9999-7777--------------|X0
Ab|-3----------7---77101099-5--7777-----------10101010-9999|
Eb|--------------------------------------------------------|
    The ivory gates....


    C         E            D       C         D  E  D  C
eb|--------------------------------------------------------|
Bb|--------------------------------------------------------|
Gb|-5---------9------------7-------5---------7--9--7--5----|
Db|-5---------9---99-------7--7755-5----5566-7--9--7--5----|X1
Ab|-3--333665-7-----101099-5-------3---------5--7--5--3----|
Eb|--------------------------------------------------------|
    Surrender this night....

I am sure about the chord progression but I´m not so sure
about the notes just before the chords, listen !!

Pre Chorus:
(Two guitars)                  ~~~~
eb|--------------------------------------------------------|
Bb|--15^(17)-15^(17)-15-13-12------------------------------|
Gb|--14^(16)-14^(16)-14-12-11--14--------------------------|
Db|----------------------------14--------------------------|X2
Ab|--------------------------------------------------------|
Eb|--------------------------------------------------------|

Chorus:
    G   D   C   G   A   E   C    C    B   A
eb|--------------------------------------------------------|
Bb|-------------------------------------------------------7|
Gb|-----7---5-----------9-----------------------------7-9--|
Db|-5---7---5---5---7---9---10---10---9---7----------------|X3
Ab|-5---5---3---5---7---7---10---10---9---7----------------|
Eb|-3-----------3---5-------8----8----7---5----------------|
    Come with me....

    G     D    C     G     A    E  C    E D E   C  B
eb|--------------------------------------------------------|
Bb|-8-8-7--------------------------------------------------|
Gb|-------7--7\5-5h7----------7h9-------9-7-9---5--4-------|
Db|------------------5-5h7-7-------10---9-7-9---5--4-------|X4
Ab|--------------------------------10---7-5-7---3--2-------|
Eb|--------------------------------8-----------------------|
    On the wings of destiny....


                            ~
eb|--------------------------------------------------------|
Bb|--------------------------------------------------------|
Gb|--2---4---5---7---9-------------------------------------|
Db|--2---4---5---7---9------9------------------------------|
Ab|--0---2---3---5---7-------------------------------------|
Eb|--------------------------------------------------------|

Now you play all this twice !

After two "rounds" of verse, chorus etc...
comes this "nice" riff

eb|--------------------------------------------------------|
Bb|--------------------------------------------------------|
Gb|--------------------------------------------------------|
Db|---9-7-9----7-----------9-7-9----7----------------------|
Ab|-7-------10---9-10-9--7-------10---9-10-9---------------|
Eb|--------------------------------------------------------|


eb|--------------------------------------------------------|
Bb|--------------------------------------------------------|
Gb|--------------------------------------------------------|
Db|----10-9-10----9----------------10-9-10----9-------10---|
Ab|-10---------12---10-12-10-9--10---------12---10-12------|
Eb|--------------------------------------------------------|

2nd guitar plays this, listen for timing...

    E  D E  B C  D A    D E  D E  B C  B A
eb|--------------------------------------------------------|
Bb|--------------------------------------------------------|
Gb|-9--7-9--4-5--4-2----7-9--7-9--4-5--4-2-----------------|
Db|-9--7-9--4-5--4-2----7-9--7-9--4-5--4-2-----------------|
Ab|-7--5-7--2-3--2-0----5-7--5-7--2-3--2-0-----------------|
Eb|-0------------------------------------------------------|

Hold the C chords !

Triplet riff:
eb|--------------------------------------------------------|
Bb|--------------------------------------------------------|
Gb|-9-------------7-9-------------7------------------------|
Db|-9-------------7-9-------------7------------------------|
Ab|-7-777-777-777-5-7-777-777-777-5------------------------|
Eb|--------------------------------------------------------|
    Let me know......

eb|--------------------------------------------------------|
Bb|--------------------------------------------------------|
Gb|-5-------------5-2-------------7------------------------|
Db|-5-------------5-2-------------7------------------------|
Ab|-3-333-333-333-3-0-000-000-000-5------------------------|
Eb|--------------------------------------------------------|
    Ther´s a place.......

Then play the triplet riff with the "nice riff"

Then comes the first solo which is backed up by the
following power chords, as always listen for timing !


    D      Bb    G     D     Bb    G  A  Bb B
eb|--------------------------------------------------------|
Bb|--------------------------------------------------------|
Gb|-7------3-----------7-----3-----------------------------|
Db|-7------3-----5-----7-----3-----5--7--8--9--------------|
Ab|-5------1-----5-----5-----1-----5--7--8--9--------------|
Eb|--------------3-----------------3--5--6--7--------------|

Solo 1 :
                                                      ~~~
eb|-----------------------------------21^(22)-21^(22)`20---|
Bb|-13^(15)-13^(15)`13----13-13^(15)-----------------------|
Gb|--------------------14----------------------------------|
Db|--------------------------------------------------------|
Ab|--------------------------------------------------------|
Eb|--------------------------------------------------------|


eb|-12p10--------12p10-------13p10-------13p10-------------|
Bb|-------10-10--------10-10-------10-10-------10-10-------|
Gb|--------------------------------------------------------|
Db|--------------------------------------------------------|
Ab|--------------------------------------------------------|
Eb|--------------------------------------------------------|


eb|-17p12-15-14p12--17p14p12-17p15p12-19-21^(22)-21^(22)---|
Bb|--------------------------------------------------------|
Gb|--------------------------------------------------------|
Db|--------------------------------------------------------|
Ab|--------------------------------------------------------|
Eb|--------------------------------------------------------|

When the backup guitar plays the G A Bb B part in the end of
the 1st solo, then the 2nd solo starts

Solo 2 backup riff:
    E           C              A
eb|--------------------------------------------------------|
Bb|--------------------------------------------------------|
Gb|-9-----------5--------------2---------------------------|
Db|-9-----------5--------------2---------------------------|
Ab|-7-7´s-------3-3´s----------0--0´s----------------------|
Eb|--------------------------------------------------------|

    E           C              A         A   B   C   D
eb|--------------------------------------------------------|
Bb|--------------------------------------------------------|
Gb|-9-----------5--------------2---------2---4---5---7-----|
Db|-9-----------5--------------2---------2---4---5---7-----|
Ab|-7-7´s-------3-3´s----------0-0´s-----0---2---3---5-----|
Eb|--------------------------------------------------------|

Solo 2:
eb|--------------------------------------------------------|
Bb|--------------------------------------------------------|
Gb|-------------------------------1515-1717----------------|
Db|----------------1414-1616-1717--------------------------|
Ab|-1414-1616-1717-----------------------------------------|
Eb|--------------------------------------------------------|


eb|-15-121212--17-121212--15-121212--17p15p12-15h17--------|
Bb|--------------------------------------------------------|
Gb|--------------------------------------------------------|
Db|--------------------------------------------------------|
Ab|--------------------------------------------------------|
Eb|--------------------------------------------------------|


eb|-19-1212-17-1212-15-1212-14-1212-1717-1515-1414---------|
Bb|------------------------------------------------1515----|
Gb|--------------------------------------------------------|
Db|--------------------------------------------------------|
Ab|--------------------------------------------------------|
Eb|--------------------------------------------------------|


eb|--------------------------------------------------------|
Bb|-3-000--5-000--3-000--5-000--3p0-5p0-3p0-2--------------|
Gb|--------------------------------------------------------|
Db|--------------------------------------------------------|
Ab|--------------------------------------------------------|
Eb|--------------------------------------------------------|

    T    T    T    T    T    T    T    T
eb|----------------------------------------------------------|
Bb|-12p7-12p7-12p5-12p5-12p3-12p3-12p2-12p2------------------|
Gb|----------------------------------------------------------|
Db|----------------------------------------------------------|
Ab|----------------------------------------------------------|
Eb|----------------------------------------------------------|

                     ~~~~
eb|--------------------------------------------------------|
Bb|-15^(17)`15-13-12-13------------------------------------|
Gb|--------------------------------------------------------|
Db|--------------------------------------------------------|
Ab|--------------------------------------------------------|
Eb|--------------------------------------------------------|

The solo ends on a C into riff X0
Then you play the riffs X0 to X4 once more

And then comes the outro

Outro:                  ~~             ~~
eb|--------------------------------------------------------|
Bb|--------------------------------------------------------|
Gb|-2---4---5---7---9------------------7-------------------|
Db|-2---4---5---7---9---4--------------7-------------------|
Ab|-0---2---3---5---7---5--5h7p5h7p5h7-5-------------------|
Eb|--------------------------------------------------------|

                     ~~  ~~~~~
eb|----------------------19--------------------------------|
Bb|--------------------------------------------------------|
Gb|--2---4---5---7---9-------------------------------------|
Db|--2---4---5---7-------9---------------------------------|
Ab|--0---2---3---5-----------------------------------------|
Eb|--------------------------------------------------------|

REMEMBER YESTERDAY:


 (Clean guitar)
D#||--------------------------|--------------------------|
A#||-----5--------5--------5--|-----3--------3--------3--|
F#||--------5--------5--------|--------5--------5--------|
C#||-----------7--------7-----|-----------5--------5-----|
G#||--0-----------------------|--0-----------------------|
D#||--------------------------|--------------------------|

--------------------------|--------------------------|
-----3--------3--------3--|-----1--------------1-----|
--------4--------4--------|--------2--------2-----2--|
--5--------5--------5-----|--3--------2--3-----------|
--------------------------|--------------------------|
--------------------------|--------------------------|

-----------0-----------0--|-----------3--------3-----|-----------0--1-------|
--------------1-----------|--------------3--------3--|--------3--------3----|
--------2--------2--------|--------0--------0--------|-----2--------------2-|
-----2--------------2-----|-----0--------------------|--0-------------------|
--0-----------------------|--2-----------------------|----------------------|
--------------------------|--------------------------|----------------------|


                        Verse
--------1--0--1--------|--------------------------|-------------------------|
-----1-----------------|-----5--------5--------5--|-----3--------3--------3-|
-----------------------|--------5--------5--------|--------5--------5-------|
--3--------------------|-----------7--------7-----|-----------5--------5----|
-----------------------|--0-----------------------|--0----------------------|
-----------------------|--------------------------|-------------------------|

--------------------------|--------------------------|
-----3--------3--------3--|-----1--------------1-----|
--------4--------4--------|--------2--------2-----2--|
--5--------5--------5-----|--3--------2--3-----------|
--------------------------|--------------------------|
--------------------------|--------------------------|

-----------0-----------0--|-----------3--------3-----|-----------0--1-------|
--------------1-----------|--------------3--------3--|--------3--------3----|
--------2--------2--------|--------0--------0--------|-----2--------------2-|
-----2--------------2-----|-----0--------------------|--0-------------------|
--0-----------------------|--2-----------------------|----------------------|
--------------------------|--------------------------|----------------------|

--------1--0--1--------|--------------------------|-------------------------|
-----1-----------------|-----5--------5--------5--|-----3--------3--------3-|
-----------------------|--------5--------5--------|--------5--------5-------|
--3--------------------|-----------7--------7-----|-----------5--------5----|
-----------------------|--0-----------------------|--0----------------------|
-----------------------|--------------------------|-------------------------|

--------------------------|--------------------------|
-----3--------3--------3--|-----1--------------1-----|
--------4--------4--------|--------2--------2-----2--|
--5--------5--------5-----|--3--------2--3-----------|
--------------------------|--------------------------|
--------------------------|--------------------------|

-----------0-----------0--|-----------3--------3-----|-----------0--1-------|
--------------1-----------|--------------3--------3--|--------3--------3----|
--------2--------2--------|--------0--------0--------|-----2--------------2-|
-----2--------------2-----|-----0--------------------|--0-------------------|
--0-----------------------|--2-----------------------|----------------------|
--------------------------|--------------------------|----------------------|


                        Bridge
--------1--0--1--------|--------------0-----------|--------------3--------3-|
-----1-----------------|-----------1-----1--------|-----------3-----3-------|
-----------------------|--------0-----------0-----|--------0-----------0----|
--3--------------------|-----2-----------------2--|-----0-------------------|
-----------------------|--3-----------------------|-------------------------|
-----------------------|--------------------------|--3----------------------|

-----------0--1----------|--------------------------|-----------3-----------|
--------3--------3-------|-----------0--1--------1--|--------3-----------1--|
-----2--------------2----|--------2--------2--------|-----4-----------2-----|
--0----------------------|-----2--------------2-----|--5-----------3--------|
-------------------------|--0-----------------------|-----------------------|
-------------------------|--------------------------|-----------------------|

-------------------------|--------------3----------|------------------|
-----------0--1----------|-----------3-----3-------|------------------|
--------2--------2-------|--------0-----------0----|------------------|
-----2--------------2----|-----0-------------------|------------------|
--0----------------------|-------------------------|------------------|
-------------------------|--3----------------------|------------------|


Riff
--------------------------|--------------------------|
-----5--------5--------5--|-----3--------3--------3--|
--------5--------5--------|--------5--------5--------|
-----------7--------7-----|-----------5--------5-----|
--0-----------------------|--0-----------------------|
--------------------------|--------------------------|

--------------------------|--------------------------|
-----3--------3--------3--|-----1--------------1-----|
--------4--------4--------|--------2--------2-----2--|
--5--------5--------5-----|--3--------2--3-----------|
--------------------------|--------------------------|
--------------------------|--------------------------|


Verse 2
--------------------------|--------------------------|
-----5--------5--------5--|-----3--------3--------3--|
--------5--------5--------|--------5--------5--------|
-----------7--------7-----|-----------5--------5-----|
--0-----------------------|--0-----------------------|
--------------------------|--------------------------|

--------------------------|--------------------------|
-----3--------3--------3--|-----1--------------1-----|
--------4--------4--------|--------2--------2-----2--|
--5--------5--------5-----|--3--------2--3-----------|
--------------------------|--------------------------|
--------------------------|--------------------------|

-----------0-----------0--|-----------3--------3-----|-----------0--1-------|
--------------1-----------|--------------3--------3--|--------3--------3----|
--------2--------2--------|--------0--------0--------|-----2--------------2-|
-----2--------------2-----|-----0--------------------|--0-------------------|
--0-----------------------|--2-----------------------|----------------------|
--------------------------|--------------------------|----------------------|


                        Bridge
--------1--0--1--------|--------------0-----------|--------------3--------3-|
-----1-----------------|-----------1-----1--------|-----------3-----3-------|
-----------------------|--------0-----------0-----|--------0-----------0----|
--3--------------------|-----2-----------------2--|-----0-------------------|
-----------------------|--3-----------------------|-------------------------|
-----------------------|--------------------------|--3----------------------|

-----------0--1----------|--------------------------|-----------3-----------|
--------3--------3-------|-----------0--1--------1--|--------3-----------1--|
-----2--------------2----|--------2--------2--------|-----4-----------2-----|
--0----------------------|-----2--------------2-----|--5-----------3--------|
-------------------------|--0-----------------------|-----------------------|
-------------------------|--------------------------|-----------------------|

-------------------------|--------------3----------|------------------|
-----------0--1----------|-----------3-----3-------|------------------|
--------2--------2-------|--------0-----------0----|------------------|
-----2--------------2----|-----0-------------------|------------------|
--0----------------------|-------------------------|------------------|
-------------------------|--3----------------------|------------------|

                   Outro
------------------|--------------------------|--------------------------|
------------------|-----5--------5--------5--|-----3--------3--------3--|
------------------|--------5--------5--------|--------5--------5--------|
------------------|-----------7--------7-----|-----------5--------5-----|
------------------|--0-----------------------|--0-----------------------|
------------------|--------------------------|--------------------------|

--------------------------|--------------------------|
-----3--------3--------3--|-----1--------------1-----|
--------4--------4--------|--------2--------2-----2--|
--5--------5--------5-----|--3--------2--3-----------|
--------------------------|--------------------------|
--------------------------|--------------------------|

-----------0-----------0--|-----------3--------3-----|-----------0--1-------|
--------------1-----------|--------------3--------3--|--------3--------3----|
--------2--------2--------|--------0--------0--------|-----2--------------2-|
-----2--------------2-----|-----0--------------------|--0-------------------|
--0-----------------------|--2-----------------------|----------------------|
--------------------------|--------------------------|----------------------|


rit.
--------1--0--1--------1--||
-----1-----------1--------||
--------------------------||
--3-----------------3-----||
--------------------------||
--------------------------||

AT THE END OF THE RAINBOW:


TUNE GUITAR A HALF STEP DOWN TO Eb

INTRO:
E|--------------------------------------------------------------------------|
B|--------------------------------------------------------------------------|
G|---7/-9-----------------9------------7/9--------------------------7--9----|
D|---7/-9----------7------9------------7/9--------------------------5--7--9-|
A|---5/-7---7-9-10---10-9-7------------5/7--------------------------------7-|
E|--------------------------0-0-0--0-0-----0-0-0--0-0-0--0-0-0--0-0---------|
                           | P.M..... |   | P.M................... |       | P.M.....

E|------------------------------------------------------|
B|------------------------------------------------------|
G|-----7/9------------7/9--------------------------9----|
D|-----7/9------------7/9-------------------7------9----|
A|-----5/7------------5/7------------7-9-10---10-9-7----|
E|---0-----0-0-0--0-0-----0-0-0--0-0--------------------|
   ...|   | P.M..... |   | P.M..... |

VERSE:
E|--------------------------------------------------------------------------|
B|--------------------------------------------------------------------------|
G|--------------7/9--------------------------7--9---------------------------|
D|--------------7/9--------------------------5--7--9-9--7--5----------------|
A|--------------5/7--------------------------------7-9--7--5----------------|
E|---0-0-0--0-0-----0-0-0--0-0-0--0-0-0--0-0---------7--5--3--0-0-0--0-0----|
    | P.M..... |   | P.M................... |                | P.M..... |

E|--------------------------------------------------------------------------|
B|--------------------------------------------------------------------------|
G|-----9------------7/9------------7/9--------------------------------------|
D|-----9------------7/9------------7/9-------------------7------9--7--5-----|
A|---9-7------------5/7------------5/7------------7-9-10---10-9-9--7--5-----|
E|-------0-0-0--0-0-----0-0-0--0-0-----0-0-0--0-0---------------7--5--3-0-0-|
        | P.M..... |   | P.M..... |   | P.M..... |                     | P.M.........

E|--------------------------------------------------------------------------|
B|--------------------------------------------------------------------------|
G|-----------------9------------7/9------------5----------------------------|
D|--------------7--9------------7/9------------5--7--9-----9-------------9--|
A|--------------7--7------------5/7------------3--7--9-----9-------------9--|
E|---0-0-0--0-0-5----0-0-0--0-0-----0-0-0--0-0----5--7-7-7-7-7-7-7-8-7-5-7--|
    .......... |    | P.M..... |   | P.M..... |       |P.M| |P.M|

CHORUS:
E|--------------------------------------------------------------------------|
B|--------------------------------------------------------------------------|
G|---------------------------9--7--5-----5-----4----------------------------|
D|---2-----2-----2-----2-----9--7--5-----5-----4-5-----5-----4-----2-----2--|
A|---2-----2-----2-----2-----7--5--3-3-3-3-3-3-2-5-----5-----4-----2-----2--|
E|---0-0-0-0-0-0-0-0-0-0-0-0---------------------3-3-3-3-3-3-2-3-2-0-0-0-0--|
      |P.M| |P.M| |P.M| |P.M|       |P.M| |P.M|   |P.M| |P.M| |P.M| |P.M| |P.M| |P.M|

E|-------------------------------------------------------------------|
B|-------------------------------------------------------------------|
G|---------9--7--5-----5-----4---------------2------------------9----|
D|---2-----9--7--5-----5-----4-5-----5-----4-2--5--------7------9----|
A|---2-----7--5--3-3-3-3-3-3-2-5-----5-----4-0--5-7-9-10---10-9-7----|
E|---0-0-0---------------------3-3-3-3-3-3-2----3--------------------|
      |P.M|       |P.M| |P.M|   |P.M| |P.M|

VERSE:
SAME AS ABOVE

CHORUS:
SAME AS ABOVE

BRIDGE:
E|--------------------------------------------------------------------------|
B|--------------------------------------------------------------------------|
G|---11-11-----------------------9-11-12--11-11-----------------------9-11--|
D|---11-11---11---11---11---11---9-11-12--11-11---11---11---11---11---9-11--|
A|---------9----9----9----9----9----------------9----9----9----9----9-------|
E|--------------------------------------------------------------------------|
          | |  | |  | |  | |  | |              | |  | |  | |  | |  | |

E|-------------------------------------------------------------------------|
B|-------------------------------------------------------------------------|
G|-------------------------9-11-12--11-11----------------------------------|
D|-----11---11---11---11---9-11-12--11-11---11---11---11---11---9-7-4-2----|
A|---9----9----9----9----9----------------9----9----9----9----9-9-7-4-2----|
E|--------------------------------------------------------------7-5-2-0----|
    | |  | |  | |  | |  | |              | |  | |  | |  | |

SOLO:
E|---------------------------------------------------------------------------|
B|---------------------------------------------------------------------------|
G|-----------------------2-------------------------------------------2-------|
D|---4-----4---4-------2-2-4-----4---4-------2-5-4-----4---4-------2-2-4-----|
A|---4-----4---4-------2-0-4-----4---4-------2-5-4-----4---4-------2-0-4-----|
E|---2-2-2-2-2-2-2-2-2-0---2-2-2-2-2-2-2-2-2-0-3-2-2-2-2-2-2-2-2-2-0---2-2-2-|
      |P.M| | | |P.M..|     |P.M| | | |P.M..|     |P.M| | | |P.M..|     |P.M| |P.M|

E|--------------------------------------------------------------------------|
B|--------------------------------------------------------------------------|
G|---2----------------------------5-----------------------------------------|
D|---2--4--2--7-----7---7-------5-5-7-----7---7-------5-8-7-----7---7-------|
A|---0--4--2--7-----7---7-------5-3-7-----7---7-------5-8-7-----7---7-------|
E|------2--0--5-5-5-5-5-5-5-5-5-3---5-5-5-5-5-5-5-5-5-3-6-5-5-5-5-5-5-5-5-5-|
               |P.M| | | | P.M|      |P.M| | | | P.M.|     |P.M| | | | P.M.|     |P.M|

E|--------------------|
B|--------------------|
G|--------------------|
D|---7-----7-5--------|
A|---7---------8-7----|
E|---5-5-5------------|
      |P.M|

BRIDGE:
E|-----------------------------------------|
B|-----------------------------------------|
G|---7--3--7-----------7--3--------5--2----|
D|---7--3--7--3--5--2--7--3--3--5--5--2----|
A|---5--1--5--3--5--2--5--1--3--5--3--0----|
E|------------1--3--0--------1--3----------|

CHORUS: ( FIRST AS ABOVE THEN LIKE THIS )
E|---------------------------------------------------------------------------|
B|---------------------------------------------------------------------------|
G|--------------------------11--9--7-----7-----6-7-----7-----4---------------|
D|---4-----4-----4-----4----11--9--7-----7-----6-7-----7-----4-----4-----4---|
A|---4-----4-----4-----4-----9--7--5-5-5-5-5-5-4-5-5-5-5-5-5-2-----4-----4---|
E|---2-2-2-2-2-2-2-2-2-2-2-2-----------------------------------5-4-2-2-2-2-2-|
      |P.M| |P.M| |P.M| |P.M|       |P.M| |P.M|   |P.M| |P.M| |P.M| |P.M| |P.M| |P.M|

E|------------------------------------------------------|
B|------------------------------------------------------|
G|--------11--9--7-----7-----6-2-----2------------------|
D|---4----11--9--7-----7-----6-2-----2-----6-7-6-2-4----|
A|---4-----9--7--5-5-5-5-5-5-4-0-0-0-0-0-0-6-7-6-2-4----|
E|---2-2-2---------------------------------4-5-4-0-2----|
      |P.M|       |P.M| |P.M|   |P.M| |P.M|

OUTRO:
E|--------------------------------------------------------------------------|
B|--------------------------------------------------------------------------|
G|-------------------------------9-11-12------------------------------9-11--|
D|---11-11---11---11---11---11---9-11-12--11-11---11---11---11---11---9-11--|
A|---------9----9----9----9----9----------------9----9----9----9----9-------|
E|--------------------------------------------------------------------------|
          | |  | |  | |  | |  | |              | |  | |  | |  | |  | |

E|--------------------------------------------------------------|
B|--------------------------------------------------------------|
G|-------------------------9-11-12--11-11--------4-2------------|
D|-----11---11---11---11---9-11-12--11-11---11---4-2-4-2-4-4----|
A|---9----9----9----9----9----------------9----9-2-0-4-2-4-4----|
E|---------------------------------------------------2-0-2-2----|
    | |  | |  | |  | |  | |              | |  | |

BACK TO BACK:


TUNE A HALF STEP DOWN TO Eb

INTRO:
E|---------------------------------------------------------------------------|
B|---------------------------------------------------------------------------|
G|---------------------------------5-4-5-4-----------------------------------|
D|---2-----------------------------5-4-5-4-5-4-2-----------------------------|
A|---2-----------------------------3-2-3-2-5-4-2-----------------------------|
E|---0-0-0-0-0-0-0-0-0-0-0-0-0-0-0---------3-2-0-0-0-0-0-0-0-0-0-0-0-0-0-0-0-|
      | P.M.....................  |             | P.M.....................  |

E|---------------------------------------------------------------------------|
B|---------------------------------------------------------------------------|
G|---5-4-5-4-12-11-------------------------------5-4-5-4---------------------|
D|---5-4-5-4-12-11-9-----------------------------5-4-5-4-5-4-2---------------|
A|---3-2-3-2-10--9-7-----------------------------3-2-3-2-5-4-2---------------|
E|-----------------0-0-0-0-0-0-0-0-0-0-0-0-0-0-0---------3-2-0-0-0-0-0-0-0-0-|
                    | P.M...................... |

E|---------------------------------------------------------------------------|
B|---------------------------------------------------------------------------|
G|-----------------5-4-5-4-5-7-----------------------------------------------|
D|-----------------5-4-5-4-5-7-9---------------------------------------------|
A|-----------------3-2-3-2-3-5-7---------------------------------------------|
E|---0-0-0-0-0-0-0-------------0-0-0-0-0-0-0-0-0-0-0-0-0-0-0-0-0-0-0-0-0-0-0-|
    | P.M........ |             | P.M...................................... |

E| -----------------------|
B|------------------------|
G|------------------------|
D|---------------------9--|
A|---7-7-9-9-10-10-9-9-7--|
E|---------------------0--|
   | P.M............. |

VERSE:
E|---------------------------------------------------------------------------|
B|---------------------------------------------------------------------------|
G|-----------------------------------------------9-7-5-7-9-------------------|
D|-----------------------------------------------9-7-5-7-9-------------------|
A|-----------------------------------------------7-5-3-5-7-------------------|
E|---0-0-0-0-0-0-0-0-0-0-0-0-0-0-0-0-0-0-0-0-0-0-----------0-0-0-0-0-0-0-0-0-|
    | P.M...................................... |       | P.M............... |

E|---------------------------------------------------------------------------|
B|---------------------------------------------------------------------------|
G|-----------------7---9---------9-------------------------------------------|
D|-----------------5-7-7-9-12-11-9-------------------------------------------|
A|-------------------5---7-10--9-7-------------------------------------------|
E|---0-0-0-0-0-0-0-----------------0-0-0-0-0-0-0-0-0-0-0-0-0-0-0-0-0-0-0-0-0-|
    | P.M........ |               | P.M.......................................|

E|--------------------------------------------------------------------------|
B|--------------------------------------------------------------------------|
G|---9-7-5-7-5-7-9-------7-9---------5-7-9-------------------------------9--|
D|---9-7-5-7-5-7-9-------7-9---------5-7-9-------------------------------9--|
A|---7-5-3-5-3-5-7-------5-7---------3-5-7-------------7-7-9-9-10-10-9-9-7--|
E|-----------------0-0-0-----0-0-0-0-------0-0-0-0-0-0----------------------|
                  | P.M |   | P.M.. |     | P.M........................ |

E|---------------------------------------------------------------------------|
B|---------------------------------------------------------------------------|
G|-----------------------------------------------9-7-5-7-9-------------------|
D|-----------------------------------------------9-7-5-7-9-------------------|
A|-----------------------------------------------7-5-3-5-7-------------------|
E|---0-0-0-0-0-0-0-0-0-0-0-0-0-0-0-0-0-0-0-0-0-0-----------0-0-0-0-0-0-0-0-0-|
    | P.M...................................... |         | P.M............. |

E|--------------------------------------------------------------------------|
B|--------------------------------------------------------------------------|
G|-------------7---9---------9----------------------------------------------|
D|-------------5-7-7-9-12-11-9----------------------------------------------|
A|---------------5---7-10--9-7----------------------------------------------|
E|---0-0-0-0-0-----------------0-0-0-0-0-0-0-0-0-0-0-0-0-0-0-0-0-0-0-0-0-0--|
    | P.M.... |               | P.M........................................ |

E|----------------------------------------------------|
B|-------------------------------------10-------------|
G|---9-7-5-7-5-7-9-------------9-11-12----12-11-9-----|
D|---9-7-5-7-5-7-9--------------------------------12--|
A|---7-5-3-5-3-5-7------------------------------------|
E|-----------------0-0-0-0-0-0------------------------|
                  | P.M...... |

CHORUS:
E|---------------------||---------------------------------------------------|
B|---------------------||---------------------------------------------------|
G|------5--7--9--5--7--||---------------------------------------------------|
D|---7--5--7--9--5--7--||------10-10-9-9-7-7--------------------------10-10-|
A|---7--3--5--7--3--5--||--------------------10-10-9-9-7-7------------------|
E|---5-----------------||--0-0-----------------------------10-10--8-8-------|
                         | P.M..................................................... |

E|---------------------------------------------------------------------------|
B|---------------------------------------------------------------------------|
G|---------------------------------------------------------------------------|
D|--------------------------10-10-9-9-7-7--------------------------10-10-9-9-|
A|---10-10-9-9-7-7--------0---------------10-10-9-9-7-7----------------------|
E|-----------------10-10--------------------------------10-10--8-8-----------|
    | P.M......................................................................... |

E|----------------------------------------------------|
B|----------------------------------------------------|
G|----------7-----------------------------------------|
D|------7-9---10-9-7------||  || REPEAT THIS TWICE ---|
A|---10--------------10-------------------------------|
E|----------------------------------------------------|

VERSE:
E|---------------------------------------------------------------------------|
B|---------------------------------------------------------------------------|
G|---------------------------------------------------9-7-5-7-9---------------|
D|---------------------------------------------------9-7-5-7-9---------------|
A|---------------------------------------------------7-5-3-5-7---------------|
E|---0-0-0-0-0-0-0-0-0-0-0-0-0-0-0-0-0-0-0-0-0-0-0-0-----------0-0-0-0-0-0-0-|
    | P.M.......................................... |         | P.M.............. |

E|---------------------------------------------------------------------------|
B|---------------------------------------------------------------------------|
G|-----------7---9-------------------------------------------------------9-7-|
D|-----------5-7-7-9-12-11-9---------------------------------------------9-7-|
A|-------------5---7-10--9-7---------------------------------------------7-5-|
E|---0-0-0-0-----------------0-0-0-0-0-0-0-0-0-0-0-0-0-0-0-0-0-0-0-0-0-0-----|
    | P.M.. |               | P.M...................................... |

E|-------------------------------|
B|-----------------8-------------|
G|---5-7-9--7-9-10---10-9-7------|
D|---5-7-9------------------10---|
A|---3-5-7-----------------------|
E|-------------------------------|

CHORUS:
SAME AS ABOVE

BRIDGE:  X 4
E|---------------------|
B|---------------------|
G|--------------12/11--|
D|---9-10-9-7-9--9--9--|
A|---7--7-7-7-7--------|
E|---------------------|
AFTER THIS COMES THIS:
E|---------------------------------------------------|
B|---------------------------------------------------|
G|---5-5-5-5---5-5-5-7---5-5-5-5---5-5-5-7---4-5-7---|
D|---5-5-5-5---5-5-5-7---5-5-5-5---5-5-5-7---4-5-7---|
A|---3-3-3-3---3-3-3-5---3-3-3-3---3-3-3-5---2-3-5---|
E|---------------------------------------------------|

SOLO:
E|---------------------------------------------------------------------------|
B|---------------------------------------------------------------------------|
G|---------------------------------------------------------------------------|
D|---------------------------------------------------------------------------|
A|-----------------------------------3-3-3-3-3-3-3-3-3-3-3-3-3-3-3-3-5-5-5-5-|
E|---0-0-0-0-0-0-0-0-0-0-0-0-0-0-0-0-----------------------------------------|
    |P.M........................ ALL

E|--------------------------------------------------------------------------|
B|--------------------------------------------------------------------------|
G|--------------------------------------------------------------------------|
D|--------------------------------------------------------------------------|
A|---5-5-5-5-5-5-5-5-----------------2-2-2-2-2-2-2-2--7-7-7-7-7-7-7-7-7-7-7-|
E|-------------------3-3-3-3-3-3-3-3----------------------------------------|
    | P.M....................... ALL

E|---------------------------------------------------------------------------|
B|---------------------------------------------------------------------------|
G|---------------------------------------------------------------------------|
D|---------------------------------------------------------------------------|
A|---3-3-3-3-3-3-3-3-3-3-3-3-3-3-3-3-5-5-5-5-5-5-5-5-5-5-5-5-5-5-5-5---------|
E|-------------------------------------------------------------------3-3-3-3-|
    | P.M....................... ALL

E|---------------------------------------------------------------------------|
B|---------------------------------------------------------------------------|
G|---------------------------------------------------------------------------|
D|---------------------------------------------------------------------------|
A|---2-2-2-2-2-2-2-2---------------------------------3-3-3-3-3-3-3-3-3-3-3-3-|
E|-------------------0-0-0-0-0-0-0-0-0-0-0-0-0-0-0-0-------------------------|
    | P.M....................... ALL

E|---------------------------------------------------------------------------|
B|---------------------------------------------------------------------------|
G|---------------------------------------------------------------------------|
D|---------------------------------------------------------------------------|
A|---5-5-5-5-5-5-5-5-5-5-5-5-5-5-5-5-----------------2-2-2-2-2-2-2-2-7-7-7-7-|
E|-----------------------------------3-3-3-3-3-3-3-3-------------------------|
    | P.M....................... ALL

E|--------------------------------------------------------------------------|
B|--------------------------------------------------------------------------|
G|--------------------------------------------------------------------------|
D|--------------------------------------------------------------------------|
A|---7-7-7-7-7-7-7-7-3-3-3-3-3-3-3-3-3-3-3-3-3-3-3-3-5-5-5-5-5-5-5-5-5-5-5--|
E|--------------------------------------------------------------------------|
    | P.M....................... ALL

E|----------------|
B|----------------|
G|----------------|
D|---2--4--5--7---|
A|---2--4--5--7---|
E|---0--2--3--5---|

SOME BRIDGE OR SOMETHING:
E|----------------------|
B|----------------------|
G|---5--7--5--7--5--7---|
D|---5--7--5--7--5--7---|
A|---3--5--3--5--3--5---|
E|----------------------|

VERSE:
SAME AS VERSE 2

CHORUS:
SAME AS ABOVE

OUTRO:
E|--------------------------------------------------------------------------|
B|----------------------8-------------------8-------------------8-----------|
G|---9--9--9--9--7-9-10---10-9-7-----7-9-10---10-9-7-----7-9-10---10-9-7----|
D|---9--9--9--9------------------10------------------10------------------10-|
A|---7--7--7--7-------------------------------------------------------------|
E|--------------------------------------------------------------------------|

STRONGER THAN ALL:


TUNE EA HALF STEP DOWN TO Eb

INTRO:
FIRST PART:
E|-------------------------------------------------------------------------|
B|-------------------------------------------------------------------------|
G|---------------5--7--9--5-----------------------------4------------------|
D|---5--4--2--5--5--7--9--5-----------------------------4------------------|
A|---5--4--2--5--3--5--7--3-3-3-3-3-3-3-3-3-3-3-3-3-3-3-2-2-2-2-2-2-2-2-2--|
E|---3--2--0--3------------------------------------------------------------|
                           | P.M.................... | | P.M.......... |
                                          SECOND PART:
E|---------------------------------------|--------------------------------|
B|---------------------------------------|--------------------------------|
G|---------------------5--7--9--------7--|--------------------------------|
D|---------5--4--2--5--5--7--9--7--5--7--|--2--------------12--9----------|
A|---2-2-2-5--4--2--5--3--5--7--7--5--5--|--2--------------10--7--9--10---|
E|---------3--2--0--3-----------5--3-----|--0--0-0-0-0-0-0--------7---8---|
    | P.M |                                  | P.M...... |

E|-----------------------------------------------------------------------|
B|-----------------------------------------------------------------------|
G|-----------------------------------------------------------------------|
D|---------------7------------------9-------------12--9------------------|
A|---------------------10-----9-----7-------------10--7--9--10-----------|
E|---0-0-0-0-0-0---0-0----0-0---0-0---0-0-0-0-0-0--------7---8-0-0-0-0---|
    | P.M...... | |P.M|  |P.M| |P.M| | P.M...... |            | P.M.. |

E|-----------------------------------------------------------------------|
B|-----------------------------------------------------------------------|
G|-----------------------------------------------------------------------|
D|--------------7-----------9-------------12--9--------------------7-----|
A|-------10-----------9-----7-------------10--7--9--10-------------------|
E|---0-0----0-0---0-0---0-0---0-0-0-0-0-0--------7---8-0-0-0-0-0-0---0-0-|
    |P.M|  |P.M| |P.M| |P.M| | P.M...... |            | P.M...... | |P.M|

E|--------------------------------------------------------------------------|
B|--------------------------------------------------------------------------|
G|--------------------------------------------------------------------------|
D|----------------9-------------12--9---------------------------7-----------|
A|---10-----9-----7-------------10--7--9--10-------------10-----------9-----|
E|------0-0---0-0---0-0-0-0-0-0--------7---8-0-0-0-0-0-0----0-0---0-0---0-0-|
       |P.M| |P.M| | P.M...... |            | P.M...... |  |P.M| |P.M| |P.M|

VERSE:
E|---------------------------------------------------------|
B|---------------------------------------------------------|
G|---9---4-5---7-9---4-5-----------------4-5---5-------4---|
D|---9---4-5---7-9---4-5---7---5--4--2---4-5---5---7---4---|
A|---7---2-3---5-7---2-3---7---5--4--2---2-3---3---7---2---|
E|-------------------------5---3--2--0-------------5-------|

BRIDGE 1:
E|---------------------------------------------------------------------------|
B|---------------------------------------------------------------------------|
G|---------------------------------7-----------------------------------------|
D|---5-----------------------------7-----------------------------7-----------|
A|---5-----------------------------5-5-5-5-5-5-5-5-5-5-5-5-5-5-5-7-----------|
E|---3-3-3-3-3-3-3-3-3-3-3-3-3-3-3-------------------------------5-5-5-5-5-5-|
      | P.M...................... | | P.M...................... | | P.M........ |

E|---------------------------------------------------------------------------|
B|---------------------------------------------------------------------------|
G|-----------------9-----------------------------5-----------------5---5---5-|
D|-----------------9-----------------------------5-----------------5---5---5-|
A|-----------------7-7-7-7-7-7-7-7-7-7-7-7-7-7-7-3-3-3-3-3-3-3-3-3-3-3-3-3-3-|
E|---5-5-5-5-5-5-5-----------------------------------------------------------|
    | P.M........ | | P.M...................... | | P.M.......... | |P| |M|   |P.M|

E|---------------------------------------------------------------|
B|---------------------------------------------------------------|
G|---------------------------7-------------7-------------4-4-4---|
D|-----------------5---5---5-7-------------7-------------4-4-4---|
A|-----------------5---5---5-5-5-5-5-5-5-5-5-5-5-5-5-5-5-2-2-2---|
E|---3-3-3-3-3-3-3-3-3-3-3-3-------------------------------------|
    | P.M........ | |P| |M|   | P.M...... | |P.M....... |

CHORUS:
E|--------------------------------------------------------------------------|
B|--------------------------------------------------------------------------|
G|---------------5--7--9--5-----------------------------4-------------------|
D|---5--4--2--5--5--7--9--5-----------------------------4-------------------|
A|---5--4--2--5--3--5--7--3-3-3-3-3-3-3-3-3-3-3-3-3-3-3-2-2-2-2-2-2-2-2-2-2-|
E|---3--2--0--3-------------------------------------------------------------|
                           | P.M...................... | | P.M................. |

E|----------------------------------|
B|----------------------------------|
G|---------------5--7--9--------7---|
D|---5--4--2--5--5--7--9--7--5--7---|
A|---5--4--2--5--3--5--7--7--5--5---|
E|---3--2--0--3-----------5--3------|

AFTER CHORUS:
SECOND PART OF INTRO

VERSE:
SAME AS ABOVE

BRIDGE:
SAME AS BRIDGE 1

CHORUS:
SAME AS ABOVE

BRIDGE 2:
E|--------------------------------------------------------------------------|
B|--------------------------------------------------------------------------|
G|--------------------------------------------------------------------------|
D|--------------------------------------------------------------------------|
A|---10-10-10-9-9-9-9-9-9-10-10-10-9-9-9-7-9-10-10-10-9-9-9-9-9-9-7-7-7-7-7-|
E|--------------------------------------------------------------------------|
    | P.M.............................. |   | P.M........................... |

E|--------------------------------------------------------------------------|
B|--------------------------------------------------------------------------|
G|--------------------------------------------------------------------------|
D|--------------------------------------------------------------------------|
A|---7-9-10-10-10-9-9-9-10-10-10-9-9-9-7-9-10-10-10-9-9-9-9-7-7-7-7-7-------|
E|--------------------------------------------------------------------------|
        | P.M........................ |   | P.M................... |
PLAY THIS PART ABOVE TWICE THEN THE PART BELOW TWICE
E|--------------------------------------------------------------------------|
B|--------------------------------------------------------------------------|
G|--------------------------------------------------------------------------|
D|-------7-----5-----7-----8-----7-----5-----3-----------3-----5-----3------|
A|-------------------------------------------------7------------------------|
E|---5-5---5-5---5-5---5-5---5-5---5-5---3-3---3-3---3-3---3-3---3-3---3-3--|
    |P.M| |P.M| |P.M| |P.M| |P.M| |P.M| |P.M| |P.M| |P.M| |P.M| |P.M| |P.M|

E|----------------------------------------------------|
B|----------------------------------------------------|
G|-------------------------------------------------5--|
D|-------7-----5-----7-----8-----7-----5-----3--3--5--|
A|----------------------------------------------3--3--|
E|---3-3---5-5---5-5---5-5---5-5---5-5---5-5----1-----|
    |P.M| |P.M| |P.M| |P.M| |P.M| |P.M| |P.M|

SOLO:
E|---------------------------------------------------------------------------|
B|---------------------------------------------------------------------------|
G|---4---------------------------------------------------------------4-------|
D|---4---------------------------------------------------------------4-------|
A|---2-2-2-2-2-2-2-2-X-LOTS-OF-TIMES---------------------------------2-2-2-2-|
E|-----------------------------------3-3-3-3-3-3-3-3-5-5-5-5-5-5-5-5---------|
      | P.M........... ALL

E|--------------------------------------------------------------------------|
B|--------------------------------------------------------------------------|
G|------------------------------------------------------------7-----9--5----|
D|---------------------------------------------------------5--7--7--9--5--5-|
A|---2-2-2-X-LOTS-OF-TIMES---------------------------------5--5--7--7--3--5-|
E|-------------------------3-3-3-3-3-3-3-3-5-5-5-5-5-5-5-5-3-----5--------3-|
   | P.M................................................. |

CHORUS:
SAME AS ABOVE  X 2

OUTRO:
E|---------------------------------------------------------------------------|
B|---------------------------------------------------------------------------|
G|---9-----------------------------------------------------------------------|
D|---9-------------12-9------------------7------------------9-------------12-|
A|---7-------------10-7-9-10-------------------10-----9-----7-------------10-|
E|-----0-0-0-0-0-0------7--8-0-0-0-0-0-0---0-0----0-0---0-0---0-0-0-0-0-0----|
      | P.M...... |         | P.M...... | |P.M|  |P.M| |P.M| |P.M....... |

E|--------------------------------------------------------------------------|
B|--------------------------------------------------------------------------|
G|--------------------------------------------------------------------------|
D|----------------------7-----------9-------------12-9------------------7---|
A|---------------10-----------9-----7-------------10-7-9-10-----------------|
E|---0-0-0-0-0-0----0-0---0-0---0-0---0-0-0-0-0-0------7--8-0-0-0-0-0-0---0-|
    | P.M...... |  |P.M| |P.M| |P.M| | P.M...... |         | P.M...... | |P.M|  |P.M|

E|--------------------------------------------------------------------------|
B|--------------------------------------------------------------------------|
G|--------------------------------------------------------------------------|
D|---------9-------------12-9------------------5-5-5-7---7-7-5-5---5-5-7-9--|
A|---9-----7-------------10-7-9-10-------------3-3-5-5---5-5-5-3---3-3-5-7--|
E|-----0-0---0-0-0-0-0-0------7--8-0-0-0-0-0-0------------------------------|
      |P.M| | P.M...... |         | P.M...... |


WARRIORS OF FAITH:


TUNE GUITAR A HALF STEP DOWN TO Eb

INTRO: X 2
E|---------------------------------------------------------------------------|
B|---------------------------------------------------------------------------|
G|---7-7-------7-----10-----7-------7-----5---------7-7-------7-------10--12-|
D|---7-7-0-0-0-7-0-0-10-0-0-7-0-0-0-7-0-0-5-0-0-0-0-0-7-0-0-0-7-0-0-0-10--12-|
A|---------------------------------------------------------------------------|
E|---------------------------------------------------------------------------|
        | P.M | |P.M|  |P.M| | P.M.| |P.M| | P.M...|   | P.M.| | P.M.|

E|---------------------------------------------------------------------------|
B|---------------------------------------------------------------------------|
G|---7-7-------7-----10-----7-------7-----5---------7-7-------7-------10--12-|
D|---7-7-0-0-0-7-0-0-10-0-0-7-0-0-0-7-0-0-5-0-0-0-0-0-7-0-0-0-7-0-0-0-10--12-|
A|---------------------------------------------------------------------------|
E|---------------------------------------------------------------------------|
        | P.M | |P.M|  |P.M| | P.M.| |P.M| | P.M...|   | P.M.| | P.M.|

E|--------------------------------------|
B|--------------------------------------|
G|--------------------------------------|
D|--------------------------------------|
A|---------------5-5-8-8-7-7-5-5--------|
E|---5-5-7-7-8-8-----------------8-8----|
    | P.M........................... |

VERSE:
E|---------------------------------------------------------------------------|
B|---------------------------------------------------------------------------|
G|---------------------------------------------------------------------------|
D|---7---5-7---7-5-3----------------------------------7---5-7---7-5-3--------|
A|---7---5-7---7-5-3----------------------------------7---5-7---7-5-3--------|
E|---5---3-5---5-3-1--1-1-1-1-3-3-3-3-5-5-5-5-7-7-7-7-5---3-5---5-3-1--1-1---|
                     | P.M...........................|                | P.M...........

E|---------------------------------------------------------------------------|
B|---------------------------------------------------------------------------|
G|---------------------------------------------------------------------------|
D|-------------------7-----------------7-------5-7-----------7-5-3-7-7-7-7---|
A|-------------------7-----------------7-------5-7-----------7-5-3-----------|
E|---5-5-5-5-7-7-7-7-5-5-5-5-5-5-5-5-5-5-5-5-5-3-5-5-5-5-5-5-5-3-1-----------|
    ................| | P.M...........| | P.M.|   | P.M.....|     | P.M...............

E|--------------------------------------------------------------------------------------|
B|--------------------------------------------------------------------------------------|
G|---7-7-7-7----------------------------------------------------------------------------|
D|-----------9-9-9-9-7-----------------7-------5-7-----------7-5-3-7-7-7-7-10-10-10-10--|
A|-------------------7-----------------7-------5-7-----------7-5-3----------------------|
E|-------------------5-5-5-5-5-5-5-5-5-5-5-5-5-3-5-5-5-5-5-5-5-3-1----------------------|
    ................  | P.M...........| | P.M.|   | P.M.....|     | P.M...............

E|--------------------------|
B|--------------------------|
G|---7-7-7-7----------------|
D|--------------------------|
A|-----------10-10-10-10----|
E|--------------------------|
    .....................|

BRIDGE:
E|--------------------------------------------------------------------------------------|
B|--------------------------------------------------------------------------------------|
G|--------------------------------------------------------------------------------------|
D|-----------------------------------------------------------7-7-7-7-7-7-7-7-9-9-9-9-9--|
A|---7-7-7-7-7-7-7-7-7-7-7-7-7-7-7-7-10-10-10-10-10-10-10-10----------------------------|
E|--------------------------------------------------------------------------------------|
    | P.M........ALL

E|--------------------------------------------------------------------------|
B|--------------------------------------------------------------------------|
G|---------------------------------7--4-------------------------------------|
D|---9-9-9-12-12-12-12-10-10-10-10-7--4-------------------------------------|
A|---------------------------------5--2-3-3-3-3-3-3-3-3-3-3-3-3-3-3-3-3-5-5-|
E|--------------------------------------------------------------------------|
   | P.M..........................|    | P.M..........................................

E|---------------------------------------------------------------------------|
B|---------------------------------------------------------------------------|
G|---------------------------7-----------------------------------------------|
D|---------------------5-4-2-7-----------------------------------------------|
A|---5-5-5-5-5-5-5-5-5-5-4-2-5-3-3-3-3-3-3-3-3-3-3-3-3-3-3-3-3-5-5-5-5-5-5---|
E|---------------------3-2-0-------------------------------------------------|
    | P.M.............|       | P.M......ALL

E|----------------------------------------------------|
B|----------------------------------------------------|
G|----------------------------------------------------|
D|---------------------------5-7-----------------9----|
A|---5-5-5-5-----------------5-7-----------------9----|
E|-----------5-5-5-5-5-5-5-5-3-5-7-7-7-7-7-7-7-7-7----|
    ........................|   | P.M.......... |

AFTER BRIDGE:
PLAY INTRO AGAIN

VERSE:
E|---------------------------------------------------------------------------|
B|---------------------------------------------------------------------------|
G|---------------------------------------------------------------------7-7---|
D|---7-----------------7-------5-7-----------7-5-3-7-7-7-7-10-10-10-10-------|
A|---7-----------------7-------5-7-----------7-5-3---------------------------|
E|---5-5-5-5-5-5-5-5-5-5-5-5-5-3-5-5-5-5-5-5-5-3-1---------------------------|
      | P.M...........| | P.M.|   | P.M.....|     | P.M...............................|

E|---------------------------------------------------------------------------|
B|---------------------------------------------------------------------------|
G|---------------------------------------------------------------------7-7-7-|
D|---7-----------------7-------5-7-----------5-5-3-7-7-7-7-10-10-10-10-------|
A|---7-----------------7-------5-7-----------7-5-3---------------------------|
E|---5-5-5-5-5-5-5-5-5-5-5-5-5-3-5-5-5-5-5-5-5-3-1---------------------------|
      | P.M...........| | P.M.|   | P.M.....|     | P.M..............................

E|------------|
B|------------|
G|------------|
D|------------|
A|---10-10----|
E|------------|
   ........|

BRIDGE:
SAME AS ABOVE

CHORUS: ( 2 GUITARS IS WRITTEN )
E|---------------------------------------------------------------------------|
B|---------------------------------------------------------------------------|
G|---------------------------------------------------------------------------|
D|---------------------------------------7-7-7-7-----------------------------|
A|---10-10-10-10-10-10-10-10-10-10-10-10---------9-9-9-9-9-9-9-9-9-9-9-9-9-9-|
E|-- G ----------------------------------------- F# -------------------------|
    | P.M................ALL

E|--------------------------------------------------------------------------|
B|--------------------------------------------------------------------------|
G|---------------------------------7-7-7-7----------------------------------|
D|---10-10-10-10-10-10-10-10-10-10---------9-9-9-9-9-9-9-9-7-7-7-7-7-7-7-7--|
A|--------------------------------------------------------------------------|
E|---------------------------------------- B ------------- A ---------------|
    | P.M..........ALL

E|--------------------------------------------------------------------------|
B|--------------------------------------------------------------------------|
G|---------7---------7-----------------7---------7-----------------7--------|
D|---3--2--7---------7-----------------7---------7-----------------7--------|
A|---3--2--5-5-5-5-5-5-5-5-5-5-5-5-5-5-5-5-5-5-5-5-5-5-5-5-5-5-5-5-5-5-5-5--|
E|---1--0-------------------------------------------------------------------|
            | P.M...| | P.M...........| | P.M...| | P.M...........| | P.M...| | P.M...

E|------------------------------------|
B|------------------------------------|
G|------------------------------------|
D|------------------------------------|
A|---5---------5-5-7-7-8-7h5p4-5------|
E|-----6-6-8-8-------------------5----|
   ...................|

BRIDGE:
E|---------------------------------------------------------------------------|
B|---------------------------------------------------------------------------|
G|---7-----7---------10-----9-----10-----7-----------------------------------|
D|---7-0-0-7-0-0-0-0--7-0-0-7-0-0--7-0-0-7-0-0-0-0-0-0-0---5-----------------|
A|-------------------------------------------------------5---8-7-5---5-7-----|
E|-----------------------------------------------------------------8---------|
      |P.M| | P.M...|  |P.M| |P.M|  |P.M| | P.M.........|

E|--------------------------------------------------------------------------|
B|--------------------------------------------------------------------------|
G|--------------------------------------------------------------------------|
D|---7-----7---------10-----9-----10-----7-----------------7----------------|
A|---7-7-7-7-7-7-7-7--7-7-7-7-7-7--7-7-7-7-7-7-7-7-7-7-7-7---10-9-7----7-9--|
E|------------------------------------------------------------------10------|
      |P.M| | P.M...|  |P.M| |P.M|  |P.M| | P.M.........|

E|--------------------------------------------------------------------------|
B|--------------------------------------------------------------------------|
G|---7-----7---------10-----9-----10-----7-----------------------------5-5--|
D|---7-0-0-7-0-0-0-0--7-0-0-7-0-0--7-0-0-7-0-0-0-0-0-0-0---5-----------5-5--|
A|-------------------------------------------------------5---8-7-5---5-3-3--|
E|-----------------------------------------------------------------8--------|
      |P.M| | P.M...|  |P.M| |P.M|  |P.M| | P.M.........|

SOLO: ( 2 GUITARS IS WRITTEN )
E|---------------------------------------------------------------------------|
B|---7-0-0-0-0-0-0-8-0-0-0-0-0-0-5-0-0-7-0-0-3-0-0-5-0-0-0-0-7-0-0-0-0-0-0-8-|
G|---------------------------------------------------------------------------|
D|---------------------------------------------------------------------------|
A|---------------------------------------------------------------------------|
E|-- B ----------------------------------------------------------------------|

E|-----------------------------------7-0-0-0-0-0-0-8-0-0-0-0-0-0-5-0-0-7-0-0-|
B|---0-0-5-0-0-7-0-0-3-0-0-5-0-0-0-0-----------------------------------------|
G|---------------------------------------------------------------------------|
D|---------------------------------------------------------------------------|
A|---------------------------------------------------------------------------|
E|---------------------------------- E --------------------------------------|

E|---0-0-0-0-7-0-0-0-0-0-0-8-0-0-0-0-0-0-5-0-0-7-0-0-3-0-0-5-0-0-----------|
B|--------------------------------------------------------------- PLAY ----|
G|--------------------------------------------------------------- THIS ----|
D|--------------------------------------------------------------- PART ----|
A|--------------------------------------------------------------- TWICE ---|
E|-------------------------------------------------------------------------|

E|-------------------------------------------------------------------7-0-0-0-|
B|---7-0-0-0-8-0-0-0-5-0-7-0-3-0-5-0-7-0-0-0-8-0-0-0-5-0-7-0-3-0-5-0---------|
G|---------------------------------------------------------------------------|
D|---------------------------------------------------------------------------|
A|---------------------------------------------------------------------------|
E|-- B ------------- G ----- A ----- B ------------- G ----- A------ E -----

E|---5-0-7-0-3-0-5-0-7-0-0-0-8-0-0-0-5-0-7-0-3-0-5-0---------|
B|-----------------------------------------------------------|
G|---------------------------------------------------5--7----|
D|---------------------------------------------------5--7----|
A|---------------------------------------------------3--5----|
E|-- C ----- D ----- E ------------- C ----- D --------------|

BRIDGE:
SAME AS ABOVE

CHORUS: ( 2 GUITARS IS WRITTEN )
E|--------------------------------------------------------------------------|
B|--------------------------------------------------------------------------|
G|--------------------------------------------------------------------------|
D|---------------------------------------7-7-7-7----------------------------|
A|---10-10-10-10-10-10-10-10-10-10-10-10---------9-9-9-9-9-9-9-9-9-9-9-9-9--|
E|-- G ----------------------------------------- F# ------------------------|
    | P.M......ALL

E|---------------------------------------------------------------------------|
B|---------------------------------------------------------------------------|
G|---------------------------------7-7-7-7-----------------------------------|
D|---10-10-10-10-10-10-10-10-10-10---------9-9-9-9-9-9-9-9-7-7-7-7-7-7-7-7---|
A|---------------------------------------------------------------------------|
E|---------------------------------------- B ------------- A ----------------|
    | P.M.......ALL

E|---------------------------------------------------------------------------|
B|---------------------------------------------------------------------------|
G|-------7---------7-----------------7---------7-----------------7-----------|
D|---3-2-7---------7-----------------7---------7-----------------7-----------|
A|---3-2-5-5-5-5-5-5-5-5-5-5-5-5-5-5-5-5-5-5-5-5-5-5-5-5-5-5-5-5-5-5-5-5-5---|
E|---1-0---------------------------------------------------------------------|
          | P.M...| | P.M...........| | P.M...| | P.M...........| | P.M...| | P.M....

E|---------------------------------------------------------------------|
B|---------------------------------------------------------------------|
G|-------------------------------------7-7-------7-------10-------7----|
D|-------------------------------------7-7-------7-------10-------7----|
A|---5---------5-5-7-7-8-8-7-7-5-5-----5-5-5-5-5-5-5-5-5----5-5-5-5----|
E|-----6-6-8-8---------------------8-8---------------------------------|
   ...................................|   | P.M.| | P.M.|  | P.M.|


THE FALLEN ONE:


|---3-----3-----3-----5-----7-----7-----7-----10-----9------9------9--------|
|-----5-----5-----5-----5-----7-----7-----7------7-----10-----10-----10-----|
|-------4-----4-----4-----4-----7-----7-----7------7------9------9------9---|
|---------------------------------------------------------------------------|
|---------------------------------------------------------------------------|
|---------------------------------------------------------------------------|

|10-9----7-----7-----7-----10-7----------|
|----10---8-----8-----8--------8---------|
|----------7-----7-----7--------7--------|
|----------------------------------------|
|----------------------------------------|
|----------------------------------------|

|---10-----9------9------9------10-9----7-----7-----7-----10-7--------|
|------7-----10-----10-----10--------10---8-----8-----8--------8------|
|--------7------9------9------9-------------7-----7-----7--------7----|
|---------------------------------------------------------------------|
|---------------------------------------------------------------------|
|---------------------------------------------------------------------|

|---3-----3-----3-----5-----7-----7-----7-----10-----9------9------9---------|
|-----5-----5-----5-----5-----7-----7-----7------7-----10-----10-----10------|
|-------4-----4-----4-----4-----7-----7-----7------7------9------9------9----|
|----------------------------------------------------------------------------|
|----------------------------------------------------------------------------|
|----------------------------------------------------------------------------|

|10-9----7-----7-----7-----10-7----------|
|----10---8-----8-----8--------8---------|
|----------7-----7-----7--------7--------|
|----------------------------------------|
|----------------------------------------|

|---10-----9------9------9------10-9----7-----7-----7-----10---7----------|
|------7-----10-----10-----10--------10---8-----8-----8------------8------|
|--------7------9------9------9-------------7-----7-----7--------------7--|
|-------------------------------------------------------------------------|
|-------------------------------------------------------------------------|
|-------------------------------------------------------------------------|


|----------------------------------------------|
|-------------------1--------1-----------4-----|
|-------0---------0--------2---2-------4-------|
|-----2---2-----2--------2-------2---4---------|
|---2-------2-3--------0-----------2-----------|
|-0--------------------------------------------|


Duration Legend
---------------
W - whole; H - half; Q - quarter; E - 8th; S - 16th; T - 32nd; X - 64th; a - acciaccatura
+ - note tied to previous; . - note dotted; .. - note double dotted
Tablature Legend
----------------
 h   - hammer-on
 p   - pull-off
 b   - bend
 pb  - pre-bend
 r   - bend release (if no number after the r, then release immediately)
 /\  - slide into or out of (from/to "nowhere")
 s   - legato slide
 S   - shift slide
 - natural harmonic
[n]  - artificial harmonic
n(n) - tapped harmonic
 ~   - vibrato
 tr  - trill
 T   - tap
 TP  - trem. picking
 PM  - palm muting
\n/  - tremolo bar dip; n = amount to dip
 \n  - tremolo bar down
 n/  - tremolo bar up
/n\  - tremolo bar inverted dip
 =   - hold bend; also acts as connecting device for hammers/pulls
 <> - volume swell (louder/softer)
 x   - on rhythm slash represents muted slash
 o   - on rhythm slash represents single note slash

Misc Legend
-----------
 |  - bar
||  - double bar
||o - repeat start
o|| - repeat end
*|  - double bar (ending)
 :  - bar (freetime)
 $  - Segno
 &  - Coda


     THE END!!(Thank God!)
I would like to the thank
everybody who have written
tabs on those songs above
for giving me ideas.
Thank you
I hope you will like my tab

TABBED BY:ELIAS STASI
comments
We did not receive enough feedback on this tab! Please rate:
1 2 3 4 5
1 comment total.
0 reply
xXEvoulutionXx wrote on November 4 2009, 10:16 am

good

I want to post or [tab]
guest
You may want to rate the tab now too:
select rating
Please do not post tabs as comments. Select "correction" instead!