Oops, an error
Loading. Please wait.

Renegade Tab

ver1
ver1

Album

Whole song

Interactive

More versions @911Tabs.com
1,571 views 1 this week
no commentswrite comment
1 2 3 4 5
worth learning
x 2
add to favorites launch autoscroll
font size
0
reset
Autoscroll
+/-
esc
set tempo
stop
Contributor
WARNING: You are trying to view
                                    content from Ultimate-Guitar.com
                                    in an unauthorized application,
                                    which is prohibited.

                                    Please use an official Ultimate
                                    Guitar Tabs application for iPhone,
                                    iPad or Android to access legitimate
                                    chords, guitar, bass, and drum tabs
                                    from Ultimate-Guitar.com database.

                                    Type "ultimate guitar tabs" in Apple
                                    App Store's or Android Market's
                                    search to find the application.

Artist:HammerFall

Album:Renegade         Tabbed by:ELIAS STASI

Songs:

01.)Templars Of Steel(whole song)-Dronjak/Cans
02.)Keep The Flame Burning(intro)-Dronjak/Cans/Stromblad
03.)Renegade(whole song)-Dronjak/Cans/Stromblad
04.)Living In Victory(intro)-Dronjak/Cans/Stromblad
05.)Always Will Be(whole song)-Dronjak
06.)The Way Of The Warrior(whole song)-Dronjak/Cans/Stromblad
07.)Destined For Glory(intro,-)-Dronjak/Cans
08.)The Champion(intro)-Dronjak/Cans/Stromblad
09.)Raise The Hammer(Instrumental)(whole song)-Dronjak/Elmgren
10.)A Legend Reborn(whole song)-Dronjak/Cans


TEMPLARS OF STEEL:

Tune down 1/2 step

 INTRO                                                                                  x3
e|--------------------------------------------------------------------------|
B|--------------------------------------------------------------------------|
G|--9-9------------------9-9-----------------9-9--------------------------5-|
D|--9-9-------------10-7-9-9-----------------9-9-----------10--9--7--9--7-5-|
A|--7-7-------------7--7-7-7-----------------7-7-----------7---7--5--5--5-3-|
E|--------------------------------------------------------------------------|

e|--------------------------------------------------------------------------|
B|--------------------------------------------------------------------------|
G|--9-9------------------9-9--------------9-9--------------------------5-4--|
D|--9-9-------------10-7-9-9--------------9-9-----------10--9--7--9--7-5-4--|
A|--7-7-------------7--7-7-7--------------7-7-----------7---7--5--5--5-3-2--|
E|--------------------------------------------------------------------------|

e|--------------------------------------------------------------------------|
B|--------------------------------------------------------------------------|
G|-9-9----------------9-9----------------9-9---------------------------5----|
D|-9-9-----------10-7-9-9----------------9-9------------10--9--7--9--7-5----|
A|-7-7-----------7--7-7-7----------------7-7------------7---7--5--5--5-3----|
E|----0-0-0-0-0-0---------0-0-0-0-0-0-0-0----0-0-0-0-0-0--------------------|

e|--------------------------------------------------------------------------|
B|--------------------------------------------------------------------------|
G|-9-9----------------9-9---------------9-9--------------------------5-4----|
D|-9-9-----------10-7-9-9---------------9-9-----------10--9--7--9--7-5-4----|
A|-7-7-----------7--7-7-7---------------7-7-----------7---7--5--5--5-3-2----|
E|----0-0-0-0-0-0--------0-0-0-0-0-0-0-0---0-0-0-0-0-0----------------------|


 VERSE

e|--------------------------------------------------------------------------|
B|--------------------------------------------------------------------------|
G|-9-9----------------9-9----------------9-9---------------------------5----|
D|-9-9-----------10-7-9-9----------------9-9------------10--9--7--9--7-5----|
A|-7-7-----------7--7-7-7----------------7-7------------7---7--5--5--5-3----|
E|----0-0-0-0-0-0---------0-0-0-0-0-0-0-0----0-0-0-0-0-0--------------------|

  The hands of time have brought you here  to make a change to break down the walls

e|--------------------------------------------------------------------------|
B|--------------------------------------------------------------------------|
G|-9-9----------------9-9---------------9-9--------------------------5-4----|
D|-9-9-----------10-7-9-9---------------9-9-----------10--9--7--9--7-5-4----|
A|-7-7-----------7--7-7-7---------------7-7-----------7---7--5--5--5-3-2----|
E|----0-0-0-0-0-0--------0-0-0-0-0-0-0-0---0-0-0-0-0-0----------------------|


      You are the ones and you are the only  trying to live by your own goals

PRE-CHORUS
e|--------------------------------------------------------------------------|
B|--------------------------------------------------------------------------|
G|-----------------------------------5-----------4-4-5-7--------------------|
D|--7-------3-------2-----2---7------5---5-------4-4-5-7--------------------|
A|--7-------3-------2-----2---7------3---5-------2-2-3-5--------------------|
E|--5-------1-------0-0-0-0-0-5----------3----------------------------------|

   And you all cry for freedom     raise your fist to the sky

CHORUS
e|--------------------------------------------------------------------------|
B|--------------------------------------------------------------------------|
G|-9-9----5-5--------------7---7----9-9-----5-5-----------------7-----7-----|
D|-9-9----5-5-----5-5------7---7----9-9-----5-5----5-----5------7-----7-----|
A|-7-7----3-3-----5-5------5---5----7-7-----3-3----5-----5------5-5-5-5-5-5-|
E|----------------3-3-------------------------------3-3-3-3-3-3-------------|
 Let your voice speak for the revolution  all join forces with all the powers that you feel

e|--------------------------------------------------------------------------|
B|--------------------------------------------------------------------------|
G|--9-9------5-5----------------7---7-------9--------5--------7-------------|
D|--9-9------5-5-------5-5------7---7-------9--------5--------7-------------|
A|--7-7------3-3-------5-5------5---5-------7--------3--------5-------------|
E|---------------------3-3--------------------------------------------------|

 Let your heart beat for the revolution    led by the templars of steel


 REPEAT
 VERSE
 PRE-CHORUS
 CHORUS

e|----------------------------------------------------------|
B|----------------------------------------------------------|
G|--9---------5----------7----------------------------------|
D|--9---------5----------7-------------------9-7------------|
A|--7---------3----------5-----------------------10-9-------|
E|----------------------------------------------------------|

   You are the templars of steel


 SOLO RHYTHM x2
e|----------------------------------------------------------|
B|----------------------------------------------------------|
G|----------------------------------------------------------|
D|--9-----9-----9-----9------5-----5-----7------------------|
A|--9-----9-----9-----9------5-----5-----7------9-7---------|
E|--7-7-7-7-7-7-7-7-7-7--7-7-3-3-3-3-3-3-5-5-5------10-9----|

e|----------------------------------------------------------|
B|----------------------------------------------------------|
G|----------------------------------------------------------|
D|--9-----9-----9-----9-----12-------12----4----------------|
A|--9-----9-----9-----9-----12-------12----4----------------|
E|--7-7-7-7-7-7-7-7-7-7-7-7-10-10-10-10-10-2--3-2-3-5-------|


 AFTER THE SOLO
e|--------------------------------------------------------------------------|
B|--------------------------------------------------------------------------|
G|--7---------10---------7----------10----------7-----------10----------7---|
D|--5----8----8----10----5-----8----8-----10----5-----8-----8-----10----5---|
A|-------6---------8-----------6----------8-----------6-----------8---------|
E|--------------------------------------------------------------------------|

 Oh,oh,oh....

 REPEAT CHORUSx2

  ENDING
e|-------------------------------------------------------------|
B|-------------------------------------------------------------|
G|--12--------8--------10--------------------------------------|
D|--12--------8--------10---------------11-10-8-----5-5--------|
A|--10--------6--------8------------------------11--5-5--------|
E|--------------------------------------------------3-3--------|

  You are the templars of steel



Keep The Flame Burning:

|----------------------------------------------------------------------------|
b|---------------------------------------------------------------------------|
g|---------------------------------------------------------------------------|
d|---------7---------7---------9---------9---------12--11----------9---------|
a|---------5---------5---------7---------7---------10--9-----------7---------|
e|-0-0-0-0---0-0-0-0---0-0-0-0---0-0-0-0---0-0-0-0---------0-0-0-0---0-0-0---|
   p.m....   .......   .......   .......   .......         .......   .....
                           play four times
e|-------------------------------------------------------------------------|
b|-------------------------------------------------------------------------|
g|-------------------------------------------------------------------------|
d|---9---------3--5--5---(-3--5--5---3--5--5-)-----------------------------|
a|---7---------1--3--3---(-1--3--3---1--3--3-)-----------------------------|
e|-----0-0-0-0-------------------------------------------------------------|
       .......

e|-------------------------------------------------------------------------|
b|-------------------------------------------------------------------------|
g|-------------------------------------------------------------------------|
d|---------7---------7---------9---------10--------12-12-------------------|
a|---------5---------5---------7---------8---------10-10-------------------|
e|-0-0-0-0---0-0-0-0---0-0-0-0---0-0-0-0---0-0-0-0-------------------------|
   .......   .......   .......   .......   .......

e|-------------------------------------------------------------------------|
b|-------------------------------------------------------------------------|
g|-------------------------------------------------------------------------|
d|---------9---------9--------11---------12---------14-12------------------|
a|---------7---------7---------9---------10---------12-10------------------|
e|-0-0-0-0---0-0-0-0---0-0-0-0---0-0-0-0----0-0-0-0------------------------|
   .......   .......   .......   .......    .......



RENEGADE:



Intro
I-----0-0--2-3--0-0--2-3--0-0--2--3-5-3-2-0--|I
I--------------------------------------------|I
I--------------------------------------------|I
I--------------------------------------------|I
I--------------------------------------------|I
I--------------------------------------------|I

I---------------------------------------------|I
I---------------------------------------------|I
I--------------------------------6------------|I
I-7-7--9-10-7-7--9-10--7-7--9-10----10-9-7-7--|I
I---------------------------------------------|I

VERSE 1
D#-----------------------|------------------------------|-----------------|
A#-----------------------|------------------------------|-----------------|
F#----2-~~~--4-----2-~---|---5-~-4-~-2-~~~-4-----2-~----|---5-~-4-~-2-~~~-|
C#----2-~~~--2--5--2-~---|---5-~-4-~-2-~~~-2--5--2-~----|---5-~-4-~-2-~~~-|
G#----0-~~~-----3--0-~---|---3-~-2-~-0-~~~----3--0-~----|---3-~-2-~-0-~~~-|
D#-----------------------|------------------------------|-----------------|

D#--------|-----------------|-------------|-----------------|------------|
A#--------|-----------------|-------------|-----------------|------------|
F#--------|-----------------|-------------|-----------------|------------|
C#---5-~~~|-3---------------|--------3--5-|-7---------------|------------|
G#---5-~~~|-3-3-3-3-3-3-3-3-|-3-3-3-------|-7-7-7-7-7-7-7-7-|-7-7-7-7--8-|
D#---3-~~~|-1-1-1-1-1-1-1-1-|-1-1-1-------|-5-5-5-5-5-5-5-5-|-5-5-5------|
              . . . . . . .   . . .           . . . . . . .   . . .
D#-------------------|------------|-----------------|-----------------|
A#-------------------|------------|-----------------|-----------------|
F#-------------------|------------|-----------------|-----------------|
C#---5---------------|----------3-|-----------------|-----------------|
G#---5-5-5-5-5-5-5-5-|-5-5-5-5----|-7-7-7-7-5-5-5-5-|-3-3-3-3-2-2-2-2-|
D#---3-3-3-3-3-3-3-3-|-3-3-3------|-5-5-5-5-3-3-3-3-|-1-1-1-1-0-0-0-0-|
       . . . . . . .   . . .        . . . . . . . .   . . . . . . . .
D#-------------------|-------------|-----------------|------------|
A#-------------------|-------------|-----------------|------------|
F#-------------------|-------------|-----------------|----------5-|
C#---3---------------|--------3--5-|-7---------------|-------7----|
G#---3-3-3-3-3-3-3-3-|-3-3-3-------|-7-7-7-7-7-7-7-7-|-7-7-7------|
D#---1-1-1-1-1-1-1-1-|-1-1-1-------|-5-5-5-5-5-5-5-5-|-5-5-5------|
       . . . . . . .   . . .           . . . . . . .   . . .
D#-------------------|------------|-----------------|------------|
A#-------------------|------------|-----------------|------------|
F#-------------------|------------|-----------------|------------|
C#---5-5-5-5-5-5-5-5-|-------5--3-|-2-2-2-2-2-2-2-2-|-2-~~~------|
G#---5-5-5-5-5-5-5-5-|-5-5-5------|-2-2-2-2-2-2-2-2-|-2-~~~------|
D#---3-3-3-3-3-3-3-3-|-3-3-3------|-0-0-0-0-0-0-0-0-|-0-~~~------|
       . . . . . . .   . . .          . . . . . . .

REFRAIN
D#-----------|-------------------|---------|-------------------|
A#-----------|-------------------|---------|-------------------|
F#-----------|-------------------|---------|-------------------|
C#---7--7--7-|-(7)-7-7-7-7-7-7-7-|-3--3--3-|-(3)-3-3-3-3-3-3-3-|
G#---7--7--7-|-(7)-7-7-7-7-7-7-7-|-3--3--3-|-(3)-3-3-3-3-3-3-3-|
D#---5--5--5-|-(5)-5-5-5-5-5-5-5-|-1--1--1-|-(1)-1-1-1-1-1-1-1-|
    Re ne gade     . . . . . . .   Re ne gade    . . . . . . .

D#-----------|-----------------|-----------------|-------------| R
A#-----------|-----------------|-----------------|-------------| E
F#-----------|-----------------|-----------------|-------------| P
C#---5--7--5-|-5-5-5-5-5-5-5-5-|-----------------|-3-~-2-~-----| E
G#---3--3--3-|-3-3-3-3-3-3-3-3-|-5-5-5-5-5-5-5-5-|-3-~-2-~-----| A
D#-----------|-----------------|-3-3-3-3-3-3-3-3-|-1-~-0-~-----| T
               . . . . . . . .     . . . . . . .

VERSE 2 - Same as Verse 1

Refrain - Same


BRIDGE
D#---------|------------------|-------|-----------------|--------|
A#---------|------------------|-------|-----------------|--------|
F#---7-~~~-|-10-----9-----7---|-9-~~~-|-9-----7-----5---|-7-~~~--|
C#---7-~~~-|----7-7---7-7---7-|-7-~~~-|---7-7---7-7---7-|-5-~~~--|
G#---5-~~~-|------------------|-------|-----------------|--------|
D#---------|------------------|-------|-----------------|--------|
                . .   . .   .             . .   . .   .

D#-------------------|-------|--------|-------|------------------|-------|
A#-------------------|-------|--------|-------|------------------|-------|
F#---7-----5-----4---|-------|--5-~~~-|-7-~~~-|-10-----9-----7---|-9-~~~-|
C#-----5-5---5-5---5-|-7-~~~-|--5-~~~-|-7-~~~-|----7-7---7-7--7--|-7-~~~-|
G#-------------------|-7-~~~-|--------|-5-~~~-|------------------|-------|
D#-------------------|-------|--------|-------|------------------|-------|
       . .   . .   .                               . .   . .  .

D#-------------------|-------|------------------|----------|---------|
A#-------------------|-------|------------------|----------|---------|
F#---9-----7-----5---|-4-~~~-|-8-----9-----11---|-9-~~~----|-(9)-~~~-|
C#-----7-7---7-7---7-|-4-~~~-|---9-9---9-9----9-|-9-~~~----|-(9)-~~~-|
G#-------------------|-------|------------------|-7-~~~----|-(7)-~~~-|
D#-------------------|-------|------------------|----------|---------|
       . .   . .   .             . .   . .    .

D#-------------------|-------------------|-----------------|---------------|
A#-------------------|-------------------|-----------------|---------------|
F#-------------------|-------------------|-----------------|-----------2-~-|
C#-------------------|-------------------|-----------------|-----------2-~-|
G#---------5---2---4-|-(4)---------------|-------5---2---4-|-(4)-------0-~-|
D#---2-2-2---2---2---|-----2-2-2-4-5-4-0-|-2-2-2---2---2---|-----2-2-2-----|
     . . .   .   .         . . . . . . .   . . .   .   .         . . .

D#-------------------|-------------------|------------|-----------|
A#-------------------|-------------------|------------|-----------|
F#-------------------|-------------------|-7-~~~------|-9-~~~-----|
C#-------------------|-------------------|-7-~~~------|-9-~~~-----|
G#---------5---2---4-|-(4)---------------|-5-~~~------|-7-~~~-----|
D#---2-2-2---2---2---|-----2-2-2-4-5-4-0-|------------|-----------|
     . . .   .   .         . . . . . . .

D#-------------------|-------------------|-----------------|---------------|
A#-------------------|-------------------|-----------------|---------------|
F#-------------------|-------------------|-----------------|-----------2-~-|
C#-------------------|-------------------|-----------------|-----------2-~-|
G#---------5---2---4-|-(4)---------------|-------5---2---4-|-(4)-------0-~-|
D#---2-2-2---2---2---|-----2-2-2-4-5-4-0-|-2-2-2---2---2---|-----2-2-2-----|
     . . .   .   .         . . . . . . .   . . .   .   .         . . .

D#-------------------|-------------------|----------|-----------|
A#-------------------|-------------------|----------|-----------|
F#-------------------|-------------------|----------|-----------|
C#-------------------|-------------------|-4-~~~----|-2-~~~-----|
G#---------5---2---4-|-(4)---------------|-4-~~~----|-2-~~~-----|
D#---2-2-2---2---2---|-----2-2-2-4-5-4-0-|-2-~~~----|-0-~~~-----|
     . . .   .   .         . . . . . . .

SOLO
  D5                         A5                           G5
D#---------------|-----------|---------------|------------|--------------|
A#---15-~~-15-17-|-17<>-~~15-|-17-~----------|------12-13-|-12-~~-12-13--|
F#---------------|-----------|------16-17-16-|-14-~~------|--------------|
C#---------------|-----------|---------------|------------|--------------|
G#---------------|-----------|---------------|------------|--------------|
D#---------------|-----------|---------------|------------|--------------|
                  Half

                A5              C5
D#--------------|------12-13-15-|-13-12----13-12-------12----------------|
A#---13<>-~~ 12-|---------------|-------15-------15-13----15-13-12-------|
F#--------------|-14 ~~---------|----------------------------------14----|
C#--------------|---------------|----------------------------------------|
G#--------------|---------------|----------------------------------------|
D#--------------|---------------|----------------------------------------|
    Whole              Triplets for this whole measure

   D5                          A5                         B5
D#---------------|-----------|-20-~~-22-22-22-|-22<>-~~~-|-19-~~-19-19-19--|
A#---15-~~-15-17-|-17<>~~-15-|----------------|----------|-----------------|
F#---------------|-----------|----------------|----------|-----------------|
C#---------------|-----------|----------------|----------|-----------------|
G#---------------|-----------|----------------|----------|-----------------|
D#---------------|-----------|----------------|----------|-----------------|
                  Half               Triplets  Whole             Triplets
             E5
D#---19-~~~-|-22^-~~~-|-(22^)-~~~-|
A#----------|---------|-----------|
F#----------|---------|-----------|
C#----------|---------|-----------|
G#----------|---------|-----------|
D#----------|---------|-----------|
             Whole


After playing the solo play the

- Intro
- Refrain (x2)
- Intro


Living In Victory:

e-----------------------------------------|
B-----------------------------------------|
G-----------------------------------------|
D-7-7----------10-----------7--6--7-7-7-9-|
A-7-7-7-8-7-8-9---9-10-9-10-7-7---7-7-7-9-|
E-5-5-----------------------5-------------|just repeat this one




ALWAYS WILL BE:


Intro


  Gtr I
|---------1-------3-|--(3)--------1-(1)----------|
|------3----3-------|-------3------------3-----3-|
|----2---------2----|----------2------------2----|
|-0-----------------|----------------------------|
|-------------------|----------------------------|
|-------------------|----------------------------|
|
| Gtr II
|-------------------|----------------------------|
|-------------------|----------------------------|
|--------14---14-14-|-(14)-12-12-14-14--10-10-12-|
|-------------------|----------------------------|
|-------------------|----------------------------|
|-------------------|----------------------------|


|---------------------|--------------------------|
|-----------5---------|-----------5--------------|
|-------5-------5-----|---------5----------------|
|-----5-----------5---|-------7------------------|
|--3------------------|-----7--------------------|
|-------------------5-|-(5)----------------------|
|
|---------------------|--------------------------|
|---------------------|--------------------------|
|-12------(12)-10-9-9-|-(9)-------9b10r(9)-------|
|---------------------|--------------------12-10-|
|---------------------|--------------------------|
|---------------------|--------------------------|


|--------------------|--------------------------|
|----------6-------8-|-(8)-------6-(6)----------|
|-------7-----7------|-----7------------7-----7-|
|-----7---------7----|--------7------------7----|
|--5-----------------|--------------------------|
|--------------------|--------------------------|
|
|--------------------|--------------------------|
|--------------------|--------------------------|
|---------------9-10-|-----9-10-12--------12-14-|
|-12------10-12------|-12----------14--15-------|
|--------------------|--------------------------|
|--------------------|--------------------------|


|-------------5-----------|----------------------3-------|
|---------6-------6-------|------------------5-----------|
|-------5------------5----|--------------5---------------|
|---3---------------------|-------5----------------------|
|-----------------------3-|--(3)---------------------5-7-|
|-------------------------|------------------------------|
|
|-------------------------|------------------------------|
|-------------------------|------------------------------|
|-(14)------(14)-10-12-14-|-(14)-14b15r(14)-12-(12)------|
|-------------------------|------------------------------|
|-------------------------|------------------------------|
|-------------------------|------------------------------|


|--------------------|----------------------------|
|----------6-------8-|--(8)--------6-(6)----------|
|-------7----7-------|-------7------------7-----7-|
|-----7---------7----|----------7------------7----|
|-5------------------|----------------------------|
|--------------------|----------------------------|
|
|--------------------|----------------------------|
|---------15------17-|-(17)----18----17-----15----|
|----14--------14----|------14----14-----14----14-|
|--------------------|----------------------------|
|--------------------|----------------------------|
|--------------------|----------------------------|


|-----------------------|----------------------|
|-----------5-----------|-------------5--------|
|-------5-------5-------|----------5-----------|
|-----5------------5----|--------7-------------|
|--3------------------0-|--(0)-7---------------|
|-----------------------|----------------------|
|
|-----------------------|----------------------|
|-17------(17)-15-13-13-|-(13)-------13-15-17--|
|-----------------------|----------------------|
|-----------------------|----------------------|
|-----------------------|----------------------|
|-----------------------|----------------------|


|-----------1---------3-|--(3)--------1--(1)---------|
|-------3-------3-------|-------3-------------3----3-|
|-----2------------2----|----------2-------------2---|
|--0--------------------|----------------------------|
|-----------------------|----------------------------|
|-----------------------|----------------------------|
|
|-----------------------|----------------------------|
|-18------(18)-15-17-18-|-(18)-15-17-18-(18)-17-15---|
|-----------------------|----------------------------|
|-----------------------|----------------------------|
|-----------------------|----------------------------|
|-----------------------|----------------------------|


|----------------------5----------------------|
|----------------6----------6-----------------|
|-----------5---------------------5-----------|
|--3------------------------------------------|
|--------------------------------------3------|
|---------------------------------------------|
|
|----------15------15-17-15---17-18-17---(17)-|
|-18-17-18----18------------------------------|
|---------------------------------------------|
|---------------------------------------------|
|---------------------------------------------|
|---------------------------------------------|


                                 1st Verse
|----------------------3-------||--------1-----3-|
|------------------5-----------||------3---3-----|
|--------------5---------------||----2-------2---|
|-------5------------------0-2-||-0--------------|
|--(3)-------------------------||----------------|
|------------------------------||----------------|
|
|-(17)-17b18r(17)-15-(15)------||----------------|
|------------------------------||----------------|
|------------------------------||----------------|
|------------------------------||----------------|
|------------------------------||----------------|
|------------------------------||----------------|


|-(3)-----1-(1)-------|----------------|
|-----3---------3---3-|--------5-------|
|-------2---------2---|------5---5-----|
|---------------------|----5-------5---|
|---------------------|-3------------0-|
|---------------------|----------------|
|
|---------------------|----------------|
|---------------------|----------------|
|---------------------|----------------|
|---------------------|----------------|
|---------------------|----------------|
|---------------------|----------------|


|----------------|--------1-----3-|-(3)-----1-(1)-------|--------5-------|
|-----------5----|------3---3-----|-----3---------3---3-|------6---6-----|
|---------5------|----2-------2---|-------2---------2---|----5-------5---|
|-------7--------|-0--------------|---------------------|-3--------------|
|-(0)-7----------|----------------|---------------------|--------------3-|
|----------------|----------------|---------------------|----------------|


|-----------3------|--------1-----3-|-(3)-----1-(1)-------|----------------|
|---------5--------|------3---3-----|-----3---------3---3-|--------5-------|
|-------5----------|----2-------2---|-------2---------2---|------5---5-----|
|-----5--------0-2-|-0--------------|---------------------|----5-------5---|
|-(3)--------------|----------------|---------------------|-3------------0-|
|------------------|----------------|---------------------|----------------|


|-----------0----|--------1-----3-|-(3)-----1-(1)-------|--------5-------|
|---------1------|------3---3-----|-----3---------3---3-|------6---6-----|
|-------2--------|----2-------2---|-------2---------2---|----5-------5---|
|-----2----------|-0--------------|---------------------|-3--------------|
|-(0)------------|----------------|---------------------|--------------3-|
|----------------|----------------|---------------------|----------------|


                   Chorus
                    A                                       G
  Gtr III
                    |                     |                 |
                    o                     /                 o

|-----------3----||---5-(5)----5-(5)---|------------------|---3-(3)----3-----|(3)
|---------5------||---5-(5)----5-(5)-5-|-(5)-------5------|---3-(3)----3-----|(3)
|-------5--------||---5-(5)----5-(5)---|-----5---5---5----|---4-(4)----4-----|(4)
|-----5----------||-7--------7---------|-------7-------7--|-5--------5-------|
|-(3)------------||-7--------7---------|------------------|-5--------5-------|
|----------------||-5--------5---------|------------------|-3--------3-------|

  G                  F                                       C
   |                 |                     |                 |
   o                 o                     /                 o

|------------------|---1-(1)----1-(1)---|------------------|---0-(0)--0---0-|
|-(3)-------3------|---1-(1)----1-(1)-1-|-(1)-------1------|---1-(1)--------|
|-----4---4---4----|---2-(2)----2-(2)---|-----2---2---2----|-0----------0---|
|-------5-------5--|-3--------3---------|-------3-------3--|-2--------------|
|------------------|-3--------3---------|------------------|-3--------------|
|------------------|-1--------1---------|------------------|----------------|


  C                   A
  |                   |
  o                   o

|-------------------|---5-(5)----5-(5)---|
|---------0h1p0-----|---5-(5)----5-(5)-5-|
|---0-----------0---|---5-(5)----5-(5)---|
|-2-----2---------2-|-7--------7---------|
|-----2-------------|-7--------7---------|
|-------------------|-5--------5---------|


                     G
   |                 |
   /                 o

|------------------|---3-(3)----3-(3)----|
|-(5)-------5------|---3-(3)----3-(3)-3--|
|-----5---5---5----|---4-(4)----4-(4)----|
|-------7-------7--|-5--------5----------|
|------------------|-5--------5----------|
|------------------|-3--------3----------|


  G                  C                                       D
   |                 |                     |                 |
   o                 o                     /                 o

|------------------|---0-(0)----0-(0)---|-----0-------0----|---2-(2)--(2)----|
|-(3)-------3------|---1-(1)----1-(1)---|-------1---1---1--|---3-(3)--(3)----|
|-----4---4---4----|-0--------0-------0-|-(0)-----0--------|-2---------------|
|-------5-------5--|-2--------2---------|------------------|-0---------------|
|------------------|-3--------3---------|------------------|-----------------|
|------------------|--------------------|------------------|-----------------|


               2nd Verse
  D             F                 A                 F       A
   |            |                 |                 |       |
   o            o                 o                 o       o

|-(2)--------||---------1-------|---------0-------|---1-------0-----|
|-(3)--------||-------1---1-----|-------1---1-----|-----1-------1---|
|------------||-----2-------2---|-----2-------2---|-------2-------2-|
|------------||---3-----------3-|---2-----------2-|-----------------|
|------------||-----------------|-0---------------|---------0-------|
|------------||-1---------------|-----------------|-1---------------|
|
| Gtr IV
|------------||-1-------1---1---|-0-------0---0---|-1---1-1-0---0-0-|
|------------||-1-------1---1---|-1-------1---1---|-1---1-1-1---1-1-|
|------------||-2-------2---2---|-2-------2---2---|-2---2-2-2---2-2-|
|------------||-3-------3---3---|-2-------2---2---|-3---3-3-2---2-2-|
|------------||-3-------3---3---|-0-------0---0---|-3---3-3-0---0-0-|
|------------||-1-------1---1---|-----------------|-1---1-1---------|


  G                 D                 F       G         A
  |                 |                 |       |         |
  o                 o                 o       o         o

|-----------------|-------1-5-1-----|---5-------7-----|-5----||
|-3-------3-------|-----3-------3---|-----6-------8---|-5----||
|---4---4---4---4-|---2-----------2-|-------5-------7-|-5----||
|-----5-------5---|-0---------------|-3-------5-------|-7----||
|-----------------|-----------------|-----------------|-7----||
|-----------------|-----------------|-----------------|-5----||
|
|-3---3-3-3---3-3-|-5-------5---5---|-5-------7-------|-5----||
|-3---3-3-3---3-3-|-6-------6---6---|-6-------8-------|-5----||
|-0---0-0-0---0-0-|-7-------7---7---|-5-------7-------|-5----||
|-0---0-0-0---0-0-|-7-------7---7---|-7-------5-------|-7----||
|-2---2-2-2---2-2-|-5-------5---5---|-8---------------|-7----||
|-3---3-3-3---3-3-|-----------------|-----------------|-5----||


  A
   |
   o

|-(5)--------|--------1-----3-|-(3)-----1-(1)-------|----------------|
|-(5)--------|------3---3-----|-----3---------3---3-|--------5-------|
|-(5)--------|----2-------2---|-------2---------2---|------5---5-----|
|-(7)--------|-0--------------|---------------------|----5-------5---|
|-(7)--------|----------------|---------------------|-3------------0-|
|-(5)--------|----------------|---------------------|----------------|


|-----------0----|--------1-----3-|-(3)-----1-(1)-------|--------5-------|
|---------1------|------3---3-----|-----3---------3---3-|------6---6-----|
|-------2--------|----2-------2---|-------2---------2---|----5-------5---|
|-----2----------|-0--------------|---------------------|-3--------------|
|-(0)------------|----------------|---------------------|--------------3-|
|----------------|----------------|---------------------|----------------|


|-----------3------|--------1-----3-|-(3)-----1-(1)-------|----------------|
|---------5--------|------3---3-----|-----3---------3---3-|--------5-------|
|-------5----------|----2-------2---|-------2---------2---|------5---5-----|
|-----5--------0-2-|-0--------------|---------------------|----5-------5---|
|-(3)--------------|----------------|---------------------|-3------------0-|
|------------------|----------------|---------------------|----------------|


|-----------0----|--------1-----3-|-(3)-----1-(1)-------|--------5-------|
|---------1------|------3---3-----|-----3---------3---3-|------6---6-----|
|-------2--------|----2-------2---|-------2---------2---|----5-------5---|
|-----2----------|-0--------------|---------------------|-3--------------|
|-(0)------------|----------------|---------------------|--------------3-|
|----------------|----------------|---------------------|----------------|


                   Chorus
                    A                                       G
                    Gtr III
                    |                     |                 |
                    o                     /                 o

|-----------3----||---5-(5)----5-(5)---|------------------|---3-(3)----3-----|(3)
|---------5------||---5-(5)----5-(5)-5-|-(5)-------5------|---3-(3)----3-----|(3)
|-------5--------||---5-(5)----5-(5)---|-----5---5---5----|---4-(4)----4-----|(4)
|-----5----------||-7--------7---------|-------7-------7--|-5--------5-------|
|-(3)------------||-7--------7---------|------------------|-5--------5-------|
|----------------||-5--------5---------|------------------|-3--------3-------|


  G                  F                                       C
   |                 |                     |                 |
   o                 o                     /                 o

|------------------|---1-(1)----1-(1)---|------------------|---0-(0)--0---0-|
|-(3)-------3------|---1-(1)----1-(1)-1-|-(1)-------1------|---1-(1)--------|
|-----4---4---4----|---2-(2)----2-(2)---|-----2---2---2----|-0----------0---|
|-------5-------5--|-3--------3---------|-------3-------3--|-2--------------|
|------------------|-3--------3---------|------------------|-3--------------|
|------------------|-1--------1---------|------------------|----------------|


  C                   A
  |                   |
  o                   o

|-------------------|---5-(5)----5-(5)---|
|---------0h1p0-----|---5-(5)----5-(5)-5-|
|---0-----------0---|---5-(5)----5-(5)---|
|-2-----2---------2-|-7--------7---------|
|-----2-------------|-7--------7---------|
|-------------------|-5--------5---------|


                     G
   |                 |
   /                 o

|------------------|---3-(3)----3-(3)----|
|-(5)-------5------|---3-(3)----3-(3)-3--|
|-----5---5---5----|---4-(4)----4-(4)----|
|-------7-------7--|-5--------5----------|
|------------------|-5--------5----------|
|------------------|-3--------3----------|


  G                  C                                       D
   |                 |                     |                 |
   o                 o                     /                 o

|------------------|---0-(0)----0-(0)---|------------------|---2-(2)--(2)---|
|-(3)-------3------|---1-(1)----1-(1)---|------------------|---3-(3)--(3)---|
|-----4---4---4----|-0--------0-------0-|-(0)-------0------|-2--------------|
|-------5-------5--|-2--------2---------|-----2---2---2----|-0--------------|
|------------------|-3--------3---------|-------3-------3--|----------------|
|------------------|--------------------|------------------|----------------|


               Bridge
  D             F                 A                 F       A
   |            |                 |                 |       |
   o            o                 o                 o       o

|-(2)--------||-----------------|---------0-------|-----------------|
|-(3)--------||---------1-------|-------1---1-----|---------------1-|
|------------||-------2---2-----|-----2-------2---|-------2-----2---|
|------------||-----3-------3---|---2-----------2-|-----3-----2-----|
|------------||---3-----------3-|-0---------------|---3-----0-------|
|------------||-1---------------|-----------------|-1---------------|
|
| Gtr IV
|------------||-1-------1---1---|-0-------0---0---|-1---1-1-0---0-0-|
|------------||-1-------1---1---|-1-------1---1---|-1---1-1-1---1-1-|
|------------||-2-------2---2---|-2-------2---2---|-2---2-2-2---2-2-|
|------------||-3-------3---3---|-2-------2---2---|-3---3-3-2---2-2-|
|------------||-3-------3---3---|-0-------0---0---|-3---3-3-0---0-0-|
|------------||-1-------1---1---|-----------------|-1---1-1---------|


  G                 D                 F       G         A
  |                 |                 |       |         |
  o                 o                 o       o         o

|-----------------|-------1-5-1-----|---5-1-----7-----|---------5-0-----|
|-3-------3-------|-----3-------3---|-------1-----8---|-------1-----1---|
|---4---4---4---4-|---2-----------2-|---------0-----7-|-----2---------2-|
|-----5-------5---|-0---------------|-3---------------|---2-------------|
|-----------------|-----------------|-----------------|-0---------------|
|-----------------|-----------------|-----------------|-----------------|
|
|-3---3-3-3---3-3-|-5-------5---5---|-5-------7-------|-5-------5---5---|
|-3---3-3-3---3-3-|-6-------6---6---|-6-------8-------|-5-------5---5---|
|-0---0-0-0---0-0-|-7-------7---7---|-5-------7-------|-5-------5---5---|
|-0---0-0-0---0-0-|-7-------7---7---|-7-------5-------|-7-------7---7---|
|-2---2-2-2---2-2-|-5-------5---5---|-8---------------|-7-------7---7---|
|-3---3-3-3---3-3-|-----------------|-----------------|-5-------5---5---|


  F                 A                 F       A         G
  |                 |                 |       |         |
  o                 o                 o       o         o

|-----------------|---------0-------|-----------------|-----------------|
|---------1-------|-------1---1-----|---------------1-|-3-------3-------|
|-------2---2-----|-----2-------2---|-------2-----2---|---4---4---4---4-|
|-----3-------3---|---2-----------2-|-----3-----2-----|-----5-------5---|
|---3-----------3-|-0---------------|---3-----0-------|-----------------|
|-1---------------|-----------------|-1---------------|-----------------|
|
|-1-------1---1---|-0-------0---0---|-1---1-1-0---0-0-|-3---3-3-3---3-3-|
|-1-------1---1---|-1-------1---1---|-1---1-1-1---1-1-|-3---3-3-3---3-3-|
|-2-------2---2---|-2-------2---2---|-2---2-2-2---2-2-|-0---0-0-0---0-0-|
|-3-------3---3---|-2-------2---2---|-3---3-3-2---2-2-|-0---0-0-0---0-0-|
|-3-------3---3---|-0-------0---0---|-3---3-3-0---0-0-|-2---2-2-2---2-2-|
|-1-------1---1---|-----------------|-1---1-1---------|-3---3-3-3---3-3-|


  D                 F       G         A
  |                 |       |         |                  |
  o                 o       o         o                  /

|-------1-5-1-----|---5-------7-----|---------5-0-----|--------||
|-----3-------3---|-----6-------8---|-------1-----1---|--------||
|---2-----------2-|-------5-------7-|-----2---------2-|--------||
|-0---------------|-3-------5-------|---2-------------|--------||
|-----------------|-----------------|-0---------------|--------||
|-----------------|-----------------|-----------------|--------||
|
|-5-------5---5---|-5-------7-------|-5---------------|-(5)----||
|-6-------6---6---|-6-------8-------|-5---------------|-(5)----||
|-7-------7---7---|-5-------7-------|-5---------------|-(5)----||
|-7-------7---7---|-7-------5-------|-7---------------|-(7)----||
|-5-------5---5---|-8---------------|-7---------------|-(7)----||
|-----------------|-----------------|-5---------------|-(5)----||


 Chorus
  C                 D                 B                 E
  |                 |                 |                 |
  o                 o                 o                 o

|---3-------------|-----------------|---2-----2-------|---3-----3-------|
|---5-----5-------|---7-----7-------|---3---3---3---3-|-5-----5---5---5-|
|-5-----5---5---5-|-7-----7---7---7-|-4---4-------4---|-4---4-------4---|
|-5---5-------5---|-7---7-------7---|-4---------------|-2---------------|
|-3---------------|-5---------------|-2---------------|-----------------|
|-----------------|-----------------|-----------------|-----------------|
|
|-3-------3---3-3-|-2-------2---2-2-|-2-------2---2-2-|-3-------3---3-3-|
|-5-------5---5-5-|-3-------3---3-3-|-3-------3---3-3-|-5-------5---5-5-|
|-5-------5---5-5-|-2-------2---2-2-|-4-------4---4-4-|-4-------4---4-4-|
|-5-------5---5-5-|-0-------0---0-0-|-4-------4---4-4-|-2-------2---2-2-|
|-3-------3---3-3-|-----------------|-2-------2---2-2-|-----------------|
|-----------------|-----------------|-----------------|-----------------|


  G                 D                 B
  |                 |                 |                 |
  o                 o                 o                 /

|---3-------3-----|-----------------|---2-----2-------|---2-----2-------|
|---3-----3---3---|---7-----7-------|---3---3---3---3-|---3---3---3---3-|
|---4---4-------4-|-7-----7---7---7-|-4---4-------4---|-4---4-------4---|
|-5---5-----------|-7---7-------7---|-4---------------|-4---------------|
|-5---------------|-5---------------|-2---------------|-2---------------|
|-3---------------|-----------------|-----------------|-----------------|
|
|-3-------3---3-3-|-2-------2---2-2-|-2-------2---2-2-|-2-------2---2-2-|
|-3-------3---3-3-|-3-------3---3-3-|-3-------3---3-3-|-3-------3---3-3-|
|-4-------4---4-4-|-2-------2---2-2-|-4-------4---4-4-|-4-------4---4-4-|
|-5-------5---5-5-|-0-------0---0-0-|-4-------4---4-4-|-4-------4---4-4-|
|-5-------5---5-5-|-----------------|-2-------2---2-2-|-2-------2---2-2-|
|-3-------3---3-3-|-----------------|-----------------|-----------------|


  C                 D                 B                 E
  |                 |                 |                 |
  o                 o                 o                 o

|---3-------------|-----------------|---2-----2-------|---3-----3-------|
|---5-----5-------|---7-----7-------|---3---3---3---3-|-5-----5---5---5-|
|-5-----5---5---5-|-7-----7---7---7-|-4---4-------4---|-4---4-------4---|
|-5---5-------5---|-7---7-------7---|-4---------------|-2---------------|
|-3---------------|-5---------------|-2---------------|-----------------|
|-----------------|-----------------|-----------------|-----------------|
|
|-3-------3---3-3-|-2-------2---2-2-|-2-------2---2-2-|-3-------3---3-3-|
|-5-------5---5-5-|-3-------3---3-3-|-3-------3---3-3-|-5-------5---5-5-|
|-5-------5---5-5-|-2-------2---2-2-|-4-------4---4-4-|-4-------4---4-4-|
|-5-------5---5-5-|-0-------0---0-0-|-4-------4---4-4-|-2-------2---2-2-|
|-3-------3---3-3-|-----------------|-2-------2---2-2-|-----------------|
|-----------------|-----------------|-----------------|-----------------|


  F                 C                 G
  |                 |                 |                  |
  o                 o                 o                  /

|---5-----5-------|---3-------3-----|---3-(3)--(3)----|-(3)----||
|-6-----6---6---6-|---5-----5---5---|---3-(3)--(3)----|-(3)----||
|-5---5-------5---|-5-----5-------5-|---0-(0)--(0)----|-(0)----||
|-3---------------|-5---5-----------|-0---------------|--------||
|-----------------|-3---------------|-2---------------|--------||
|-----------------|-----------------|-3---------------|--------||
|
|-5-------5---5-5-|-3-------3---3-3-|---3-(3)--(3)----|-(3)----||
|-6-------6---6-6-|-5-------5---5-5-|---3-(3)--(3)----|-(3)----||
|-5-------5---5-5-|-5-------5---5-5-|---0-(0)--(0)----|-(0)----||
|-3-------3---3-3-|-5-------5---5-5-|-0---------------|--------||
|-----------------|-3-------3---3-3-|-2---------------|--------||
|-----------------|-----------------|-3---------------|--------||


 Bridge
  F                 A                 F       A         G
  |                 |                 |       |         |
  o                 o                 o       o         o

|-----------------|---------0-------|-----------------|-----------------|
|---------1-------|-------1---1-----|---------------1-|-3-------3-------|
|-------2---2-----|-----2-------2---|-------2-----2---|---4---4---4---4-|
|-----3-------3---|---2-----------2-|-----3-----2-----|-----5-------5---|
|---3-----------3-|-0---------------|---3-----0-------|-----------------|
|-1---------------|-----------------|-1---------------|-----------------|
|
|-1-------1---1---|-0-------0---0---|-1---1-1-0---0-0-|-3---3-3-3---3-3-|
|-1-------1---1---|-1-------1---1---|-1---1-1-1---1-1-|-3---3-3-3---3-3-|
|-2-------2---2---|-2-------2---2---|-2---2-2-2---2-2-|-0---0-0-0---0-0-|
|-3-------3---3---|-2-------2---2---|-3---3-3-2---2-2-|-0---0-0-0---0-0-|
|-3-------3---3---|-0-------0---0---|-3---3-3-0---0-0-|-2---2-2-2---2-2-|
|-1-------1---1---|-----------------|-1---1-1---------|-3---3-3-3---3-3-|


  D                 F          G
  |                 |           |
  o                 o           o

|---------5-------|------------------------|
|-------6---6-----|---10----------12-------|
|-----7-------7---|------10----------12----|
|---7-----------7-|---------10----------12-|
|-5---------------|-8----------10----------|
|-----------------|------------------------|
|
|-5-------5---5---|-5-----------7----------|
|-6-------6---6---|-6-----------8----------|
|-7-------7---7---|-5-----------7----------|
|-7-------7---7---|-7-----------5----------|
|-5-------5---5---|-8----------------------|
|-----------------|------------------------|


  A                       F
  |                       |
  o                       o

|-----------------------|-----------------|
|------------10---------|---------1-------|
|---------------9-------|-------2---2-----|
|---------10------10----|-----3-------3---|
|-0----12------------12-|---3-----------3-|
|---12------------------|-1---------------|
|
|-5-----------5----5----|-1-------1---1---|
|-5-----------5----5----|-1-------1---1---|
|-5-----------5----5----|-2-------2---2---|
|-7-----------7----7----|-3-------3---3---|
|-7-----------7----7----|-3-------3---3---|
|-5-----------5----5----|-1-------1---1---|


  A                 F       A         G                 D
  |                 |       |         |                 |
  o                 o       o         o                 o

|---------0-------|-----------------|-----------------|-------1-5-1-----|
|-------1---1-----|---------------1-|-3-------3-------|-----3-------3---|
|-----2-------2---|-------2-----2---|---4---4---4---4-|---2-----------2-|
|---2-----------2-|-----3-----2-----|-----5-------5---|-0---------------|
|-0---------------|---3-----0-------|-----------------|-----------------|
|-----------------|-1---------------|-----------------|-----------------|
|
|-0-------0---0---|-1---1-1-0---0-0-|-3---3-3-3---3-3-|-5-------5---5---|
|-1-------1---1---|-1---1-1-1---1-1-|-3---3-3-3---3-3-|-6-------6---6---|
|-2-------2---2---|-2---2-2-2---2-2-|-0---0-0-0---0-0-|-7-------7---7---|
|-2-------2---2---|-3---3-3-2---2-2-|-0---0-0-0---0-0-|-7-------7---7---|
|-0-------0---0---|-3---3-3-0---0-0-|-2---2-2-2---2-2-|-5-------5---5---|
|-----------------|-1---1-1---------|-3---3-3-3---3-3-|-----------------|


  F       G         A                              F#
  |       |         |                  |           |
  o       o         o                  /           o

|---5-------7-----|---5-(5)--(5)----|-(5)--------|-----------------|
|-----6-------8---|---5-(5)--(5)----|-(5)--------|---------2-------|
|-------5-------7-|---5-(5)--(5)----|-(5)--------|-------3---3-----|
|-3-------5-------|-7---------------|------------|-----4-------4---|
|-----------------|-7---------------|------------|---4-----------4-|
|-----------------|-5---------------|------------|-2---------------|
|
|-5-------7-------|---5-(5)--(5)----|-(5)--------|-2-------2---2---|
|-6-------8-------|---5-(5)--(5)----|-(5)--------|-2-------2---2---|
|-5-------7-------|---5-(5)--(5)----|-(5)--------|-3-------3---3---|
|-7-------5-------|-7---------------|------------|-4-------4---4---|
|-8---------------|-7---------------|------------|-4-------4---4---|
|-----------------|-5---------------|------------|-2-------2---2---|


  Bb                F#      Bb        Ab                Eb
  |                 |       |         |                 |
  o                 o       o         o                 o

|---------1-------|-----------------|-----------------|-2-------2-------|
|-------2---2-----|---------------2-|-4-------4-------|---4---4---4---4-|
|-----3-------3---|-------3-----3---|---5---5---5---5-|-----3-------3---|
|---3-----------3-|-----4-----3-----|-----6-------6---|-----------------|
|-1---------------|---4-----1-------|-----------------|-----------------|
|-----------------|-2---------------|-----------------|-----------------|
|
|-1-------1---1---|-2---2-2-1---1-1-|-4---4-4-4---4-4-|-6-------6---6---|
|-2-------2---2---|-2---2-2-2---2-2-|-4---4-4-4---4-4-|-7-------7---7---|
|-3-------3---3---|-3---3-3-3---3-3-|-5---5-5-5---5-5-|-8-------8---8---|
|-3-------3---3---|-4---4-4-3---3-3-|-6---6-6-6---6-6-|-8-------8---8---|
|-1-------1---1---|-4---4-4-1---1-1-|-6---6-6-6---6-6-|-6-------6---6---|
|-----------------|-2---2-2---------|-4---4-4-4---4-4-|-----------------|


  F#      Ab        Bb                F#                Bb
  |       |         |                 |                 |
  o       o         o                 o                 o

|---6-------8-----|---------6-------|-----------------|---------1-------|
|-----7-------9---|-------2---6-----|---------2-------|-------2---2-----|
|-------6-------8-|-----3-------6---|-------3---3-----|-----3-------3---|
|-4-------6-------|---3-----------8-|-----4-------4---|---3-----------3-|
|-----------------|-1---------------|---4-----------4-|-1---------------|
|-----------------|-----------------|-2---------------|-----------------|
|
|-6-------8-------|-6-------6---6---|-2-------2---2---|-1-------1---1---|
|-7-------9-------|-6-------6---6---|-2-------2---2---|-2-------2---2---|
|-6-------8-------|-6-------6---6---|-3-------3---3---|-3-------3---3---|
|-8-------6-------|-8-------8---8---|-4-------4---4---|-3-------3---3---|
|-9---------------|-8-------8---8---|-4-------4---4---|-1-------1---1---|
|-----------------|-6-------6---6---|-2-------2---2---|-----------------|


  F#      Bb        Ab                Eb                F#      Ab
  |       |         |                 |                 |       |
  o       o         o                 o                 o       o

|-----------------|-----------------|-2-------2-------|---6-------8-----|
|---------------2-|-4-------4-------|---4---4---4---4-|-----7-------9---|
|-------3-----3---|---5---5---5---5-|-----3-------3---|-------6-------8-|
|-----4-----3-----|-----6-------6---|-----------------|-4-------6-------|
|---4-----1-------|-----------------|-----------------|-----------------|
|-2---------------|-----------------|-----------------|-----------------|
|
|-2---2-2-1---1-1-|-4---4-4-4---4-4-|-6-------6---6---|-6-------8-------|
|-2---2-2-2---2-2-|-4---4-4-4---4-4-|-7-------7---7---|-7-------9-------|
|-3---3-3-3---3-3-|-5---5-5-5---5-5-|-8-------8---8---|-6-------8-------|
|-4---4-4-3---3-3-|-6---6-6-6---6-6-|-8-------8---8---|-8-------6-------|
|-4---4-4-1---1-1-|-6---6-6-6---6-6-|-6-------6---6---|-9---------------|
|-2---2-2---------|-4---4-4-4---4-4-|-----------------|-----------------|


                                      Outro

  Bb                                   Eb               F#      Ab
  |                 |                  |                |       |
  o                 /                  o                o       o

|---------6-------|---------6-------||-6--------6-----|---6-------8-----|
|-------2---6-----|-----------6-----||-7------7---7---|-----7-------9---|
|-----3-------6---|-------6-----6---||-8----8-------8-|-------6-------8-|
|---3-----------8-|-----8---------8-||-8--8-----------|-4-------6-------|
|-1---------------|---8-------------||-6--------------|-----------------|
|-----------------|-6---------------||----------------|-----------------|
|
|-6-------6---6---|-6-------6---6---||-6------6---6---|-6-------8-------|
|-6-------6---6---|-6-------6---6---||-7------7---7---|-7-------9-------|
|-6-------6---6---|-6-------6---6---||-8------8---8---|-6-------8-------|
|-8-------8---8---|-8-------8---8---||-8------8---8---|-8-------6-------|
|-8-------8---8---|-8-------8---8---||-6------6---6---|-9---------------|
|-6-------6---6---|-6-------6---6---||----------------|-----------------|


  C#
  |
  o

|-------4-(4)--(4)----*|
|-----6---------------*|
|---6-----------------*|
|---6-----------------*|
|-4-------------------*|
|---------------------*|
|
|-------4-(4)--(4)----*|
|-----6---------------*|
|---6-----------------*|
|---6-----------------*|
|-4-------------------*|
|---------------------*|



THE WAY OF THE WARRIOR:



Gtr I
|-------------------------|---------------------------|
|-5p0h5p0h5p0h7p0h7p0h7p0h|=8p0h10p0h7p0h8p0h10p0h7p0h|
|-------------------------|---------------------------|
|-------------------------|---------------------------|
|-------------------------|---------------------------|
|-------------------------|---------------------------|


|--------------------------|
|-5p0h5p0h5p0h7p0h7p0h7p0h=|
|--------------------------|
|--------------------------|
|--------------------------|
|--------------------------|


|---------------------------|-5p0h5p0h5p0h7p0h7p0h7p0h|
|-8p0h10p0h7p0h8p0h10p0h7p0-|-------------------------|
|---------------------------|-------------------------|
|---------------------------|-------------------------|
|---------------------------|-------------------------|
|---------------------------|-------------------------|


|-8p0h10p0h7p0h8p0h10p0h7p0h==|
|-----------------------------|
|-----------------------------|
|-----------------------------|
|-----------------------------|
|-----------------------------|


|-5p0h5p0h5p0h7p0h7p0h7p0h|=8p0h10p0h7p0h8p0h10p0h7p0-|
|-------------------------|---------------------------|
|-------------------------|---------------------------|
|-------------------------|---------------------------|
|-------------------------|---------------------------|
|-------------------------|---------------------------|


---------------------------|
|-5p0h5p0h5p0h7p0h7p0h7p0h==|
|---------------------------|
|---------------------------|
|---------------------------|
|---------------------------|

|----------------------------|
|--8p0h10p0h7p0h8p0h10p0h7p0h|
|----------------------------|
|----------------------------|
|----------------------------|
|----------------------------|

|--------------------------|-----------------------------|
|--5p0h5p0h5p0h7p0h7p0h7p0h|==8p0h10p0h7p0h8p0h10p0h7p0--|
|--------------------------|-----------------------------|
|--------------------------|-----------------------------|
|--------------------------|-----------------------------|
|--------------------------|-----------------------------|


|-5p0h5p0h5p0h7p0h7p0h7p0h|==8p0h10p0h7p0h8p0h10p0h7p0h|
|-------------------------|----------------------------|
|-------------------------|----------------------------|
|-------------------------|----------------------------|
|-------------------------|----------------------------|
|-------------------------|----------------------------|


|-5p0h5p0h5p0h7p0h7p0h7p0h==|
|---------------------------|
|---------------------------|
|---------------------------|
|---------------------------|
|---------------------------|


|-8p0h10p0h7p0h8p0h10p0h7p0-|-------------------------|
|---------------------------|-5p0h5p0h5p0h7p0h7p0h7p0h|
|---------------------------|-------------------------|
|---------------------------|-------------------------|
|---------------------------|-------------------------|
|---------------------------|-------------------------|
|
| Gtr II
| PM--------------------|         PM--|       PM--|
|
|---------------------------|-------------------------|
|---------------------------|-------------------------|
|---------------------------|-------------------------|
|---------------------------|-2-----------2-----------|
|-3----5---2---3----5---2---|-2-----------2-----------|
|---------------------------|-0---0---0---0---0---0---|


  S S  S S S S S S  S S S S
|-----------------------------|
|-8p0h10p0h7p0h8p0h10p0h7p0h==|
|-----------------------------|
|-----------------------------|
|-----------------------------|
|-----------------------------|
|
|      PM---------------|
|
|-----------------------------|
|-----------------------------|
|-----------------------------|
|-2---------------------------|
|-2---------------------------|
|-0----0---0---3----5---2-----|


|-------------------------|---------------------------|
|-5p0h5p0h5p0h7p0h7p0h7p0h|=8p0h10p0h7p0h8p0h10p0h7p0-|
|-------------------------|---------------------------|
|-------------------------|---------------------------|
|-------------------------|---------------------------|
|-------------------------|---------------------------|
|
|     PM--|       PM--|          PM---------------|
|
|-------------------------|---------------------------|
|-------------------------|---------------------------|
|-------------------------|---------------------------|
|-2-----------2-----------|-2-------------------------|
|-2-----------2-----------|-2-------------------------|
|-0---0---0---0---0---0---|-0----0---0---3----5---2---|


|-5p0h5p0h5p0h7p0h7p0h7p0h==|
|---------------------------|
|---------------------------|
|---------------------------|
|---------------------------|
|---------------------------|
|
|     PM--|       PM--|
|
|---------------------------|
|---------------------------|
|-2-----------2-------------|
|-2-----------2-------------|
|-0---0---0---0---0---0-----|
|---------------------------|


|-8p0h10p0h7p0h8p0h10p0h7p0h|=5p0h5p0h5p0h7p0h7p0h7p0h|
|---------------------------|-------------------------|
|---------------------------|-------------------------|
|---------------------------|-------------------------|
|---------------------------|-------------------------|
|---------------------------|-------------------------|
|
|      PM---------------|         PM--|       PM-------
|
|---------------------------|-------------------------|
|---------------------------|-------------------------|
|-2-------------------------|-2-----------2-----------|
|-2-------------------------|-2-----------2-----------|
|-0----0---0---3----5---2---|-0---0---0---0---0---0---|
|---------------------------|-------------------------|


|-8p0h10p0h7p0h8p0h10p0h7p0--||
|----------------------------||
|----------------------------||
|----------------------------||
|----------------------------||
|----------------------------||
|
|-----------------------|
|
|----------------------------||
|----------------------------||
|----------------------------||
|----------------------------||
|-3----5---2---3----5---2----||
|----------------------------||


 1st Verse

  Gtr II


     PM|   PM------------------|      PM|   PM|

|--------------|-----------------|--------------|
|--------------|-----------------|--------------|
|--------------|-----------------|--------------|
|-9------9-----|--9--7----7------|-9------9-----|
|-7--7-7-7-7-7-|-------10---10-9-|-7--7-7-7-7-7-|
|--------------|-----------------|--------------|


                   PM|   PM------------------|

|-------------|--------------|-----------------|
|-------------|--------------|-----------------|
|-------------|--------------|-----------------|
|-9---10-7----|-9------9-----|--9--7----7------|
|-------------|-7--7-7-7-7-7-|-------10---10-9-|
|-------------|--------------|-----------------|


     PM|   PM|                    PM|   PM---
  E  E E E E E   Q    E Q.     E  E E E E E
|--------------|-------------|--------------|
|--------------|-------------|--------------|
|--------------|-------------|--------------|
|-9------9-----|-9---10-7----|-9------9-----|
|-7--7-7-7-7-7-|-------------|-7--7-7-7-7-7-|
|--------------|-------------|--------------|


|-----------------|--------------|-------------|
|-----------------|--------------|-------------|
|-----------------|--------------|-------------|
|--9--7----7------|-9------9-----|-9---10-7----|
|-------10---10-9-|-7--7-7-7-7-7-|-------------|
|-----------------|--------------|-------------|

     PM|   PM------------------|      PM|   PM|

|--------------|-----------------|--------------|
|--------------|-----------------|--------------|
|--------------|-----------------|--------------|
|-9------9-----|--9--7----7------|-9------9-----|
|-7--7-7-7-7-7-|-------10---10-9-|-7--7-7-7-7-7-|
|--------------|-----------------|--------------|


                 Gtr II

|-------------||--------------|--------------|
|-------------||--------------|--------------|
|-------------||--------------|--------------|
|-9---10-7----||--------------|--------------|
|-------------||-------10---9-|-------10---9-|
|-------------||-7-7-7--7-7-7-|-7-7-7--7-7-7-|


  PM--|    PM                        PM--|    PM    PM--|    PM

|--------------|---------|---------|--------------|--------------|-------|
|--------------|---------|---------|--------------|--------------|-------|
|--------------|---------|---------|--------------|--------------|-------|
|--------------|-5-------|-2-------|--------------|--------------|-5-----|
|-------10---9-|-5-------|-2-------|-------10---9-|-------10---9-|-5-----|
|-7-7-7--7-7-7-|-3-------|-0-------|-7-7-7--7-7-7-|-7-7-7--7-7-7-|-3-----|


            Chorus

|---------||------------|----------|------------|-----------|-------------|
|---------||------------|----------|------------|-----------|-------------|
|-2-------||-9-9-7-9----|----------|-9-9-7-9----|-5----7----|-9-9-7-9-----|
|-2-------||-9-9-7-9----|----------|-9-9-7-9----|-5----7----|-9-9-7-9-----|
|-0-------||-7-7-5-7----|----------|-7-7-5-7----|-3----5----|-7-7-5-7-----|
|---------||------------|----------|------------|-----------|-------------|


|--------|---------|---------|------------|----------|-------------|
|--------|---------|---------|------------|----------|-------------|
|--------|---------|-7-------|-9-9-7-9----|----------|-9-9-7-9-----|
|--------|-7-------|-7-------|-9-9-7-9----|----------|-9-9-7-9-----|
|--------|-7-------|-5-------|-7-7-5-7----|----------|-7-7-5-7-----|
|--------|-5-------|---------|------------|----------|-------------|


|-----------|------------|----------|---------|------------||
|-----------|------------|----------|---------|------------||
|-5----7----|-9-9-7-9----|----------|-7-------|------------||
|-5----7----|-9-9-7-9----|----------|-7-------|-7----5-----||
|-3----5----|-7-7-5-7----|----------|-5-------|-7----5-----||
|-----------|------------|----------|---------|-5----3-----||


 Guitar break

  Gtr II


  Gtr I
  S S S S S S S S S S S S   S S  S S S S S S  S S S S
|-------------------------|---------------------------|
|-5p0h5p0h5p0h7p0h7p0h7p0h|=8p0h10p0h7p0h8p0h10p0h7p0h|
|-------------------------|---------------------------|
|-------------------------|---------------------------|
|-------------------------|---------------------------|
|-------------------------|---------------------------|


  S S S S S S S S S S S S
|--------------------------|
|-5p0h5p0h5p0h7p0h7p0h7p0--|
|--------------------------|
|--------------------------|
|--------------------------|
|--------------------------|


|---------------------------|-5p0h5p0h5p0h7p0h7p0h7p0h|
|-8p0h10p0h7p0h8p0h10p0h7p0-|-------------------------|
|---------------------------|-------------------------|
|---------------------------|-------------------------|
|---------------------------|-------------------------|
|---------------------------|-------------------------|


|--8p0h10p0h7p0h8p0h10p0h7p0h==|
|------------------------------|
|------------------------------|
|------------------------------|
|------------------------------|
|------------------------------|


|-5p0h5p0h5p0h7p0h7p0h7p0h|=8p0h10p0h7p0h8p0h10p0h7p0-||
|-------------------------|---------------------------||
|-------------------------|---------------------------||
|-------------------------|---------------------------||
|-------------------------|---------------------------||
|-------------------------|---------------------------||


 2nd Verse

     PM|   PM------------------|
  E  E E E E E    E  E  E E  E E
|--------------|-----------------|
|--------------|-----------------|
|--------------|-----------------|
|-9------9-----|--9--7----7------|
|-7--7-7-7-7-7-|-------10---10-9-|
|--------------|-----------------|


     PM|   PM|                    PM|   PM---
  E  E E E E E   Q    E Q.     E  E E E E E
|--------------|-------------|--------------|
|--------------|-------------|--------------|
|--------------|-------------|--------------|
|-9------9-----|-9---10-7----|-9------9-----|
|-7--7-7-7-7-7-|-------------|-7--7-7-7-7-7-|
|--------------|-------------|--------------|


 ---------------|      PM|   PM|
   E  E  E E  E E   E  E E E E E   Q    E Q.
|-----------------|--------------|-------------|
|-----------------|--------------|-------------|
|-----------------|--------------|-------------|
|--9--7----7------|-9------9-----|-9---10-7----|
|-------10---10-9-|-7--7-7-7-7-7-|-------------|
|-----------------|--------------|-------------|


     PM|   PM------------------|      PM|   PM|
  E  E E E E E    E  E  E E  E E   E  E E E E E
|--------------|-----------------|--------------|
|--------------|-----------------|--------------|
|--------------|-----------------|--------------|
|-9------9-----|--9--7----7------|-9------9-----|
|-7--7-7-7-7-7-|-------10---10-9-|-7--7-7-7-7-7-|
|--------------|-----------------|--------------|


                   PM|   PM------------------|
  Q    E Q.     E  E E E E E    E  E  E E  E E
|-------------|--------------|-----------------|
|-------------|--------------|-----------------|
|-------------|--------------|-----------------|
|-9---10-7----|-9------9-----|--9--7----7------|
|-------------|-7--7-7-7-7-7-|-------10---10-9-|
|-------------|--------------|-----------------|


                               Bridge

     PM|   PM|                    PM|    PM
  E  E E E E E   Q    E Q.      E E E  E E E
|--------------|-------------||--------------|
|--------------|-------------||--------------|
|--------------|-------------||--------------|
|-9------9-----|-9---10-7----||--------------|
|-7--7-7-7-7-7-|-------------||-9-----10---9-|
|--------------|-------------||-7-7-7--7-7-7-|


  PM--|    PM    PM--|    PM

|--------------|--------------|-------|
|--------------|--------------|-------|
|--------------|--------------|-------|
|--------------|--------------|-5-----|
|-------10---9-|-------10---9-|-5-----|
|-7-7-7--7-7-7-|-7-7-7--7-7-7-|-3-----|


                                                              Chorus
  Gtr II
            PM--|    PM    PM--|    PM
|---------|--------------|--------------|---------|---------||------------|
|---------|--------------|--------------|---------|---------||------------|
|---------|--------------|--------------|---------|---------||-9-9-7-9----|
|-2-------|--------------|--------------|-5-------|-7-------||-9-9-7-9----|
|-2-------|-------10---9-|-------10---9-|-5-------|-7-------||-7-7-5-7----|
|-0-------|-7-7-7--7-7-7-|-7-7-7--7-7-7-|-3-------|-5-------||------------|


|--------|------------|-----------|------------|--------|-------|
|--------|------------|-----------|------------|--------|-------|
|--------|-9-9-7-9----|-5----7----|-9-9-7-9----|--------|-------|
|--------|-9-9-7-9----|-5----7----|-9-9-7-9----|--------|-7-----|
|--------|-7-7-5-7----|-3----5----|-7-7-5-7----|--------|-7-----|
|--------|------------|-----------|------------|--------|-5-----|


|---------|------------|----------|------------|-----------|-------------|
|---------|------------|----------|------------|-----------|-------------|
|-7-------|-9-9-7-9----|----------|-9-9-7-9----|-5----7----|-9-9-7-9-----|
|-7-------|-9-9-7-9----|----------|-9-9-7-9----|-5----7----|-9-9-7-9-----|
|-5-------|-7-7-5-7----|----------|-7-7-5-7----|-3----5----|-7-7-5-7-----|
|---------|------------|----------|------------|-----------|-------------|


  Gtr I
                                                       ~~~
|--------|---------|-----------|---------|----------|----------------||
|--------|---------|-----------|---------|----------|----------------||
|--------|---------|-----------|---------|----------|-13-------------||
|--------|---------|-----------|---------|----------|----------------||
|--------|---------|-----------|---------|----------|----------------||
|--------|---------|-----------|---------|----------|----------------||
|
| Gtr II
|                                                         PM|   PM|
|
|--------|---------|-----------|---------|----------|----------------||
|--------|---------|-----------|---------|----------|----------------||
|--------|-7-------|-----------|---------|----------|--6------6------||
|--------|-7-------|-7----5----|-2-------|----------|--6------6------||
|--------|-5-------|-7----5----|-2-------|----------|--4--4-4-4-4-4--||
|--------|---------|-5----3----|-0-------|----------|----------------||


 Guitar solo

|--------------------|-------------------|--------------------|
|--------------------|-------------------|--------------------|
|-(13)---11----11-13-|-13-11----11-------|--------------------|
|-----------14-------|-------14----14-13-|-14--13-11-13-11----|
|--------------------|-------------------|-----------------14-|
|--------------------|-------------------|--------------------|
|
|      PM---------|        PM---------|
|
|--------------------|-------------------|--------------------|
|--------------------|-------------------|--------------------|
|---6----------------|--6----------------|--------------------|
|---6----------------|--6----------------|--7-----------------|
|---4--4--4--4--6--7-|--4--4--4--4--6--7-|--7-----------------|
|--------------------|-------------------|--5-----------------|


|-----------------|---------------|-------------11-12-|
|-----------------|-14------------|-(14)-----14-19-21-|
|--------------13-|-21------------|-(21)-----21-------|
|-11-----11-14----|---------------|-------------------|
|-----------------|---------------|-------------------|
|-----------------|---------------|-------------------|
|
|
|                       PM|   PM|        PM--------|
|
|-----------------|---------------|-------------------|
|-----------------|---------------|-------------------|
|-----------------|--6------6-----|---6---------------|
|--4--------------|--6------6-----|---6---------------|
|--4--------------|--4--4-4-4-4-4-|---4--4-4--4--6--7-|
|--2--------------|---------------|-------------------|

|-12--11----11-------|-14-----(11)-12p11-|----------------|
|-21--19-14-19-14-12-|-16-----(19)-21p19-|-14-------14s17-|
|--------21----21-20-|-------------------|-21-------------|
|--------------------|-------------------|----------------|
|--------------------|-------------------|----------------|
|--------------------|-------------------|----------------|
|  E   E  E  E  E  E    H      +E   S  S    H        Q
|
|                                             PM|    PM|
|
|--------------------|-------------------|----------------|
|--------------------|-------------------|----------------|
|--------------------|--4----------------|--6-----6-------|
|--7-----------------|--4----------------|--6-----6-------|
|--7-----------------|--2----------------|--4-4-4-4--4--4-|
|--5-----------------|-------------------|----------------|

|-16-------------|-19-14----17-14----|-16--------14---------|
|----------14-17-|-------17-------14-|-----14-17----12-16---|
|----------------|-------------------|----------------------|
|----------------|-------------------|----------------------|
|----------------|-------------------|----------------------|
|----------------|-------------------|----------------------|
|
|    PM-------|        PM---------|
|
|----------------|-------------------|----------------------|
|----------------|-------------------|----------------------|
|--6-------------|--6----------------|----------------------|
|--6-------------|--6----------------|--7-------------------|
|--4-4-4-4--6--7-|--4--4--4--4--6--7-|--7-------------------|
|----------------|-------------------|--5-------------------|

|-14-------|-14b16r==(14)---14b16==(14)-|-(14)r-------------|
|----------|----------------------------|-------------14-17-|
|----------|----------------------------|-------------------|
|----------|----------------------------|-------------------|
|----------|----------------------------|-------------------|
|----------|----------------------------|-------------------|
|
|                  PM|       PM----|            PM-------|
|
|----------|----------------------------|-------------------|
|----------|----------------------------|-------------------|
|----------|--6-----------6-------------|---6---------------|
|--4-------|--6-----------6-------------|---6---------------|
|--4-------|--4----4---4--4--4-------4--|---4---4-4-4--6--7-|
|--2-------|----------------------------|-------------------|

|-19h21p19h21p17h19p17h19p16h17p16h17-|-----------------------|
|-------------------------------------|-17h19p17--------------|
|-------------------------------------|----------19b21r(19)---|
|-------------------------------------|-----------------------|
|-------------------------------------|-----------------------|
|-------------------------------------|-----------------------|
|
|
|-------------------------------------|-----------------------|
|-------------------------------------|-----------------------|
|-------------------------------------|--4--------------------|
|--7----------------------------------|--4--------------------|
|--7----------------------------------|--2--------------------|
|--5----------------------------------|-----------------------|


  A5                   G5                   D5
  Gtr II

|--------------------|--------------------|--------------------|
|-17--------------17-|-15-----------------|-18-----------18----|
|-----17-------------|-----16----------19-|-----19----19----19-|
|--------19----19----|--------17----17----|--------19----------|
|-----------19-------|-----------17-------|--------------------|
|--------------------|--------------------|--------------------|


  C5        G5          A5                   G5

|---------------------|--------------------|--------------------|
|-17--------15--------|-17--------------17-|-15-----------------|
|-----17--------16----|-----17-------------|-----16----------16-|
|--------19--------17-|--------19----19----|--------17----17----|
|---------------------|-----------19-------|-----------17-------|
|---------------------|--------------------|--------------------|


  C5        F5          A5

|---------------------|-----------------||
|---------------------|-----------------||
|-17------------------|-17--21-19-17----||
|-----19--------22-21-|-19--22-21-19----||
|--------19-20--------|-----------------||
|---------------------|-----------------||
                         E   E  E  Q.


 Break

|------------|------------|------------|-----------|
|------------|------------|------------|-----------|
|------------|------------|-7-----7----|-5---------|
|-------7----|-------2----|-7-----7----|-5----5----|
|-7-----7----|-2-----2----|-5-5-5-5----|-3----5----|
|-5-5-5-5----|-0-0-0-0----|------------|------3----|


  Gtr II
    PM|          PM|                      PM|          PM|          PM|

|------------|------------|-----------|------------|------------|------------|
|------------|------------|-----------|------------|------------|------------|
|------------|------------|-5---------|------------|------------|------------|
|-------7----|-------2----|-5----5----|-------7----|-------7----|-------2----|
|-7-----7----|-2-----2----|-3----5----|-7-----7----|-7-----7----|-2-----2----|
|-5-5-5-5----|-0-0-0-0----|------3----|-5-5-5-5----|-5-5-5-5----|-0-0-0-0----|


    PM|                      PM|          PM|                      PM|
  E E E Q.     Q.   Q.     E E E Q.     E E E Q.     Q.   Q.     E E E Q.
|------------|-----------|------------|------------|-----------|------------|
|------------|-----------|------------|------------|-----------|------------|
|-7-----7----|-5---------|------------|------------|-5---------|------------|
|-7-----7----|-5----5----|-------7----|-------2----|-5----5----|-------7----|
|-5-5-5-5----|-3----5----|-7-----7----|-2-----2----|-3----5----|-7-----7----|
|------------|------3----|-5-5-5-5----|-0-0-0-0----|------3----|-5-5-5-5----|


  A5                   G5                   D5
  Gtr II

|--------------------|--------------------|--------------------|
|-17--------------17-|-15-----------------|-18-----------18----|
|-----17-------------|-----16----------19-|-----19----19----19-|
|--------19----19----|--------17----17----|--------19----------|
|-----------19-------|-----------17-------|--------------------|
|--------------------|--------------------|--------------------|


  C5(type 2)G5          A5                   G5

|---------------------|--------------------|--------------------|
|-17--------15--------|-17--------------17-|-15-----------------|
|-----17--------16----|-----17-------------|-----16----------16-|
|--------19--------17-|--------19----19----|--------17----17----|
|---------------------|-----------19-------|-----------17-------|
|---------------------|--------------------|--------------------|


  C5(type 2)F5(type 2)  A5

|---------------------|-----------------|--------------------|
|---------------------|-----------------|-17--------------17-|
|-17------------17-16-|-14--17-16-14----|-----17-------------|
|-----19----15--------|-----------------|--------19----19----|
|--------19-----------|-----------------|-----------19-------|
|---------------------|-----------------|--------------------|


  G5                   D5(type 3)           C5(type 2)G5

|--------------------|--------------------|---------------------|
|-15--------------15-|-18-----------18----|-17--------15--------|
|-----16-------------|-----19----19----19-|-----17--------16----|
|--------17----17----|--------19----------|--------19--------17-|
|-----------17-------|--------------------|---------------------|
|--------------------|--------------------|---------------------|


  A5(type 2)           G5                   C5(type 2)F5(type 2)

|--------------------|--------------------|---------------------|
|-17--------------17-|-15-----------------|---------------------|
|-----17-------------|-----16----------16-|-17------------17-16-|
|--------19----19----|--------17----17----|-----19----15--------|
|-----------19-------|-----------17-------|--------19-----------|
|--------------------|--------------------|---------------------|


  A5(type 2)        C5(type 2)F5(type 2)  A5(type 2)

|-----------------|---------------------|-----------------||
|-----------------|-13------------------|-13-----17-22----||
|-14--17-16-14----|-----14--------17-16-|-14--17-19-17----||
|-----------------|--------14-15--------|-----22-21-19----||
|-----------------|---------------------|-----------------||
|-----------------|---------------------|-----------------||
                                           E   E  E  Q.


 3rd Verse
  E5(type 2)                       C5(type 2)

     PM|   PM------------------|      PM|   PM|
  E  E E E E E    E  E  E E  E E   E  E E E E E
|--------------|-----------------|--------------|
|--------------|-----------------|--------------|
|--------------|-----------------|--------------|
|-9------9-----|--9--7----7------|-9------9-----|
|-7--7-7-7-7-7-|-------10---10-9-|-7--7-7-7-7-7-|
|--------------|-----------------|--------------|


  D5(type 3)    E5(type 2)

                   PM|   PM------------------|

|-------------|--------------|-----------------|
|-------------|--------------|-----------------|
|-------------|--------------|-----------------|
|-9---10-7----|-9------9-----|--9--7----7------|
|-------------|-7--7-7-7-7-7-|-------10---10-9-|
|-------------|--------------|-----------------|


  C5(type 2)     D5            E5(type 2)

     PM|   PM|                    PM|   PM---

|--------------|-------------|--------------|
|--------------|-------------|--------------|
|--------------|-------------|--------------|
|-9------9-----|-9---10-7----|-9------9-----|
|-7--7-7-7-7-7-|-------------|-7--7-7-7-7-7-|
|--------------|-------------|--------------|


                    C5(type 2)     D5


 ---------------|      PM|   PM|

|-----------------|--------------|-------------|
|-----------------|--------------|-------------|
|-----------------|--------------|-------------|
|--9--7----7------|-9------9-----|-9---10-7----|
|-------10---10-9-|-7--7-7-7-7-7-|-------------|
|-----------------|--------------|-------------|


  E5(type 3)                       C5(type 2)


     PM|   PM------------------|      PM|   PM|

|--------------|-----------------|--------------|
|--------------|-----------------|--------------|
|--------------|-----------------|--------------|
|-9------9-----|--9--7----7------|-9------9-----|
|-7--7-7-7-7-7-|-------10---10-9-|-7--7-7-7-7-7-|
|--------------|-----------------|--------------|


                Bridge
  D5(type 3)

                 PM--|    PM    PM--|    PM
  Q    E Q.      E E E  E E E   E E E  E E E
|-------------||--------------|--------------|
|-------------||--------------|--------------|
|-------------||--------------|--------------|
|-9---10-7----||--------------|--------------|
|-------------||-------10---9-|-------10---9-|
|-------------||-7-7-7--7-7-7-|-7-7-7--7-7-7-|


  Gtr II
  PM--|    PM                        PM--|    PM    PM--|    PM

|--------------|---------|---------|--------------|--------------|-------|
|--------------|---------|---------|--------------|--------------|-------|
|--------------|---------|---------|--------------|--------------|-------|
|--------------|-5-------|-2-------|--------------|--------------|-5-----|
|-------10---9-|-5-------|-2-------|-------10---9-|-------10---9-|-5-----|
|-7-7-7--7-7-7-|-3-------|-0-------|-7-7-7--7-7-7-|-7-7-7--7-7-7-|-3-----|


            PM--|    PM    PM--|    PM    PM--|    PM

|---------|--------------|--------------|--------------|---------|-------|
|---------|--------------|--------------|--------------|---------|-------|
|---------|--------------|--------------|--------------|---------|-------|
|-7-------|--------------|--------------|--------------|-5-------|-2-----|
|-7-------|-------10---9-|-------10---9-|-------10---9-|-5-------|-2-----|
|-5-------|-7-7-7--7-7-7-|-7-7-7--7-7-7-|-7-7-7--7-7-7-|-3-------|-0-----|


                                                    Chorus
  PM--|    PM    PM--|    PM

|--------------|--------------|---------|---------||------------|------|
|--------------|--------------|---------|---------||------------|------|
|--------------|--------------|---------|---------||-9-9-7-9----|------|
|--------------|--------------|-5-------|-7-------||-9-9-7-9----|------|
|-------10---9-|-------10---9-|-5-------|-7-------||-7-7-5-7----|------|
|-7-7-7--7-7-7-|-7-7-7--7-7-7-|-3-------|-5-------||------------|------|


|------------|-----------|------------|--------|---------|-------|
|------------|-----------|------------|--------|---------|-------|
|-9-9-7-9----|-5----7----|-9-9-7-9----|--------|---------|-7-----|
|-9-9-7-9----|-5----7----|-9-9-7-9----|--------|-7-------|-7-----|
|-7-7-5-7----|-3----5----|-7-7-5-7----|--------|-7-------|-5-----|
|------------|-----------|------------|--------|-5-------|-------|


|------------|----------|------------|-----------|------------|------|
|------------|----------|------------|-----------|------------|------|
|-9-9-7-9----|----------|-9-9-7-9----|-5----7----|-9-9-7-9----|------|
|-9-9-7-9----|----------|-9-9-7-9----|-5----7----|-9-9-7-9----|------|
|-7-7-5-7----|----------|-7-7-5-7----|-3----5----|-7-7-5-7----|------|
|------------|----------|------------|-----------|------------|------|


|---------|-----------|------------|-------------|------------|-----------|
|---------|-----------|------------|-------------|------------|-----------|
|-7-------|-----------|-9-9-7-9----|-12----11----|-9-9-7-9----|-5----7----|
|-7-------|-7----5----|-9-9-7-9----|-12----11----|-9-9-7-9----|-5----7----|
|-5-------|-7----5----|-7-7-5-7----|-10-----9----|-7-7-5-7----|-3----5----|
|---------|-5----3----|------------|-------------|------------|-----------|


|------------|------------|---------|---------|------------|-------------|
|------------|------------|---------|---------|------------|-------------|
|-9-9-7-9----|-12----9----|---------|-7-------|-9-9-7-9----|-12----11----|
|-9-9-7-9----|-12----9----|-7-------|-7-------|-9-9-7-9----|-12----11----|
|-7-7-5-7----|-10----7----|-7-------|-5-------|-7-7-5-7----|-10-----9----|
|------------|------------|-5-------|---------|------------|-------------|


|------------|-----------|------------|------------|---------|-----------||
|------------|-----------|------------|------------|---------|-----------||
|-9-9-7-9----|-5----7----|-9-9-7-9----|-12----9----|-7-------|-----------||
|-9-9-7-9----|-5----7----|-9-9-7-9----|-12----9----|-7-------|-7----5----||
|-7-7-5-7----|-3----5----|-7-7-5-7----|-10----7----|-5-------|-7----5----||
|------------|-----------|------------|------------|---------|-5----3----||


 Outro
  E5                                      G   A    F#

  Gtr I

|-------------------------|----------------------------|
|-5p0h5p0h5p0h7p0h7p0h7p0h|==8p0h10p0h7p0h8p0h10p0h7p0h|
|-------------------------|----------------------------|
|-------------------------|----------------------------|
|-------------------------|----------------------------|
|-------------------------|----------------------------|


  E5

|---------------------------|
|-5p0h5p0h5p0h7p0h7p0h7p0h==|
|---------------------------|
|---------------------------|
|---------------------------|
|---------------------------|


  G   A    F#  G   A    F#    E5(tD5E5(type 4)

|---------------------------|------------*|
|-8p0h10p0h7p0h8p0h10p0h7p0-|------------*|
|---------------------------|-9-9-7-9----*|
|---------------------------|-9-9-7-9----*|
|---------------------------|-7-7-5-7----*|
|---------------------------|-0-0-0-0----*|

DESTINED FOR GLORY:


Intro:keybords

----------------------------------------------------------------

THE CHAMPION:


e----------------------------------------------------|
B----------------------------------------------------|
G----------------------------------------------------|
D----------------------------------------------------|
A------5-7-5-6-----5-7-5-6-----5-7-5-6-----5-7-5-4-3-|
E-5-5-5-------5-5-5-------5-5-5-------5-5-5----------|repeat it

RAISE THE HAMMER(INSTRUMENTAL):

|---------------------------------------------------------|
|-------------------------------------------------------8-|
|--7-000-8-000-10-000-8-7------7-000-8-000-10-000-7-8-10--|
|------------------------10-8-----------------------------|
|---------------------------------------------------------|
|---------------------------------------------------------|

|---------------------------------------------------------------|
|---------------------------------------------------------------|
|--7-000-8-000-10-000-8-7------7-000-8-000-10-000-8-7-----------|
|------------------------10-8------------------------10-8-7-----|
|----------------------------------------------------------10-9-|
|---------------------------------------------------------------|

|---------------------------------------------------------|
|-------------------------------------------------------8-|
|--7-000-8-000-10-000-8-7------7-000-8-000-10-000-7-8-10--|
|------------------------10-8-----------------------------|
|---------------------------------------------------------|
|---------------------------------------------------------|

|---------------------------------------------------------------|
|---------------------------------------------------------------|
|--7-000-8-000-10-000-8-7------7-000-8-000-10-000-8-7-----------|
|------------------------10-8------------------------10-8-7-----|
|----------------------------------------------------------10-9-|
|---------------------------------------------------------------|

|-----------------------------------------|
|-----------------------------------------|
|--8-7-------------8-7--------------------|
|-----10-8-7----------10-8-7--------------|
|-----------10-9------------10-9--10---10-|

|----------------------------------------------------------------------------|
|----------------------------------------------------------------------------|
|-------------------------------------------------------------------------1--|
|--17----19------19--20-19--20-19-17--------17-17-----17-19-20-20-17-19-20---|
|------17------17---------------------17---------17-17-----------------------|
|------------------------------------------------15-15-----------------------|

|------------------------------------------------------------------------|
|------------------------------------------------------------------------|
|-19--17-19-17-------19-----17---17------------------------------19~-----|
|-------------20--19----------20--------20--19-20-19-17--------17----17--|
|--------------------------------------------------------20--------------|
|------------------------------------------------------------------------|

|---------------------------------------------------------------------|
|------------20-------------------------------------------------------|
|----------19--19--------------17-19~----20----20--20--19--17--19-----|
|--17-19-20------20-19-17-19-20-----------------------------------20--|
|---------------------------------------------------------------------|
|---------------------------------------------------------------------|

|---------------------------------------------------------------------------|
|--------------------------------------18-20-20-18-17-----------------------|
|------17--19--17----17--17--------------------------19-17------------------|
|--20------------------------20--19-----------------------20-19-17----------|
|-----------------------------------------------------------------20-19-17--|
|---------------------------------------------------------------------------|

|---------------------------------------------------------------------------|
|---------------------------------------------------------------------------|
|--14----14-16-17-17-16-14--14----14-16--17-16-14---------------------------|
|-----14-----------------------14----------------17-15-14-17-15-14----------|
|-----------------------------------------------------------------17-15-14--|
|---------------------------------------------------------------------------|

|--------------------------19~----19-17-19--19~----19-17----17--|
|---------------------------------------------------------------|
|--------------------------16~----16-14-16--16~----16-14----14--|
|--14----14-16-17-14-16-----------------------------------------|
|-----14----------------17--------------------------------------|
|---------------------------------------------------------------|
|---------------------------------------------------------------|

|--12-13-15-13-12------------------------------------------------------------|
|----------------15-13-12-15-13-12-------------------------------------------|
|---------------------------------14-12------14--14-16-17-17-16-14-14--14-16-|
|--------------------------------------15------14--------------------14------|
|----------------------------------------------------------------------------|
|----------------------------------------------------------------------------|

|----------------------------------------------------------------------------|
|----------------------------------------------------------------------------|
|-17-16-14-------------------------------------------------------------------|
|---------17-15-14-17-15-14--------------------------------------------------|
|--------------------------17-15-14--14--14-16-17-14-16-17-20~19-17-20~20~---|
|--------------------------------------14------------------------------------|

|---------------------------------------------------------|
|-------------------------------------------------------8-|
|--7-000-8-000-10-000-8-7------7-000-8-000-10-000-7-8-10--|
|------------------------10-8-----------------------------|
|---------------------------------------------------------|
|---------------------------------------------------------|

|---------------------------------------------------------------|
|---------------------------------------------------------------|
|--7-000-8-000-10-000-8-7------7-000-8-000-10-000-8-7-----------|
|------------------------10-8------------------------10-8-7-----|
|----------------------------------------------------------10-9-|
|---------------------------------------------------------------|

|----------------------------------------------------------------------------|
|----------------------------------------------------------------------------|
|-------------------------------------------------------------------------17-|
|--17----19------19--20-19--20-19-17--------17-17-----17-19-20-20-17-19-20---|
|------17------17---------------------17---------17-17-----------------------|
|------------------------------------------------15-15-----------------------|

|----------------------------------------------------------------------------|
|------------------------18--------------------------------------------------|
|-19--17-19-17-------19-----19--17-15-17-15--15------------------------------|
|-------------20--19-----------------------19--19-17-19-17----15------19~19--|
|-------------------------------------------------------------------17-------|
|----------------------------------------------------------------------------|

|--------------------------------------------------18-17-15--15-15--|
|---------------------------------16-15-13-16-15-13--------18-------|
|----------------14-15-14--15-14------------------------------------|
|--17-15-17----17--------17-----17----------------------------------|
|-------------------------------------------------------------------|
|-------------------------------------------------------------------|

|-----------------------------------------------------------|
|-----------------------------------------------------------|
|--20--20-20-19-17-19---------17-19-17----17-17-------------|
|---------------------20----20------------------20-19---19--|
|-----------------------------------------------------------|
|-----------------------------------------------------------|

|-------17------------------------------------------------------|
|--18-20--20-18-17----------------------------------------------|
|-----------------19-17------------------14--14-16-17-17-16-14--|
|----------------------20-19-17------------14-------------------|
|------------------------------20-19-17-------------------------|
|---------------------------------------------------------------|

|-----------------------------------------------------------------------|
|-----------------------------------------------------------------------|
|--14--14-16--17-16-14---------------------------14--14-16-17-14-16-17--|
|----14---------------17-15-14-17-15-14------------14-------------------|
|--------------------------------------17-15-14-------------------------|
|-----------------------------------------------------------------------|

|-19~----19-17-19--19~----19-17----17----12-13-15-13-12--------------------------|
|------------------------------------------------------15-13-12-15-13-12---------|
|-16~----16-14-16--16~----16-14----14-----------------------------------14-12----|
|-----------------------------------------------------------------------------15-|
|--------------------------------------------------------------------------------|
|--------------------------------------------------------------------------------|

|---------------------------------------------------------------------|
|---------------------------------------------------------------------|
|-14--14-16-17-17-16-14-14--14-16--17-16-14---------------------------|
|---14--------------------14---------------17-15-14-17-15-14----------|
|-----------------------------------------------------------17-15-14--|
|---------------------------------------------------------------------|

|------------------------------------------------------|
|----------------------------------------20~-20-17-17--|
|--14--14-16-17-14-16-17-20~----19-17-20~--------------|
|----14------------------------------------------------|
|------------------------------------------------------|
|------------------------------------------------------|

|----------9--------------------------------9--------------------|
|--10----10-12-10-9-----9-12-10-9-10------10-12-10-9-----9-10-12-|
|----11------------9----------------11--------------9------------|
|----------------------------------------------------------------|
|----------------------------------------------------------------|
|----------------------------------------------------------------|

|----------------------------9-9---------------------------------------------|
|-10-10-----------------10-10---12-12-10-10-9-9-----------9-9-12-12-10-10-9--|
|------11-11-11-11-11-11-----------------------9-9-9-9-9-9-------------------|
|----------------------------------------------------------------------------|
|----------------------------------------------------------------------------|
|----------------------------------------------------------------------------|

|----------------------------9-9---------------------------------------------|
|-10-10-----------------10-10---12-12-10-10-9-9-----------9-9-10-10-12-12-12-|
|------11-11-11-11-11-11-----------------------9-9-9-9-9-9-------------------|
|----------------------------------------------------------------------------|
|----------------------------------------------------------------------------|
|----------------------------------------------------------------------------|

|-9-9-----------------9-9-12-12-10-10-9-9-----------------------10-10-9-9----|
|----10-10-10-10-10-10-------------------12-12-9-9-9-9-9-9-12-12---------12--|
|----------------------------------------------------------------------------|
|----------------------------------------------------------------------------|
|----------------------------------------------------------------------------|
|----------------------------------------------------------------------------|

|-9-9-----------------9-9-12-12-10-10-9-9-----------------------9-9-10-10-10-|
|----10-10-10-10-10-10------------------12-12-9-9-9-9-9-9-12-12--------------|
|----------------------------------------------------------------------------|
|----------------------------------------------------------------------------|
|----------------------------------------------------------------------------|
|----------------------------------------------------------------------------|

|------------------------------------------------------------------|
|--------10-9-10-9--------9-7-9-7--------10-9-10-9-------9----9-10-|
|--11-------------11-9-----------9-11-------------11-9-11-9-11-----|
|------------------------------------------------------------------|
|------------------------------------------------------------------|
|------------------------------------------------------------------|

|---------------------------------------------------------------------|
|-12-10-12-10-9-----12-10-12-10-9-10----12-10-12-10-9-9-10-12-10-8-10-|
|--------------9-------------------------------------9----------------|
|---------------------------------------------------------------------|
|---------------------------------------------------------------------|
|---------------------------------------------------------------------|

|-------------------------------------------------------|
|-20----20-20-19-17-19--------17-19-17----17-17---------|
|---------------------20----20-----------------20-19-19-|
|-------------------------------------------------------|
|-------------------------------------------------------|
|-------------------------------------------------------|

|------17----------------------------------------------------|
|-18-20--20-18-17--------------------------------------------|
|----------------19-17-----------------14--14-16-17-17-16-14-|
|---------------------20-19-17-----------14------------------|
|-----------------------------20-19-17-----------------------|
|------------------------------------------------------------|

|-------------------------------------------------------------------|
|-------------------------------------------------------------------|
|-14--14-16-17-16-14--------------------------14--14-16-17-14-16----|
|---14--------------17-15-14-17-15-14-----------14---------------17-|
|------------------------------------17-15-14-----------------------|
|-------------------------------------------------------------------|

|-19~---19-17-19-19~---19-17-17----12-13-15-13-12-------------------------|
|------------------------------------------------15-13-12-15-13-12--------|
|-16~---16-14-16-16~---16-14-14-----------------------------------14-12---|
|----------------------------------------------------------------------15-|
|-------------------------------------------------------------------------|
|-------------------------------------------------------------------------|

|----------------------------------------------------------------------|
|----------------------------------------------------------------------|
|-14--14-16-17-17-16-14-14--14-16--17-16-14----------------------------|
|---14--------------------14---------------17-15-14-17-15-14-----------|
|-----------------------------------------------------------17-15-14---|
|----------------------------------------------------------------------|

|----------------------------------------------------------|
|-------------------------------------------20~--20-17-17--|
|-14--14-16-17-14-16-17-20~---19-17-20~-20~----------------|
|---14-----------------------------------------------------|
|----------------------------------------------------------|
|----------------------------------------------------------|

|---------------------------------------------------------|
|-------------------------------------------------------8-|
|--7-000-8-000-10-000-8-7------7-000-8-000-10-000-7-8-10--|
|------------------------10-8-----------------------------|
|---------------------------------------------------------|
|---------------------------------------------------------|

|---------------------------------------------------------------|
|---------------------------------------------------------------|
|--7-000-8-000-10-000-8-7------7-000-8-000-10-000-8-7-----------|
|------------------------10-8------------------------10-8-7-----|
|----------------------------------------------------------10-9-|
|---------------------------------------------------------------|

|---------------------------------------------------------|
|-------------------------------------------------------8-|
|--7-000-8-000-10-000-8-7------7-000-8-000-10-000-7-8-10--|
|------------------------10-8-----------------------------|
|---------------------------------------------------------|
|---------------------------------------------------------|

|---------------------------------------------------------------|-----|
|---------------------------------------------------------------|-----|
|--7-000-8-000-10-000-8-7------7-000-8-000-10-000-8-7-----------|-----|
|------------------------10-8------------------------10-8-7-----|-----|
|----------------------------------------------------------10-9-|-5-5-|
|---------------------------------------------------------------|-3-3-|

A LEGEND REBORN:

INTRO:
first part.

--+-------------------------+-|  X2
--+---1-1--6-4--------------+-|
--+---2-2--7-5--1-1-1-------+-|
--+---2-2--7-5--2-2-2--3----+-|
--+--------5-3--2-2-2--3----+-|
--+--------------------1----+-|

INTRO:
second part.

--+---0-0-5----------------------------+-|
--+---------5-6-6-6-3--0-0-5-----------+-|
--+--------------------------5-4-4-4-2-+-|
--+------------------------------------+-|
--+------------------------------------+-|
--+------------------------------------+-|x2

A5                F/A D5A5          C5    E5         F5  G5A5
      PM----|     PM          PM----|            PM--|     PM     PM--|
    E E E E E E E E   E E E E E E E E    Q.   Q  E E E   E E E Q  E E E
||------------------|-----------------|----------------|------------------||
||o-----------------|-----------------|----------------|-----------------o||
||--2---------2-2---|-5-5---2---------|--5-------------|------------------||
||--2---------2-2---|-3-3-0-2---------|--5-------------|-------2----------||
||o-0-0-0-0-0-0-0-0-|-0-0-0-0-0-0-0-0-|--3----2--------|-3---5-0--0-0-0--o||
||------------------|-----------------|-------0--0-0-0-|-1-1-3------------||
|
|     PM----|     PM          PM----|            PM--|     PM     PM--|
|   E E E E E E E E   E E E E E E E E    Q.   Q  E E E   E E E Q  E E E
||------------------|-----------------|----------------|------------------||
||o-----------------|-----------------|----------------|-----------------o||
||------------------|-----------------|----------------|------------------||
||------------------|-----------------|----------------|------------------||
||o-7---------7-7---|-8-8-5-7---------|-10----2--------|-3---5-7---------o||
||--5-5-5-5-5-5-5-5-|-5-5-5-5-5-5-5-5-|--8----0--0-0-0-|-1-1-3-5--5-5-5---||


   1st and 2nd Verses
    A5
      PM----|                 PM--|
    E E E E E E +E  E   +E  E E E E E +E  E
||--------------------|---------------------|
||o-------------------|---------------------|
||--9---------5-(5)-4-|-(4)---------5-(5)-4-|
||--7---------7-(7)-5-|-(5)-7-------7-(7)-5-|
||o-0-0-0-0-0---------|-------0-0-0---------|
||--------------------|---------------------|
|
|     PM-------------------------------------
|   E E E E E E  E  E    E  E E E E E  E  E
||--------------------|---------------------|
||o-------------------|---------------------|
||--------------------|---------------------|
||--------------------|---------------------|
||o-7-----------------|---------------------|
||--5-5-5-5-5-5--5--5-|--5--5-5-5-5-5--5--5-|


  (F)                 C5            G5A5
          PM------|     PM|
  +E  E E E E E E E   E E E E +E  E E E
|-------------------|--------------------|
|-------------------|--------------------|
|-(4)---------------|-5------------------|
|-(5)-7---3-3-3-3-3-|-5-----2-(2)-5-5-7--|
|-------0-----------|-3-3-3-3-(3)-5-5-7--|
|-------------------|--------------------|
|
|-----------------|     PM|       PM
|  E  E E E E E E E   E E E E +E  E E E
|-------------------|--------------------|
|-------------------|--------------------|
|-------------------|--------------------|
|-------------------|-5-----5-(5)--------|
|-------------------|-3-3-3-3-(3)---5-7--|
|--1--1-1-1-1-1-1-1-|-------------3-3-5--|


  A5
      PM----|                 PM--|
   E  E E E E E +E  E   +E  E E E E E +E  E
|---------------------|---------------------|
|---------------------|---------------------|
|--9----------5-(5)-4-|-(4)---------5-(5)-4-|
|--7----------7-(7)-5-|-(5)-7-------7-(7)-5-|
|--0--0-0-0-0---------|-------0-0-0---------|
|---------------------|---------------------|
|
|     PM-------------------------------------
| +E  E E E E E  E  E    E  E E E E E  E  E
|---------------------|---------------------|
|---------------------|---------------------|
|---------------------|---------------------|
|---------------------|---------------------|
|-(7)-----------------|---------------------|
|-(5)-5-5-5-5-5--5--5-|--5--5-5-5-5-5--5--5-|


  (F)                               A5
          PM----------------------|
  +E  E E E E E E E   E E E E E E E E
|-------------------|-----------------|
|-------------------|-----------------|
|-(4)---------------|---------------2-|
|-(5)-7---3-3-3-3-3-|---3-2-3-5-3-2-2-|
|-------0-----------|---------------0-|
|-------------------|-----------------|
|
|-----------------------------------|
|  E  E E E E E E E   E E E E E E E E
|-------------------|-----------------|
|-------------------|-----------------|
|-------------------|-----------------|
|-------------------|-----------------|
|-------------------|---------------7-|
|--1--1-1-1-1-1-1-1-|-1-1-1-1-1-1-1-5-|


      PM----|                 PM--|
  +E  E E E E E +E  E   +E  E E E E E +E  E
|---------------------|---------------------|
|---------------------|---------------------|
|-(2)---------5-(5)-4-|-(4)---------5-(5)-4-|
|-(2)---------7-(7)-5-|-(5)-7-------7-(7)-5-|
|-(0)-0-0-0-0---------|-------0-0-0---------|
|---------------------|---------------------|
|
|     PM-------------------------------------
| +E  E E E E E  E  E    E  E E E E E  E  E
|---------------------|---------------------|
|---------------------|---------------------|
|---------------------|---------------------|
|---------------------|---------------------|
|-(7)-----------------|---------------------|
|-(5)-5-5-5-5-5--5--5-|--5--5-5-5-5-5--5--5-|


  (F)                 C5            G5A5
          PM------|     PM|
  +E  E E E E E E E   E E E E +E  E E E
|-------------------|-------------------|
|-------------------|-------------------|
|-(4)---------------|-5-----------0-0-2-|
|-(5)-7---3-3-3-3-3-|-5-----2-(2)-0-0-2-|
|-------0-----------|-3-3-3-3-(3)-----0-|
|-------------------|-------------------|
|
|-----------------|     PM|       PM
|  E  E E E E E E E   E E E E +E  E E E
|-------------------|-------------------|
|-------------------|-------------------|
|-------------------|-------------------|
|-------------------|-5-----5-(5)-------|
|-------------------|-3-3-3-3-(3)---5-7-|
|--1--1-1-1-1-1-1-1-|-------------3-3-5-|


  A5
    PM----|                 PM--|
  E E E E E E +E  E   +E  E E E E E +E  E
|-------------------|---------------------|
|-------------------|---------------------|
|-2---------5-(5)-4-|-(4)---------5-(5)-4-|
|-2---------7-(7)-5-|-(5)-7-------7-(7)-5-|
|-0-0-0-0-0---------|-------0-0-0---------|
|-------------------|---------------------|
|
|   PM-------------------------------------
| E E E E E E  E  E    E  E E E E E  E  E
|-------------------|---------------------|
|-------------------|---------------------|
|-------------------|---------------------|
|-------------------|---------------------|
|-7-----------------|---------------------|
|-5-5-5-5-5-5--5--5-|--5--5-5-5-5-5--5--5-|


  (F)                               D5
          PM----------------------|
  +E  E E E E E E E   E E E E E E E E
|-------------------|-----------------|
|-------------------|-----------------|
|-(4)---------------|---------------2-|
|-(5)-7---3-3-3-3-3-|---3-2-3-5-3-2-0-|
|-------0-----------|-----------------|
|-------------------|-----------------|
|
|-----------------------------------|
|  E  E E E E E E E   E E E E E E E E
|-------------------|-----------------|
|-------------------|-----------------|
|-------------------|-----------------|
|-------------------|-----------------|
|-------------------|---------------5-|
|--1--1-1-1-1-1-1-1-|-1-1-1-1-1-1-1---|


                                      A5
      PM----|   PM        PM--------|
  +E  E E E E E E E   +E  E E E E E E E
|-------------------|-------------------|
|-------------------|-------------------|
|-(2)---------2---2-|-(2)-------------2-|
|-(0)-0-0-0-0-0-0-0-|-(0)-3-2-3-5-3-2-2-|
|-------------------|-----------------0-|
|-------------------|-------------------|
|
|  PM------------------------------------
| +E  E E E E E E E    E  E E E E E E E
|-------------------|-------------------|
|-------------------|-------------------|
|-------------------|-------------------|
|-------------------|-------------------|
|-(5)-5-5-5-5-5-5-5-|--5--5-5-5-5-5-5---|
|-------------------|-----------------5-|


                  G5
      PM--------|         PM----------|
  +E  E E E E E E E   +E  E E E E E E E
|-------------------|-------------------|
|-------------------|-------------------|
|-(2)---------------|-------------------|
|-(2)-------------5-|-(5)---------------|
|-(0)-0-0-0-0-2-3-5-|-(5)---------------|
|-----------------3-|-(3)-3-3-3-3-3-3-3-|
|
|-------------------------------------|
| +E  E E E E E E E    E  E E E E E E E
|-------------------|-------------------|
|-------------------|-------------------|
|-------------------|-------------------|
|-------------------|-------------------|
|-------------------|-------------------|
|-(5)-5-5-5-5-5-5-3-|--3--3-3-3-3-3-3-3-|


  C5            D5                  E5
      PM--|             PM----|             PM----|
  Q   E E E E E E   +E  E E E E E E E   +E  E E E E E E E   +W
|-----------------|-------------------|-------------------|--------||
|-----------------|-------------------|-------------------|--------||
|-5-------------7-|-(7)-------------9-|-(9)---------9-9-9-|-(9)----||
|-5---------5-5-7-|-(7)---------7-7-9-|-(9)---------9-9-9-|-(9)----||
|-3---3-3-3-3-3-5-|-(5)-5-5-5-5-5-5-7-|-(7)-7-7-7-7-7-7-7-|-(7)----||
|-----------------|-----------------0-|-(0)-0-0-0-0-0-0-0-|-(0)----||
|
| PM--------------------------------------------------|
| E E E E E E E E   +E  E E E E E E E   +E  E E E E E E E   +W
|-----------------|-------------------|-------------------|--------||
|-----------------|-------------------|-------------------|--------||
|-----------------|-------------------|-------------------|--------||
|-----------------|-------------------|-----------------2-|-(2)----||
|-3-3-3-3-3-3-3-5-|-(5)-5-5-5-5-5-5---|-----------------2-|-(2)----||
|-----------------|-----------------0-|-(0)-0-0-0-0-0-0-0-|-(0)----||


 Chorus
  $
  A5                F/A D5A5          C5            E5    F5  G5A5
    PM----|     PM          PM----|               PM--|     PM     PM--|
  E E E E E E E E   E E E E E E E E    Q.   Q     E E E   E E E Q  E E E
|-----------------|-----------------|-------------------|----------------|
|-----------------|-----------------|-------------------|----------------|
|-2---------2-2---|-5-5---2---------|--5----------------|----------------|
|-2---------2-2---|-3-3-0-2---------|--5----------------|-------2--------|
|-0-0-0-0-0-0-0-0-|-0-0-0-0-0-0-0-0-|--3----2-----------|-3---5-0--0-0-0-|
|-----------------|-----------------|-------0-----0-0-0-|-1-1-3----------|
|
|   PM----|     PM          PM----|               PM--|     PM     PM--|
| E E E E E E E E   E E E E E E E E    Q.   E +E  E E E   E E E Q  E E E
|-----------------|-----------------|-------------------|----------------|
|-----------------|-----------------|-------------------|----------------|
|-----------------|-----------------|-------------------|----------------|
|-----------------|-----------------|-------------------|----------------|
|-7---------7-7---|-8-8-5-7---------|-10----2-(2)-------|-3---5-7--------|
|-5-5-5-5-5-5-5-5-|-5-5-5-5-5-5-5-5-|--8----0-(0)-0-0-0-|-1-1-3-5--5-5-5-|


                                                                To Coda
  A5                F/A D5A5          C5    E5            F5  G5A5
    PM----|     PM          PM----|               PM--|     PM     PM--|
  E E E E E E E E   E E E E E E E E    Q.   Q     E E E   E E E Q  E E E
|-----------------|-----------------|-------------------|-----------------||
|-----------------|-----------------|-------------------|----------------o||
|-2---------2-2---|-5-5-------------|--5----------------|-----------------||
|-2---------2-2---|-3-3-0-2---------|--5----------------|-------2---------||
|-0-0-0-0-0-0-0-0-|-0-0-0-0-0-0-0-0-|--3----2-----------|-3---5-0--0-0-0-o||
|-----------------|-----------------|-------0-----0-0-0-|-1-1-3-----------||
|
|   PM----|     PM          PM----|               PM--|     PM     PM--|
| E E E E E E E E   E E E E E E E E    Q.   E +E  E E E   E E E Q  E E E
|-----------------|-----------------|-------------------|-----------------||
|-----------------|-----------------|-------------------|----------------o||
|-----------------|-----------------|-------------------|-----------------||
|-----------------|-----------------|-------------------|-----------------||
|-7---------7-7---|-8-8-5-7---------|-10----2-(2)-------|-3---5-7--------o||
|-5-5-5-5-5-5-5-5-|-5-5-5-5-5-5-5-5-|--8----0-(0)-0-0-0-|-1-1-3-5--5-5-5--||


 Bridge
  G5                            C5   A5                  C5
    PM------------------------|
  E E E E E E E E   E E E E E E Q    W          +H.      Q
|-----------------|----------------|----------|-------------|
|-----------------|----------------|----------|-------------|
|-----------------|----------------|----------|-------------|
|-----------------|-------------5--|----------|----------5--|
|-5---------------|-------------3--|-7--------|-(7)------3--|
|-3-3-3-3-3-3-3-3-|-3-3-3-3-3-3----|-5--------|-(5)---------|
|
|   PM------------------------|
| E E E E E E E E   E E E E E E Q    W          +H.      Q
|-----------------|----------------|----------|-------------|
|-----------------|----------------|----------|-------------|
|-----------------|----------------|----------|-------------|
|-----------------|-------------5--|----------|----------5--|
|-5---------------|-------------3--|-7--------|-(7)------3--|
|-3-3-3-3-3-3-3-3-|-3-3-3-3-3-3----|-5--------|-(5)---------|


  D5                            E5
    PM------------------------|
  E E E E E E E E   E E E E E E Q
|-----------------|----------------|
|-----------------|----------------|
|-----------------|----------------|
|-7---------------|-------------9--|
|-5-5-5-5-5-5-5-5-|-5-5-5-5-5-5-7--|
|-----------------|----------------|
|
|   PM------------------------|
| E E E E E E E E   E E E E E E Q
|-----------------|----------------|
|-----------------|----------------|
|-----------------|----------------|
|-7---------------|-------------9--|
|-5-5-5-5-5-5-5-5-|-5-5-5-5-5-5-7--|
|-----------------|----------------|


  F5             G5
     PM--------|                                  ~~~~
   E E E E E E E  E    +H.                 E     +E
|-------------------|--------------------------------||
|-------------------|---------------------12b14r(12)-||
|-------------------|--------------------------------||
|-10-------------12-|-(12)---------------------------||
|--8-8-8-8-8-8-8-10-|-(10)---------------------------||
|-------------------|--------------------------------||
|
|    PM--------|            PM------------------|
|  E E E E E E E  E    +E   E  E  E  E  E  E      E
|-------------------|--------------------------------||
|-------------------|--------------------------------||
|-------------------|--------------------------------||
|-10-------------12-|-(12)---------------------------||
|--8-8-8-8-8-8-8-10-|-(10)-10-10-10-10-10-10-----10--||
|-------------------|--------------------------------||


 Guitar Solo - S.Elmgren
  F#5                                                             G#5
           ~~~~~~~~~~                                  ~~~~~~~
   S      +E.    +Q     +E   E E E    E     +S   S  E  E  +Q.      S S
|----------------------------9-9-9-|-----------------------------------|
|-12b14==(12)---(12)---(12)r-------|-12b14r(12)-10-12----------------9-|
|----------------------------------|------------------11-(11)-----11---|
|----------------------------------|-----------------------------------|
|----------------------------------|-----------------------------------|
|----------------------------------|-----------------------------------|
|
|             PM-------|       PM     PM------------------------|
|  E          E   E  E   E   E E E    E      E      E  E   E  E E  E
|----------------------------------|-----------------------------------|
|----------------------------------|-----------------------------------|
|----------------------------------|-----------------------------------|
|----------------------------------|-----------------------------------|
|--4-------------------------4---4-|-------------------------------6---|
|--2----------2---2--2---2---2-2-2-|--2------2------2--2---2--2-2--4---|


  A5                          E5
   ~~~                         ~~~~~~~~~
   Q.      S  S  E     +E   E  E    +H         E  E  S  S  S S
|--------------------------------|-----------------------------|
|-10------10-10-12b14r(12)-10-12-|-(12)-------10-12-10-12-10-9-|
|--------------------------------|-----------------------------|
|--------------------------------|-----------------------------|
|--------------------------------|-----------------------------|
|--------------------------------|-----------------------------|
|
|     PM-------------------|            PM----------------|
|  E  E E  E     E      E   E  E    +E  E E E  E  E  E     E
|--------------------------------|-----------------------------|
|--------------------------------|-----------------------------|
|--------------------------------|-----------------------------|
|--------------------------------|-----------------------------|
|--7---------------------------2-|--(2)------------------------|
|--5--5-5--5-----5------5---5--0-|--(0)-0-0-0--0--0--0-----0---|


  F#5
        ~~~            ~~~~
   S S  Q.      E     +E   E  E
|-------------------------14-16-|
|-10p9---------17b19-(17)-------|
|------11-----------------------|
|-------------------------------|
|-------------------------------|
|-------------------------------|
|
|  E    E  E E  E      E   E  E
|-------------------------------|
|-------------------------------|
|-------------------------------|
|-------------------------------|
|--4-------------------4------4-|
|--2----2--2-2--2------2---2--2-|


                                                       G#5
                                              ~~~~~~~~~
   S  S  S  S  S  S  S  S      +E   +E       +S   +S    S  S
|-17-16-14-16-14----14---------------------------------14-16-|
|----------------17----17b19==(17)r(17)b19==(17)-(17)r-------|
|------------------------------------------------------------|
|------------------------------------------------------------|
|------------------------------------------------------------|
|------------------------------------------------------------|
|
|  E     E     E     E          E    E        E         E
|------------------------------------------------------------|
|------------------------------------------------------------|
|------------------------------------------------------------|
|------------------------------------------------------------|
|-------------------------------------------------------6----|
|--2-----2-----2-----2----------2----2--------2---------4----|


  A5                                        E5
   ~~       PM-|
   H        a   a   S      +S   +S   +S   E  E
|-17-----------(x)-19b21==(19)-(19)r(19)-17-19-|
|----------(x)---------------------------------|
|----------------------------------------------|
|----------------------------------------------|
|----------------------------------------------|
|----------------------------------------------|
|
|    PM----------------------------------|
|  E E E E          E            E        E  E
|----------------------------------------------|
|----------------------------------------------|
|----------------------------------------------|
|----------------------------------------------|
|--7-----------------------------------------2-|
|--5-5-5-5----------5------------5--------5--0-|


    ~~~~
          |------6-------|  |------6-------|  |------6-------|
   +Q     S  S  S  S  S  S  S  S  S  S  S  S  S  S  S  S  S  S
|-(19)---17-19-21-19-17-19-17-16-17-16-14-14-16-14-12-14-12-10--||
|---------------------------------------------------------------||
|---------------------------------------------------------------||
|---------------------------------------------------------------||
|---------------------------------------------------------------||
|---------------------------------------------------------------||
|
|      PM---------------------------------------------|
|  +E  E  E        E        E        E        E        E
|---------------------------------------------------------------||
|---------------------------------------------------------------||
|---------------------------------------------------------------||
|---------------------------------------------------------------||
|--(2)----------------------------------------------------------||
|--(0)-0--0--------0--------0--------0--------0--------0--------||


  F#5                                                           G#5
                        ~~~~~~~~~~                    ~
   |-----6-----|
   S  S S  S S S S     +E.   +Q.      S S   S  S S  S H       E S  S
|-12-10-9-10-9-7-9b10==(9)---(9)r-----9p7-|-9h10p9h10-9---------9h10-|
|-----------------------------------------|--------------------------|
|-----------------------------------------|--------------------------|
|-----------------------------------------|--------------------------|
|-----------------------------------------|--------------------------|
|-----------------------------------------|--------------------------|
|
|  E       E     E         E  E   E E E     E    E    E E E E E E
|-----------------------------------------|--------------------------|
|-----------------------------------------|--------------------------|
|-----------------------------------------|--------------------------|
|-----------------------------------------|--------------------------|
|--4------------------------------4---4---|---------------------6----|
|--2-------2-----2---------2--2---2-2-2---|-2----2----2-2-2-2-2-4----|


  A5                          E5
   ~~~                         ~~~~~~~~~            ~~~~
                    |--3--|
   Q.      S  S  E  S  S  S E  E    +Q.      E     +Q      S S  S S
|-12------12-12-12-10h12p10s9----|---------------------------9------|
|-----------------------------12-|-(12)-----10b12-(10)---/12---12-9-|
|--------------------------------|----------------------------------|
|--------------------------------|----------------------------------|
|--------------------------------|----------------------------------|
|--------------------------------|----------------------------------|
|
|     PM--------------------|           PM---------------------|
|  E  E E  E     E  E       E  E    +E  E E  E      E  E   E    E
|--------------------------------|----------------------------------|
|--------------------------------|----------------------------------|
|--------------------------------|----------------------------------|
|--------------------------------|----------------------------------|
|--7---------------------------2-|--(2)-----------------------------|
|--5--5-5--5-----5--5-------5--0-|--(0)-0-0--0------0--0---0----0---|


  F#5                                                         G#5
        ~~          ~~~~                    ~~~~~~~~~~~~~~
   S S  Q    E     +Q      S S  S S    S S  E  +Q     +Q.      S  S
|----------------------------9------|-------------------------------|
|-10-9------10b12-(10)---/12---12-9-|-10p9-----------------------10-|
|------11---------------------------|------11-(11)---(11)-----11----|
|-----------------------------------|-------------------------------|
|-----------------------------------|-------------------------------|
|-----------------------------------|-------------------------------|
|
|  E    E E  E      E  E   E    E      E    E   E  E   E  E E  E
|-----------------------------------|-------------------------------|
|-----------------------------------|-------------------------------|
|-----------------------------------|-------------------------------|
|-----------------------------------|-------------------------------|
|--4-------------------4--------4---|--------------------------6----|
|--2----2-2--2------2--2---2----2---|--2----2---2--2---2--2-2--4----|


  A5                                                   E5
  |-----6------|         |------6-------|
  S  S S  S S  S   S  S  S  S  S  S  S  S  S  S   S  S  S  S
|-9-14p9----9h14-/17p14----------------14-17p14-/21p17-------|
|--------10-------------14----------14-----------------19----|
|--------------------------14----14-----------------------18-|
|-----------------------------16-----------------------------|
|------------------------------------------------------------|
|------------------------------------------------------------|
|
|         PM------------------------------------|
| E       E        E     E        E        E      E     E
|------------------------------------------------------------|
|------------------------------------------------------------|
|------------------------------------------------------------|
|------------------------------------------------------------|
|-7-----------------------------------------------------2----|
|-5-------5--------5-----5--------5--------5------5-----0----|


   ~~~
   W
|-------------------|
|-------------------|
|-16----------------|
|-------------------|
|-------------------|
|-------------------|
|
|     PM----------|
| +E  E E E E E E E
|-------------------|
|-------------------|
|-------------------|
|-------------------|
|-(2)---------------|
|-(0)-0-0-0-0-0-0-0-|


  G5
           TP TP TP TP TP TP TP TP TP TP
   Q       E  E  S  S  S  S  S  S  S  S
|---------------------------------------|
|---------------------------------------|
|-14b16===14-14-14-14-14-14-14-14-14-14-|
|---------------------------------------|
|---------------------------------------|
|---------------------------------------|
|
|  W
|---------------------------------------|
|---------------------------------------|
|---------------------------------------|
|---------------------------------------|
|--5------------------------------------|
|--3------------------------------------|


                                        C5
   TP  TP TP TP TP TP TP TP TP  TP
   S   S  S  S  S  S  S  S  S  +S   +E   E      +S   +S
|--------------------------------------------------------|
|--------------------------------------------------------|
|-14--14-14-14-14-14-14-14-14-(14)r(14)-14b17==(14)r(14)-|
|--------------------------------------------------------|
|--------------------------------------------------------|
|--------------------------------------------------------|
|
| +H.                                    Q
|--------------------------------------------------------|
|--------------------------------------------------------|
|--------------------------------------------------------|
|----------------------------------------5---------------|
|-(5)------------------------------------3---------------|
|-(3)----------------------------------------------------|


  A5
   ~~
         |------6-------|  |------6-------|
   H     S  S  S  S  S  S  S  S  S  S  S  S
|-------12-13-15-13-12----------------------|
|----------------------15-13-12-15-13-12----|
|-14-------------------------------------14-|
|-------------------------------------------|
|-------------------------------------------|
|-------------------------------------------|
|
|  W
|-------------------------------------------|
|-------------------------------------------|
|-------------------------------------------|
|-------------------------------------------|
|--7----------------------------------------|
|--5----------------------------------------|


                                     C5
                            ~~~~~~~
   |-------6-------|  |--3--|
   S   S  S  S  S  S  S  S  S  +Q.    Q
|----------------------------------------|
|------------------------------------13--|
|-12--10-14-12-10----10-12-14-(14)-------|
|-----------------14---------------------|
|----------------------------------------|
|----------------------------------------|
|
| +H.                                 Q
|----------------------------------------|
|----------------------------------------|
|----------------------------------------|
|-------------------------------------5--|
|-(7)---------------------------------3--|
|-(5)------------------------------------|


  D5
               TP TP TP TP TP TP TP TP TP TP
   S      +E.  E  E  S  S  S  S  S  S  S  S
|-------------------------------------------|
|-13b15==(13)-13-13-13-13-13-13-13-13-13-13-|
|-------------------------------------------|
|-------------------------------------------|
|-------------------------------------------|
|-------------------------------------------|
|
|  W
|-------------------------------------------|
|-------------------------------------------|
|-------------------------------------------|
|--7----------------------------------------|
|--5----------------------------------------|
|-------------------------------------------|


                                       E5
   TP  TP TP TP TP TP TP TP TP TP TP TP ~~~
   S   S  S  S  S  S  S  S  S  S  S  S  Q
|-------------------------------------------|
|-13--13-13-13-13-13-13-13-13-13-13-13-13r--|
|-------------------------------------------|
|-------------------------------------------|
|-------------------------------------------|
|-------------------------------------------|
|
| +H.                                   Q
|-------------------------------------------|
|-------------------------------------------|
|-------------------------------------------|
|-(7)-----------------------------------9---|
|-(5)-----------------------------------7---|
|-------------------------------------------|


  F5                             E5
    ~~~~~~~                        ~~~~
    Q.         H           +E      W
|------------------------------|-------------------||
|-[15]b17-----17b20r======(17)-|-[17]--------------||
|------------------------------|-------------------||
|------------------------------|-------------------||
|------------------------------|-------------------||
|------------------------------|-------------------||
|
|         PM--------------|           PM--------|
|   E     E E  E    E E E   E      E  E E E E E Q
|------------------------------|-------------------||
|------------------------------|-------------------||
|------------------------------|-------------------||
|--10--------------------------|---9---------------||
|---8-----8-8--8----8-8-8---8--|---7--7-7-7-7-7-7--||
|------------------------------|-------------------||


 Interlude
  A5
  Gtr III
   Q.     Q    Q.      Q   E  E  +H
|--------17---------|-------------------|
|-17----------17----|-18--15-17-(17)----|
|-------------------|-------------------|
|-------------------|-------------------|
|-------------------|-------------------|
|-------------------|-------------------|
|
| Gtr IV
|  Q.     Q    Q.      Q   E  E  +H
|-------------------|-------------------|
|--------10---------|-------------------|
|--9-----------9----|-10---7--9--(9)----|
|-------------------|-------------------|
|-------------------|-------------------|
|-------------------|-------------------|
|
| Gtr V
|  Q   Q    H          W
|-------------------|-------------------|
|-------------------|-------------------|
|-------------------|-------------------|
|--2----------------|-------------------|
|--0----------------|-------------------|
|-------------------|-------------------|


  C5    E5           F5      A5
   Q.    Q    Q.      Q    E  E  +H
|------------------|--------------------|
|-------15---------|------15-17-(17)----|
|-17---------16----|-17-----------------|
|------------------|--------------------|
|------------------|--------------------|
|------------------|--------------------|
|
|  Q.    Q    Q.      Q    E  E  +H
|------------------|--------------------|
|------------------|--------------------|
|--------7---------|-------7--9--(9)----|
|-10----------9----|-10-----------------|
|------------------|--------------------|
|------------------|--------------------|
|
|  Q.    E H          Q.      E  +H
|------------------|--------------------|
|------------------|--------------------|
|------------------|--------------------|
|--5---------------|----------2--(2)----|
|--3-----2---------|--3-------0--(0)----|
|--------0---------|--1-----------------|


  A5
   Q.     Q    Q.      E  S  S  E  E  +H
|--------17---------|------------------------|
|-17----------17----|-18-20p18----17-(17)----|
|-------------------|----------19------------|
|-------------------|------------------------|
|-------------------|------------------------|
|-------------------|------------------------|
|
|  Q.     Q    Q.      E  S  S  E  E  +H
|-------------------|------------------------|
|--------10---------|------------------------|
|--9-----------9----|-10-12p10-----9--(9)----|
|-------------------|----------12------------|
|-------------------|------------------------|
|-------------------|------------------------|
|
|  Q   Q    H          W
|-------------------|------------------------|
|-------------------|------------------------|
|-------------------|------------------------|
|--2----------------|------------------------|
|--0----------------|------------------------|
|-------------------|------------------------|


                          D.S. al Coda
  C5    E5           F5    G5 A5
   Q.    Q    Q.      E  E  E  E  +H
|------------------|----------------------|
|-------15---------|----------------------|
|-17---------16----|-17-17-16-14-(14)-----|
|------------------|----------------------|
|------------------|----------------------|
|------------------|----------------------|
|
|  Q.    Q    Q.      Q     E  E  +H
|------------------|----------------------|
|------------------|----------------------|
|--------7---------|----------------------|
|-10----------9----|-10-----9--7--(7)-----|
|------------------|----------------------|
|------------------|----------------------|
|
|  Q.    E H          E  E  E  E  +H
|------------------|----------------------|
|------------------|----------------------|
|------------------|----------------------|
|--5---------------|----------------------|
|--3-----2---------|--3--3--5--7--(7)-----|
|--------0---------|--1--1--3--5--(5)-----|


 Outro
  &
  A5                     F/A  D5/A5
   Q.      Q    Q.        Q    E  E  +H
|---------17-----------|-----------------------|
|-17-----------17------|-18---15-17-(17)-------|
|----------------------|-----------------------|
|----------------------|-----------------------|
|----------------------|-----------------------|
|----------------------|-----------------------|
|
|  Q.      Q    Q.        Q    E  E  +H
|----------------------|-----------------------|
|---------10-----------|-----------------------|
|--9------------9------|-10----7--9--(9)-------|
|----------------------|-----------------------|
|----------------------|-----------------------|
|----------------------|-----------------------|
|
|     PM-----|       PM               PM-----|
|  E  E E  E E  E  E E    E E  E  E   E  E E E
|----------------------|-----------------------|
|----------------------|-----------------------|
|----------------------|-----------------------|
|----------------------|-----------------------|
|--7------------7--7---|--8-8--5--7------------|
|--5--5-5--5-5--5--5-5-|--5-5--5--5---5--5-5-5-|


  C5    E5            F5   G5 A5
   Q.    Q   Q.        Q    E  E  +H
|-------------------|-----------------------|
|-------15----------|------15-17-(17)-------|
|-17--------16------|-17--------------------|
|-------------------|-----------------------|
|-------------------|-----------------------|
|-------------------|-----------------------|
|
|  Q.    Q   Q.        Q    E  E  +H
|-------------------|-----------------------|
|-------------------|-----------------------|
|--------7----------|-------7--9--(9)-------|
|-10---------9------|-10--------------------|
|-------------------|-----------------------|
|-------------------|-----------------------|
|
|            PM---|      PM        PM-----|
|  Q.    Q   E  E E    E E  E  E   E  E E E
|-------------------|-----------------------|
|-------------------|-----------------------|
|-------------------|-----------------------|
|--5-----2----------|--3----5--7------------|
|--3-----2----------|--3----5--7------------|
|--------0---0--0-0-|--1-1--3--5---5--5-5-5-|


  A5                     F/A      D5/A5
   Q.      Q    Q.        E  S  S  E  E  +H
|---------17-----------|---------------------------|
|-17-----------17------|-18-20p18----17-(17)-------|
|----------------------|----------19---------------|
|----------------------|---------------------------|
|----------------------|---------------------------|
|----------------------|---------------------------|
|
|  Q.      Q    Q.        E  S  S  E  E  +H
|----------------------|---------------------------|
|---------10-----------|---------------------------|
|--9------------9------|-10-12p10-----9--(9)-------|
|----------------------|----------12---------------|
|----------------------|---------------------------|
|----------------------|---------------------------|
|
|     PM-----|       PM                   PM-----|
|  E  E E  E E  E  E E    E  E     E  E   E  E E E
|----------------------|---------------------------|
|----------------------|---------------------------|
|----------------------|---------------------------|
|----------------------|---------------------------|
|--7------------7--7---|--8--8-----5--7------------|
|--5--5-5--5-5--5--5-5-|--5--5-----5--5---5--5-5-5-|


  C5    E5            F5    G5 A5
   Q.    Q   Q.        E  E  E  E  +H
|-------------------|---------------------||
|-------15----------|---------------------||
|-17--------16------|-17-17-16-14-(14)----||
|-------------------|---------------------||
|-------------------|---------------------||
|-------------------|---------------------||
|
|  Q.    Q   Q.        Q     E  E  +H
|-------------------|---------------------||
|-------------------|---------------------||
|--------7----------|---------------------||
|-10---------9------|-10-----9--7--(7)----||
|-------------------|---------------------||
|-------------------|---------------------||
|
|            PM---|       PM
|  Q.    Q   E  E E    E  E  E  E  +H
|-------------------|---------------------||
|-------------------|---------------------||
|-------------------|---------------------||
|--5-----2----------|---------------------||
|--3-----2----------|--3-----5--7--(7)----||
|--------0---0--0-0-|--1--1--3--5--(5)----||


  Am             Dm      Am            C          Em        F  G Am
  Gtrs I, II
  Q  E Q  Q  E   E E  E  E +E  E E E   Q  E E +E  E +E  E   Q  E E +H
|-0--0-0--0--0-|-1-1-(x)-0-(0)-0-0-0-|-0--0-0-(0)-0-(0)-0-|-1--3-5-(5)----|
|-1--1-1--1--1-|-3-3--3--1-(1)-1-1-1-|-1--1-0-(0)-0-(0)-0-|-1--3-5-(5)----|
|-2----2--2----|-2-2--2--2-(2)-2-2-2-|-0--0-0-(0)-0-(0)-0-|-2--4-5-(5)----|
|-2-------2----|-0----0--2-(2)---2---|-2--2-------2-(2)-2-|-3--5-7-(7)----|
|-0-------0----|-----------------0---|-3--3-------2-(2)---|-3--5-7-(7)----|
|--------------|---------------------|------------0-(0)---|-1--3-5-(5)----|


                                                          H.=H
  Am             Dm              Am    C          Em        F
  Q  E Q  Q  E   E E  E  E +E  E E E   Q  E E +E  E +E  E   H    E. S E E
|-0--0-0--0--0-|-1-1-(x)-0-(0)-0-0-0-|-0--0-0-(0)-0-(0)-0-|-1-------------|
|-1--1-1--1--1-|-3-3--3--1-(1)-1-1-1-|-1--1-0-(0)-0-(0)-0-|-1----1--1h3p1-|
|-2----2--2----|-2-2--2--2-(2)-2-2-2-|-0--0-0-(0)-0-(0)-0-|-2-------------|
|-2-------2----|-0----0--2-(2)---2---|-2--2-------2-(2)-2-|-3-------------|
|-0-------0----|-----------------0---|-3--3-------2-(2)---|-3-------------|
|--------------|---------------------|------------0-(0)---|-1-------------|


  G              (Am/E)
                 |----6----|
  H    E E E E   S S S S S S +H.        +W
|--------------|-----------0-(0)------|-(0)----*|
|-0----0h1-0---|---------1------------|--------*|
|-0----------0-|-------2--------------|--------*|
|-0------------|-----2----------------|--------*|
|-2------------|---0------------------|--------*|
|-3------------|-0--------------------|--------*|


----------------------------------------------------------------------------


Duration Legend
---------------
W - whole; H - half; Q - quarter; E - 8th; S - 16th; T - 32nd; X - 64th; a - acciaccatura
+ - note tied to previous; . - note dotted; .. - note double dotted
Tablature Legend
----------------
 h   - hammer-on
 p   - pull-off
 b   - bend
 pb  - pre-bend
 r   - bend release (if no number after the r, then release immediately)
 /\  - slide into or out of (from/to "nowhere")
 s   - legato slide
 S   - shift slide
<n> - natural harmonic
[n]  - artificial harmonic
n(n) - tapped harmonic
 ~   - vibrato
 tr  - trill
 T   - tap
 TP  - trem. picking
 PM  - palm muting
\n/  - tremolo bar dip; n = amount to dip
 \n  - tremolo bar down
 n/  - tremolo bar up
/n\  - tremolo bar inverted dip
 =   - hold bend; also acts as connecting device for hammers/pulls
 <> - volume swell (louder/softer)
 x   - on rhythm slash represents muted slash
 o   - on rhythm slash represents single note slash

Misc Legend
-----------
 |  - bar
||  - double bar
||o - repeat start
o|| - repeat end
*|  - double bar (ending)
 :  - bar (freetime)
 $  - Segno
 &  - Coda


THE END

I cant believe i finish!!!!
I would like to thank all
people who wrote tabs on
these songs.
Their tabs where
helpfull to me
Thank you!!!


Tabbed by:ELIAS STASI
comments
We did not receive enough feedback on this tab! Please rate:
print report bad tab
1 2 3 4 5
I want to post or [tab]
guest
You may want to rate the tab now too:
select rating
Please do not post tabs as comments. Select "correction" instead!