Oops, an error
Loading. Please wait.

Every Breath You Take Tab

1,609 views 24 this week
no commentswrite comment
1 2 3 4 5
please rate
add to favorites launch autoscroll
font size
0
reset
Autoscroll
+/-
esc
set tempo
stop
Contributor
WARNING: You are trying to view
                                    content from Ultimate-Guitar.com
                                    in an unauthorized application,
                                    which is prohibited.

                                    Please use an official Ultimate
                                    Guitar Tabs application for iPhone,
                                    iPad or Android to access legitimate
                                    chords, guitar, bass, and drum tabs
                                    from Ultimate-Guitar.com database.

                                    Type "ultimate guitar tabs" in Apple
                                    App Store's or Android Market's
                                    search to find the application.
My first tab i ever made i hope you enjoy it :)
Every breath you take by Hansel Pethig
Standard Tuning
Capo: 2nd Fret
Let me know how i did :) thanks!!!




e|-------------------------------------------------|------------------------|
b|-------------------------0-----------------------|----------------------0-|
g|---------------2--------------2---------2--------|--------------2---------|
d|-----------0--------0--------------0-------------|----------0-------0-----|
a|-------------------------------------------------|------------------------|
E|------3------------------------------------------|------3-----------------|


 |--------------------|------------------------------------|----------------|
 |--------------------|------------------------------------|----------------|
 |-----2---------2----|------------------------0-----------|----------------|
 |-----------0--------|-------------4--------------4-------|-------------4--|
 |--------------------|--------2---------2--------------2--|---------2------|
 |--------------------|---0--------------------------------|-----0----------|

 |-----------------------------|----------------------------------|---------|
 |-----------------------------|------------3-------1-------------|---------|
 |------------0----------------|----------------0-------0------0--|-------2-|
 |-----------------4--------4--|-------2--------------------2-----|----0----|
 |-----2----------------2------|----3-----------------------------|---------|
 |-----------------------------|----------------------------------|---------|

 |-----0-------------------|-------------------------|----------------------|
 |------------3------------|-------------------------|----------0--1--0-----|
 |---------2-----2------2--|-------------------0-----|----------------------|
 |-------------------0-----|-------------4---------4-|----------------------|
 |-------------------------|---------2-------2-------|-------2--------------|
 |-------------------------|-----0-------------------|----0-----------------|

 |------------|-----------------------------------|-------------------------|
 |---------0--|--------------------0--------------|-------------0---1---0---|
 |----2p0-----|-------------2----------2-------2--|-------------------------|
 |------------|--------0--------0----------0------|----------0--------------|
 |------------|-----------------------------------|-------------------------|
 |------------|-----3-----------------------------|------3------------------|

 |------------|------------------------------|------------------------------|
 |------------|------------------------------|------------0--------1------0-|
 |----2p0---0-|------------------0-----------|----------0-------------------|
 |------------|------------4-------4------4--|-------------------------4----|
 |------------|---------2----2---------2-----|-------2----------------------|
 |------------|-----0------------------------|-----0-----------0------------|

 |--------------------------------|-----------------------------------|------|
 |-------------1--------0---------|--------------------0--------------|------|
 |----------0------------------2--|-----------2------------2-------2--|------|
 |-------2------------------2-----|-------4-------4------------4------|------|
 |----3-------------3-------------|----5------------------------------|------|
 |--------------------------------|-----------------------------------|----0-|

 |--------------------------------|------------------------------0----|------|
 |--------------------------------|--------------0-------3------------|------|
 |-----------------0--------------|-----------0-----------------------|------|
 |--------4------------4--------4-|--------0-----------------0--------|------|
 |----2-------2-------------2-----|-----------------------------------|----3-|
 |--------------------------------|----3--------------3---------------|------|

 |--------------------------------|-----------0---------------------|--------|
 |-----------------1--------------|---------------3--------------0--|--------|
 |--------0------------0-------0--|----------------------0----------|--------|
 |----2-------2------------2------|-------0------------------0------|------0-|
 |--------------------------------|----1-------------1--------------|--------|
 |--------------------------------|---------------------------------|---3----|

 |----------------------------|-----------3--0--3-----3-------|---3p0-------|
 |-------------0--------------|-------------------------------|-------------|
 |----2-------------2------2--|-------------------------------|--------2----|
 |-------0--------------0-----|-------0------------0----------|-----------2-|
 |----------------------------|-------------------------------|---0---------|
 |----------------------------|----3------------3---------3---|-------------|

 |--------------|------------5---------------------|---------------0--------|
 |--------------|---------------7------5--------5--|---------3------------3-|
 |---2------2---|----------------------------------|------2----2-------2----|
 |-------2------|--------7------------------7------|---0--------------------|
 |--------------|----0--------------0--------------|------------------------|
 |--------------|----------------------------------|------------------------|

 |--------0h2---|----------------------------|--------------------------|
 |--------3-----|----------------0-----------|-----------3------1----0--|
 |---2----2-----|---------2---------2----2---|--------0-----------------|
 |--------0-----|------0----0----------0-----|------0--------------0----|
 |--------------|----------------------------|--------------------------|
 |--------------|---3------------------------|---3-----------3----------|

 |----------------------------|------------------------------|
 |----------------------------|------------3--------------0--|
 |---------------0------------|--------------------5---------|
 |--------4---------4------4--|---------4-------------4------|
 |-----2-----2----------2-----|------2-----------------------|
 |--0-------------------------|---0-------------0------------|

 |----------------------------|------------------------------|--------------|
 |----------3--------1------0-|-----------------0------------|--------------|
 |--------0-------------------|----------2----------2-------2|----------0---|
 |------2---------------2-----|------4------4-----------4----|------4-----4-|
 |----3----------3------------|---5--------------------------|----2---2-----|
 |----------------------------|------------------------------|--0-----------|

 |---------|------------------------------|-----------------------------|
 |---------|-------------3------------0---|----------------0------------|
 |---------|--------------------5---------|---------2----------2------2-|
 |------4--|----------4------------4------|------0-----0-----------0----|
 |---2-----|-------2----------------------|-----------------------------|
 |---------|----0------------0------------|---3-------------------------|

 |----------------------------|------------------------------|---------------|
 |---------3--------1------0--|------------------------------|-------------3-|
 |------0---------------------|----------------0-------------|---------------|
 |----0-----------------0-----|---------4----------4-------4-|----------4----|
 |----------------------------|------2-----2-----------2-----|-------2-------|
 |--3-----------3-------------|---0--------------------------|----0----------|

 |----------------|-----------3--3--3------1---1----|--------------1---------|
 |--------------0-|---------------------------------|-----------4-------4----|
 |-------5--------|--------3------------3-----------|--------3-------------3-|
 |----------4-----|-----1-----------1---------------|-----1-----------1------|
 |----------------|---------------------------------|------------------------|
 |---0------------|---------------------------------|------------------------|

 |----------1--1------------------|----1----------1--------------|
 |-------------------------3---1--|-------3---1---------------1--|
 |-------2--------------2---------|------------------------2-----|
 |----3--------------3------------|----3----------------3--------|
 |--------------------------------|------------------------------|
 |--------------------------------|------------------------------|

 |-----------1--1---1------------1--|-----------------1--------------|
 |-----------------------4----------|--------4----------------4------|
 |--------3------------------2------|------------3----------------3--|
 |----1-------------1---------------|----1-----------------1---------|
 |----------------------------------|--------------------------------|
 |----------------------------------|--------------------------------|

 |------------1--1------------------|----1---------1--------------|
 |----------------------------3--1--|--------3--1------------1----|
 |--------2---------------2---------|---------------------2-------|
 |----3---------------3-------------|----3-------------3----------|
 |----------------------------------|-----------------------------|
 |----------------------------------|-----------------------------|

 |----------1--1--1----------1--|-------------1-------3--2--|
 |--------------------4---------|-------4-------------------|
 |-------3---------------3------|----------3----------------|
 |----1-----------1-------------|----1------------1---------|
 |------------------------------|---------------------------|
 |------------------------------|---------------------------|

 |-------------------------------|
 |------------------0------------|
 |-----------2---------2-------2-|
 |--------0-----0----------0-----|
 |-------------------------------|
 |-----3-------------------------|
comments
We did not receive enough feedback on this tab! Please rate:
print report bad tab
1 2 3 4 5
I want to post or [tab]
guest
You may want to rate the tab now too:
select rating
Please do not post tabs as comments. Select "correction" instead!