Oops, an error
Loading. Please wait.

Dr Love Bass Tab

ver1
ver1

Whole song

Interactive

More versions @911Tabs.com
220 views 1 this week
no commentswrite comment
1 2 3 4 5
please rate
Autoscroll
+/-
esc
set tempo
stop
Contributor
Difficulty
intermediate
Hey! There's an official Ultimate Guitar app which is ideal
for learning songs when you're away from computer. Get the app
WARNING: You are trying to view
                                    content from Ultimate-Guitar.com
                                    in an unauthorized application,
                                    which is prohibited.

                                    Please use an official Ultimate
                                    Guitar Tabs application for iPhone,
                                    iPad or Android to access legitimate
                                    chords, guitar, bass, and drum tabs
                                    from Ultimate-Guitar.com database.

                                    Type "ultimate guitar tabs" in Apple
                                    App Store's or Android Market's
                                    search to find the application.
-------------------------------------------------------------------------------
			     DR. LOVE - Hardline
-------------------------------------------------------------------------------

Tabbed By : Isaias Garcia

Tuning: Standard

     Intro - m.13
     E  E  E  E  E  E  E  E     E  E  E  E  E  E  E  E     E  E  E  E  E  E  E  E
G||--------------------------|--------------------------|--------------------------|
D||--------------------------|--------------------------|--------------------------|
A||--------------------------|--------------------------|--------------------------|
E||--------------------------|--------------------------|--------------------------|
B||--5--5--5--5--5--5--5--5--|--5--5--5--5--5--5--5--3--|--5--5--5--5--5--5--5--5--|


  E  E  E  E  E  E  E  E     E  E  E  E  E  E  E  E     E  E  E  E  E  E  E  E
--------------------------|--------------------------|--------------------------|
--------------------------|--------------------------|--------------------------|
--------------------------|--------------------------|--------------------------|
--------------------------|--------------------------|--------------------------|
--5--5--5--5--5--5--5--3--|--5--5--5--5--5--5--5--5--|--5--5--5--5--5--5--5--3--|


                                                      Verse 1
  E  E  E  E  E  E  E  E     E  E  E  E  Q    Q       E  E  E  E  E  E  E  E
--------------------------|------------------------|--------------------------|
--------------------------|------------------------|--------------------------|
--------------------------|------------------------|--------------------------|
--------------------------|------------------------|--------------------------|
--5--5--5--5--5--5--5--5--|--5--5--5--3--5---------|--5--5--5--5--5--5--5--5--|


  E  E  E  E  E  E  E  E     E  E  E  E  E  E  E  E     E  E  E  E  E  E  E  E
--------------------------|--------------------------|--------------------------|
--------------------------|--------------------------|--------------------------|
--------------------------|--------------------------|--------------------------|
--------------------------|--------------------------|--------------------------|
--5--5--5--5--5--5--5--3--|--5--5--5--5--5--5--5--5--|--5--5--5--5--5--5--5--3--|


  E  E  E  E  E  E  E  E     E  E  E  E  E  E  E  E     E  E  E  E  E  E  E  E
--------------------------|--------------------------|--------------------------|
--------------------------|--------------------------|--------------------------|
--------------------------|--------------------------|--------------------------|
--------------------------|--------------------------|--------------------------|
--5--5--5--5--5--5--5--5--|--5--5--5--5--5--5--5--3--|--5--5--5--5--5--5--5--5--|


                             Pre-Chorus
  E  E  E  E  E  E  E  E     E  E  E  E  E  E  E  S  S    E  E  E  E  E  E  E  S  S
--------------------------|----------------------------|----------------------------|
--------------------------|----------------------------|----------------------------|
--------------------------|----------------------------|----------------------------|
--------------------------|--7--7--7--7--7--7--7--5h-7-|--7--7--7--7--7--7--7--5h-7-|
--5--5--5--5--5--5--5--3--|----------------------------|----------------------------|


  E  E  E  E  E  E  E  E      Q.     S S E  S S Q       E  E  E  E  E  E  E  E
--------------------------|--------------------------|--------------------------|
--------------------------|--------------------------|--------------------------|
--------------------------|---------------------7----|--------------------------|
--7--7--7--7--7--7--7--7--|--10----------------------|--7--7--7--7--7--7--7--5--|
--------------------------|----------5-3-5--5-5------|--------------------------|


  E  E  E  E  E  E  E  E     E  E  E  E  E  E  E  S S    Q    Q    E  E   E  E
--------------------------|---------------------------|-------------------------|
--------------------------|---------------------------|-------------------------|
--------------------------|---------------------------|--5---------7--7\--------|
--7--7--7--7--7--7--7--5--|--7--7--7--7--7--7--7--7-7-|-------------------0--2--|
--------------------------|---------------------------|-------3-----------------|


  Chorus 1
  E  E  Q    E  E  Q       E  E  Q    E  E  Q       E  E  Q    E  E  Q
------------------------|------------------------|------------------------|
------------------------|------------------------|------------------------|
------------------------|------------------------|------------------------|
--3--3------------------|--5--5-------5--5-------|--3--3------------------|
-------------3--3-------|------------------------|-------------3--3-------|


  Q    S E.  Q    S   E.      E  E  Q    E  E  Q       E  E  Q    E  E  Q
---------------------------|------------------------|------------------------|
---------------------------|------------------------|------------------------|
--------------------/12\---|------------------------|------------------------|
--5------3---5-------------|--3--3------------------|--5--5-------5--5-------|
---------------------------|-------------3--3-------|------------------------|


                                                                      Verse 2
  E  E  Q    E  E  Q       S E.  H.              H        H           E  E  E  E  E  E  E E
------------------------|---------------------|--------------------|--------------------------|
------------------------|---------------------|--------------------|--------------------------|
------------------------|---------------------|--------------------|--------------------------|
--3--3------------------|--3-5---L------------|--L-----------------|--------------------------|
-------------3--3-------|---------------------|--------------------|--5--5--5--5--5--5--5--5--|


  E  E  E  E  E  E  E  E     E  E  E  E  E  E  E  E     E  E  E  E  E  E  E  E
--------------------------|--------------------------|--------------------------|
--------------------------|--------------------------|--------------------------|
--------------------------|--------------------------|--------------------------|
--------------------------|--------------------------|--------------------------|
--5--5--5--5--5--5--5--3--|--5--5--5--5--5--5--5--5--|--5--5--5--5--5--5--5--3--|


  E  E  E  E  E  E  E  E     E  E  E  E  E  E  E  E     E  E  E  E  E  E  E  E
--------------------------|--------------------------|--------------------------|
--------------------------|--------------------------|--------------------------|
--------------------------|--------------------------|--------------------------|
--------------------------|--------------------------|--------------------------|
--5--5--5--5--5--5--5--5--|--5--5--5--5--5--5--5--3--|--5--5--5--5--5--5--5--5--|


                             Pre-Chorus
  E  E  E  E  E  E  E  E     E  E  E  E  E  E  E  S  S    E  E  E  E  E  E  E  S  S
--------------------------|----------------------------|----------------------------|
--------------------------|----------------------------|----------------------------|
--------------------------|----------------------------|----------------------------|
--------------------------|--7--7--7--7--7--7--7--5h-7-|--7--7--7--7--7--7--7--5h-7-|
--5--5--5--5--5--5--5--3--|----------------------------|----------------------------|


  E  E  E  E  E  E  E  E      Q.     S S E  S S Q       E  E  E  E  E  E  E  E
--------------------------|--------------------------|--------------------------|
--------------------------|--------------------------|--------------------------|
--------------------------|---------------------7----|--------------------------|
--7--7--7--7--7--7--7--7--|--10----------------------|--7--7--7--7--7--7--7--5--|
--------------------------|----------5-3-5--5-5------|--------------------------|


  E  E  E  E  E  E  E  E     E  E  E  E  E  E  E  S S    Q    Q    E  E   E  E
--------------------------|---------------------------|-------------------------|
--------------------------|---------------------------|-------------------------|
--------------------------|---------------------------|--5---------7--7\--------|
--7--7--7--7--7--7--7--5--|--7--7--7--7--7--7--7--7-7-|-------------------0--2--|
--------------------------|---------------------------|-------3-----------------|


  Chorus 2
  E  E  Q    E  E  Q       E  E  Q    E  E  Q       E  E  Q    E  E  Q
------------------------|------------------------|------------------------|
------------------------|------------------------|------------------------|
------------------------|------------------------|------------------------|
--3--3------------------|--5--5-------5--5-------|--3--3------------------|
-------------3--3-------|------------------------|-------------3--3-------|


  Q    S E.  Q    S  E   S     E  E  Q    E  E  Q       E  E  Q    E  E  Q
----------------------------|------------------------|------------------------|
----------------------------|------------------------|------------------------|
--------------------12---L\-|------------------------|------------------------|
--5------3---5--------------|--3--3------------------|--5--5-------5--5-------|
----------------------------|-------------3--3-------|------------------------|


                          Bridge
  E  E  Q    Q    Q       E  E  E  E  E  E  E  E     E  E  E  E  E  E  E  E
-----------------------|--------------------------|--------------------------|
-----------------------|--------------------------|--------------------------|
-----------------------|--------------------------|--------------------------|
--3--3-----------------|--1--1--1--1--1--1--1--1--|--3--3--3--3--3--3--3--3--|
-------------3---------|--------------------------|--------------------------|


  E  E  E  E  E  E  E  E     Q    Q    Q    Q       E  E  E  E  E  E  E  E
--------------------------|----------------------|--------------------------|
--------------------------|----------------------|--------------------------|
--------------------------|-------2----3----5----|--------------------------|
--1--1--1--1--1--1--1--1--|--5-------------------|--1--1--1--1--1--1--1--1--|
--------------------------|----------------------|--------------------------|


                                                                     Guitar Solo
  E  E  E  E  E  E  E  E     W                   W                   E  E  E  E  E  E  E 
E
--------------------------|-------------------|-------------------|--------------------------|
--------------------------|-------------------|-------------------|--------------------------|
--------------------------|-------------------|--5----------------|--------------------------|
--3--3--3--3--3--3--3--3--|-------------------|-------------------|--------------------------|
--------------------------|--3----------------|--L----------------|--5--5--5--5--5--5--5--5--|


  E  E  E  E  E  E  E  E     E  E  E  E  E  E  E  E     E  E  E  E  E  E  E  E
--------------------------|--------------------------|--------------------------|
--------------------------|--------------------------|--------------------------|
--------------------------|--------------------------|--------------------------|
--------------------------|--------------------------|--------------------------|
--5--5--5--5--5--5--5--3--|--5--5--5--5--5--5--5--5--|--5--5--5--5--5--5--5--3--|


  E  E  E  E  E  E  E  E     E  E  E  E  E  E  E  E     E  E  E  E  E  E  E  E
--------------------------|--------------------------|--------------------------|
--------------------------|--------------------------|--------------------------|
--------------------------|--------------------------|--------------------------|
--------------------------|--------------------------|--------------------------|
--5--5--5--5--5--5--5--5--|--5--5--5--5--5--5--5--3--|--5--5--5--5--5--5--5--5--|


  E  E  S E.  E  E  E  E     E  E  E  E  S S E  S S S  S    E  E  S S S S E  S S E  E
--------------------------|------------------------------|-----------------------------|
--------------------------|------------------------------|--------4-5-6-7--------------|
--------------------------|--3--3--3--3--3-3-3--7-8-9-10-|--5--5----------5--5-5-------|
-----5--L-----7--7--7--7--|------------------------------|-----------------------0--2--|
--5-------5---------------|------------------------------|-----------------------------|


  Chorus 3
  E  E  Q    E  E  Q       E  E  Q    E  E  Q       E  E  Q    E  E  Q
------------------------|------------------------|------------------------|
------------------------|------------------------|------------------------|
------------------------|------------------------|------------------------|
--3--3------------------|--5--5-------5--5-------|--3--3------------------|
-------------3--3-------|------------------------|-------------3--3-------|


  Q    S E.  Q    S   E.      E  E  Q    E  E  Q       E  E  Q    E  E  Q
---------------------------|------------------------|------------------------|
---------------------------|------------------------|------------------------|
--------------------/12\---|------------------------|------------------------|
--5------3---5-------------|--3--3------------------|--5--5-------5--5-------|
---------------------------|-------------3--3-------|------------------------|


  E  E  Q    E  E  Q       S E.  Q    S S E  E  E     E  E  Q    E  E  Q
------------------------|--------------------------|------------------------|
------------------------|--------------------------|------------------------|
------------------------|-------------4------------|------------------------|
--3--3------------------|--3-5---L--------------2--|--3--3------------------|
-------------3--3-------|---------------5-5--5-----|-------------3--3-------|


  E  E  Q    E  E  Q       E  E  Q    E  E  Q       Q    S E.  Q    S   E.
------------------------|------------------------|---------------------------|
------------------------|------------------------|---------------------------|
------------------------|------------------------|--------------------/12\---|
--5--5-------5--5-------|--3--3------------------|--5------3---5-------------|
------------------------|-------------3--3-------|---------------------------|


  E  E  Q    E  E  Q       E  E  Q    E  E  Q       E  E  Q    E  E  Q       S E.  H.
------------------------|------------------------|------------------------|---------------------|
------------------------|------------------------|------------------------|---------------------|
------------------------|------------------------|------------------------|---------------------|
--3--3------------------|--5--5-------5--5-------|--3--3------------------|--3-5---L------------|
-------------3--3-------|------------------------|-------------3--3-------|---------------------|


                         Outro
  H.            Q        E  E  E  E  E  E  E  E     E  E  E  E  E  E  E  E
----------------------|--------------------------|--------------------------|
----------------------|--------------------------|--------------------------|
----------------------|--------------------------|--------------------------|
--L------------12\----|--------------------------|--------------------------|
----------------------|--5--5--5--5--5--5--5--5--|--5--5--5--5--5--5--5--3--|


  E  E  E  E  E  E  E  E     E  E  E  E  E  E  E  E     E  E  E  E  E  E  E  E
--------------------------|--------------------------|--------------------------|
--------------------------|--------------------------|--------------------------|
--------------------------|--------------------------|--------------------------|
--------------------------|--------------------------|--------------------------|
--5--5--5--5--5--5--5--5--|--5--5--5--5--5--5--5--3--|--5--5--5--5--5--5--5--5--|


  E  E  E  E  E  E  E  E     E  E  E  E  E  E  E  E     E  E  E  E  E  E  E  E
--------------------------|--------------------------|--------------------------|
--------------------------|--------------------------|--------------------------|
--------------------------|--------------------------|--------------------------|
--------------------------|--------------------------|--------------------------|
--5--5--5--5--5--5--5--3--|--5--5--5--5--5--5--5--5--|--5--5--5--5--5--5--5--3--|


  E  E  E  E  E  E  E  E     E  E  E  E  E  E  E  E     E  E  E  E  E  E  E  E
--------------------------|--------------------------|--------------------------|
--------------------------|--------------------------|--------------------------|
--------------------------|--------------------------|--------------------------|
--------------------------|--------------------------|--------------------------|
--5--5--5--5--5--5--5--5--|--5--5--5--5--5--5--5--3--|--5--5--5--5--5--5--5--5--|


  E  E  E  E  E  E  E  E     E  E  E  E  E  E  E  E     E  E  E  E  E  E  E  E
--------------------------|--------------------------|--------------------------|
--------------------------|--------------------------|--------------------------|
--------------------------|--------------------------|--------------------------|
--------------------------|--------------------------|--------------------------|
--5--5--5--5--5--5--5--3--|--5--5--5--5--5--5--5--5--|--5--5--5--5--5--5--5--3--|


  E  E  E  E  E  E  E  E
----------------------------------------------------------------||
----------------------------------------------------------------||
----------------------------------------------------------------||
----------------------------------------------------------------||
--5--5--5--5--5--5--5--5----------------------------------------||


Duration Legend
---------------
W - whole
H - half
Q - quarter
E - 8th
S - 16th
T - 32nd
X - 64th
. - note dotted
|-n-|  - n-tuplets


Tablature Legend
----------------
L - tied note
x - dead note
g - grace note
(n) - ghost note
> - accentuded note
NH - natural harmonic
AH - artificial harmonic
TH - tapped harmonic
SH - semi harmonic
PH - pitch harmonic
h - hammer on
p - pull off
b - bend
br - bendRelease
pb - preBend
pbr - preBendRelease
brb - bendReleaseBend
\n/ - tremolo bar dip
\n - tremolo bar dive
-/n - tremolo bar Release up
/n\ - tremolo bar inverted dip
/n - tremolo bar return
-\n - tremolo bar Release down
S - shift slide
s - legato slide
/ -  slide into from below or out of upwards
\ -  slide into from above or out of downwards
~ - vibrato
W - wide vibrato
tr - trill
TP - tremolo picking
T - tapping
S - slap
P - pop
< - fade in
^ - brush up
v - brush down
comments
We did not receive enough feedback on this tab! Please rate:
print report bad tab
1 2 3 4 5
I want to post or [tab]
guest
You may want to rate the tab now too:
select rating
Please do not post tabs as comments. Select "correction" instead!