Oops, an error
Loading. Please wait.

Hot Cherie Bass Tab

1,420 views 15 this week
no commentswrite comment
1 2 3 4 5
please rate
Autoscroll
+/-
esc
set tempo
stop
Contributor
Difficulty
intermediate
Hey! There's an official Ultimate Guitar app which is ideal
for learning songs when you're away from computer. Get the app
WARNING: You are trying to view
                                    content from Ultimate-Guitar.com
                                    in an unauthorized application,
                                    which is prohibited.

                                    Please use an official Ultimate
                                    Guitar Tabs application for iPhone,
                                    iPad or Android to access legitimate
                                    chords, guitar, bass, and drum tabs
                                    from Ultimate-Guitar.com database.

                                    Type "ultimate guitar tabs" in Apple
                                    App Store's or Android Market's
                                    search to find the application.
-------------------------------------------------------------------------------
			     HOT CHERIE - Hardline
-------------------------------------------------------------------------------

Tabbed By : Isaias Garcia (TexasFury)

Tuning: Standard




     W                   W                   W                   W                 
G||-------------------|-------------------|-------------------|-------------------|
D||-------------------|-------------------|-------------------|-------------------|
A||-------------------|-------------------|-------------------|-------------------|
E||-------------------|-------------------|-------------------|-------------------|


  W                   W                   W                   W                   W                 
-------------------|-------------------|-------------------|-------------------|-------------------|
-------------------|-------------------|-------------------|-------------------|-------------------|
-------------------|-------------------|-------------------|-------------------|-------------------|
-------------------|-------------------|-------------------|-------------------|-------------------|


  W                   Q     Q    E  E  E  E     Q    Q    E  E  E  E     Q    Q    E  E  E  E   
-------------------|-------------------------|------------------------|------------------------|
-------------------|-------------------------|------------------------|------------------------|
-------------------|--5\------------5--0--1--|--L------------0--1--2--|--L------------1--2--3--|
-------------------|-------------------------|------------------------|------------------------|


  Q    E  E  E  E  E  E     Q     Q    E  E  E  E     Q    Q       E  E  E  E     W                 
-------------------------|-------------------------|---------------------------|-------------------|
----------3--L--2--------|----------------3--------|------------------5--------|-------------------|
--L----------------5--3--|--5\---------------5--1--|--L---------/3g5-----5--3--|--L----------------|
-------------------------|-------------------------|---------------------------|-------------------|


  Q     Q    E  E  E  E     Q    Q    E  E  E  E     Q    Q    E  E  E  E   
-------------------------|------------------------|------------------------|
-------------------------|------------------------|------------------------|
--5\------------5--0--1--|--L------------0--1--2--|--L------------1--2--3--|
-------------------------|------------------------|------------------------|


  Q    E  E  E  E  E  E     Q     Q    E  E  E  E     Q    Q       E  E  E  E   
-------------------------|-------------------------|---------------------------|
-------------------------|----------------3--------|------------------5--------|
--L-------1--L--0--------|--5\---------------0--1--|--L---------/1g2-----1--2--|
-------------------3--1--|-------------------------|---------------------------|


  Q    Q    E  E  E  E     Q    E  E  E  E  E  E     Q     Q    E  E  E  E   
------------------------|-------------------------|-------------------------|
---------------5--------|----------3--L--2--------|-------------------------|
--L---------2-----2--3--|--L----------------5--3--|--5\------------5--0--1--|
------------------------|-------------------------|-------------------------|


  Q    Q    E  E  E  E     Q    Q    E  E  E  E     Q    E  E  E  E  E  E   
------------------------|------------------------|-------------------------|
------------------------|------------------------|-------------------------|
--L------------0--1--2--|--L---------------2--3--|--L-------1--L--0--------|
------------------------|---------------3--------|-------------------3--1--|


  Q     Q    E  E  E  E     Q    Q       E  E  E  E     Q    Q    E  E  E  E   
-------------------------|---------------------------|------------------------|
----------------3--------|------------------5--------|---------------5--------|
--5\---------------0--1--|--L---------/1g2-----1--2--|--L---------------2--3--|
-------------------------|---------------------------|------------------------|


  H        E  E  Q       E  E  E  E  E  E  E  E     E  E  E  E  E  E  E  E   
----------------------|--------------------------|--------------------------|
----------------------|-----------3--------------|--------------------------|
--L-------------------|--1--1--1--1--1--1--1--1--|--3--3--3--3--3--3--3--3--|
--------------3--L----|--------------------------|--------------------------|


  E  E  E  E  E  E  E  E     E  E  E  E  E  E  E  E     E  E  E  E  E  E  E  E   
--------------------------|--------------------------|--------------------------|
--------------------------|--------------3--2--------|--------------------------|
--5--5--5--5--5--5--5--5--|--------------------5--3--|--1--1--1--1--1--1--1--1--|
--------------------------|--0--0--0--0--------------|--------------------------|


  E  E  E  E  E  E  E  E     Q.     E  E  E  S  S E     E  E  Q    E  E  Q     
--------------------------|--------------------------|------------------------|
--------------------------|--------------------------|------------------------|
--1--1--1--1--1--1--1--1--|--0------0--0--0--3h-5-3--|--L--3--3----3--0--3----|
--------------------------|--------------------------|------------------------|


  E  E  E  E  E  E  E  E     E  E  E  E  E  E  E  E     E  E  E  E  E  E  E  E   
--------------------------|--------------------------|--------------------------|
--------------------------|--------------------------|--3--3--3--3--3--3--3-----|
--5--5--5--5--5--5--5--0--|--1--1--1--1--1--1--1--1--|-----------------------0--|
--------------------------|--------------------------|--------------------------|


  E  E  E  E  E  E  E  E     E  E  E  E  E  E  E  E     E  E  E  E  E  E  E  E   
--------------------------|--------------------------|--------------------------|
--------------------------|--------------------------|--------------------------|
--3--3--3--3--3--3--3--0--|--5--5--5--5--5--5--5--0--|--1--1--1--1--1--1--1--1--|
--------------------------|--------------------------|--------------------------|


  E  E  E  E  E  E  E  E     E  E  E  E  E  E  E  E     E  E  E  E  E  E  E  E   
--------------------------|--------------------------|--------------------------|
--------------------------|--------------------------|--------------------2--3--|
--------------------------|--3--3--3--3--3--3--3--0--|--5--5--5--5--5--5--------|
--1--1--1--1--1--1--1--3--|--------------------------|--------------------------|


  E  E  E  E  E  E  E  E     E  E  E  E  E  E  E  E     E  E  E  E  E  E  E  E   
--------------------------|--------------------------|--------------------------|
--------------------------|--3--3--3--3--3--3--3-----|--------------------------|
--1--1--1--1--1--1--1--0--|-----------------------3--|--3--3--3--3--3--3--3-----|
--------------------------|--------------------------|-----------------------3--|


  W                   W                   E  E  E  E  E  E  E  E     E  E  E  E  E  E  E  E   
-------------------|-------------------|--------------------------|--------------------------|
-------------------|-------------------|--------------------------|--------------------------|
--1----------------|--L----------------|--5--5--5--5--5--5--5--5--|--1--1--1--1--1--1--1--1--|
-------------------|-------------------|--------------------------|--------------------------|


  E  E  E  E  E  E  E  E     E  E  Q    E  E  E  E     Q     Q    E  E  E  E   
--------------------------|-------------------------|-------------------------|
--------------------------|-------------------------|-------------------------|
--2--2--2--2--2--2--2--2--|--3--3--3----1--0--------|--5\------------5--0--1--|
--------------------------|-------------------3--1--|-------------------------|


  Q    Q    E  E  E  E     Q    Q    E  E  E  E     Q    E  E  E  E  E  E   
------------------------|------------------------|-------------------------|
------------------------|------------------------|----------3--L--2--------|
--L------------0--1--2--|--L------------1--2--3--|--L----------------5--3--|
------------------------|------------------------|-------------------------|


  Q     Q    E  E  E  E     Q    Q       E  E  E  E     Q    Q    E  E  E  E   
-------------------------|---------------------------|------------------------|
----------------3--------|------------------5--------|---------------5--------|
--5\---------------5--1--|--L---------/1g2-----1--2--|--L---------2-----2--3--|
-------------------------|---------------------------|------------------------|


  Q    E  E  E  E  E  E     Q     Q    E  E  E  E     Q    Q    E  E  E  E   
-------------------------|-------------------------|------------------------|
-------------------------|-------------------------|------------------------|
--L-------1--L--0--------|--5\------------5--0--1--|--L---------------1--2--|
-------------------3--1--|-------------------------|---------------3--------|


  Q    Q    E  E  E  E     Q    E  E  E  E  E  E     Q     Q    E  E  E  E   
------------------------|-------------------------|-------------------------|
------------------------|----------3--L--2--------|-------------------------|
--L---------------2--3--|--L----------------5--3--|--5\------------5--0--1--|
---------------3--------|-------------------------|-------------------------|


  Q    Q    E  E  E  E     Q    Q    E  E  E  E     H        E  E  Q       E  E  E  E  E  E  E  E   
------------------------|------------------------|----------------------|--------------------------|
------------------------|------------------------|----------------------|-----------3--------------|
--L---------------1--2--|--L---------------2--3--|--L-------------------|--1--1--1--1--1--1--1--1--|
---------------3--------|---------------3--------|--------------3--L----|--------------------------|


  E  E  E  E  E  E  E  E     E  E  E  E  E  E  E  E     E  E  E  E  E  E  E  E   
--------------------------|--------------------------|--------------------------|
--------------------------|--------------------------|--------------3--2--------|
--3--3--3--3--3--3--3--5--|--5--5--5--5--5--5--5--5--|--------------------5--3--|
--------------------------|--------------------------|--0--0--0--0--------------|


  E  E  E  E  E  E  E  E     E  E  E  E  E  E  E  E     Q.     E  E  E  S  S E   
--------------------------|--------------------------|--------------------------|
--------------------------|--------------------------|--------------------------|
--1--1--1--1--1--1--1--1--|--1--1--1--1--1--1--1--1--|--0------0--0--0--3h-5-3--|
--------------------------|--------------------------|--------------------------|


  E  E  Q    E  E  Q       E  E  E  E  E  E  E  E     E  E  E  E  E  E  E  E   
------------------------|--------------------------|--------------------------|
------------------------|--------------------------|--------------------------|
--L--3--3----3--0--3----|--5--5--5--5--5--5--5--0--|--1--1--1--1--1--1--1--1--|
------------------------|--------------------------|--------------------------|


  E  E  E  E  E  E  E  E     E  E  E  E  E  E  E  E     E  E  E  E  E  E  E  E   
--------------------------|--------------------------|--------------------------|
--3--3--3--3--3--3--3-----|--------------------------|--------------------------|
-----------------------0--|--3--3--3--3--3--3--3--0--|--5--5--5--5--5--5--5--0--|
--------------------------|--------------------------|--------------------------|


  E  E  E  E  E  E  E  E     E  E  E  E  E  E  E  E     E  E  E  E  E  E  E  E   
--------------------------|--------------------------|--------------------------|
--------------------------|--------------------------|--------------------------|
--1--1--1--1--1--1--1--0--|--------------------3--5--|--3--3--3--3--3--3--0--3--|
--------------------------|--1--1--1--5--5--5--------|--------------------------|


  E  E  E  E  E  E  E  E     E  E  E  E  E  E  E  E     E  E  E  E  E  E  E  E   
--------------------------|--------------------------|--------------------------|
--------------------2--3--|--------------------------|--3--3--3--3--3--3--3-----|
--5--5--5--5--5--5--------|--1--1--1--1--1--1--1--0--|-----------------------3--|
--------------------------|--------------------------|--------------------------|


  E  E  E  E  E  E  E  E     W                   W                   E  E  E  E  E  E  E  E   
--------------------------|-------------------|-------------------|--------------------------|
--------------------------|-------------------|-------------------|--------------------------|
--3--3--3--3--3--3--3-----|--1----------------|--L----------------|--5--5--5--5--5--5--5--5--|
-----------------------3--|-------------------|-------------------|--------------------------|


  E  E  E  E  E  E  E  E     E  E  E  E  E  E  E  E     E  E  E  E  E  E  E  E   
--------------------------|--------------------------|--------------------------|
--------------3--3--2--3--|--------------------------|--------------3--3--2--3--|
--5--5--5--5--------------|--1--1--1--1--1--1--1--1--|--1--1--1--1--------------|
--------------------------|--------------------------|--------------------------|


  E  E  E  E  E  E  E  E     E  E  E  E  E  E  E  E     E  E  E  E  E  E  E  E   
--------------------------|--------------------------|--------------------------|
--------------------------|--------------3--3--2--3--|--------------------------|
--5--5--5--5--5--5--5--5--|--5--5--5--5--------------|--1--1--1--1--1--1--1--1--|
--------------------------|--------------------------|--------------------------|


  E  E  E  E  E  E  E  E     E  E  E  E  E  E  E  E     E  E  E  E  E  E  E  E   
-----3--2-----------------|--------------------------|--------------------------|
-----------5--3--2--------|-----------3--------------|--------------------------|
--1-----------------5--3--|--1--1--1--1--1--1--1--3--|--3--3--3--3--3--3--3--5--|
--------------------------|--------------------------|--------------------------|


  E  E  E  E  E  E  E  E     E  E  E  E  E  E  E  E     E  E  E  E  E  E  E  E   
--------------------------|--------------------------|--------------------------|
--------------------------|--------------3--2--------|--------------------------|
--5--5--5--5--5--5--5--5--|--------------------5--3--|--1--1--1--1--1--1--1--1--|
--------------------------|--0--0--0--0--------------|--------------------------|


  E  E  E  E  E  E  E  E     Q.     E  E  E  S  S E     E  E  S S E  E  E  Q     
--------------------------|--------------------------|--------------------------|
--------------------------|--------------------------|--------------------------|
--1--1--1--1--1--1--1--1--|--0------0--0--0--3h-5-3--|--L--5--3-5-3--L--0--3----|
--------------------------|--------------------------|--------------------------|


  E  E  E  E  E  E  E  E     E  E  E  E  E  E  E  E     E  E  E  E  E  E  E  E   
--------------------------|--------------------------|--------------------------|
--------------------------|--------------------------|--3--3--3--3--3--3--3-----|
--5--5--5--5--5--5--5--0--|--1--1--1--1--1--1--1--0--|-----------------------0--|
--------------------------|--------------------------|--------------------------|


  E  E  E  E  E  E  E  E     E  E  E  E  E  E  E  E     E  E  E  E  E  E  E  E   
--------------------------|--------------------------|--------------------------|
--------------------------|--------------------------|--------------------------|
--3--3--3--3--3--3--3--0--|--5--5--5--5--5--5--5--0--|--1--1--1--1--1--1--1--0--|
--------------------------|--------------------------|--------------------------|


  E  E  E  E  E  E  E  E     E  E  E  E  E  E  E  E     E  E  E  E  E  E  E  E   
--------------------------|--------------------------|--------------------------|
--------------------------|-----------------------2--|--------------------2--3--|
--------------------------|--3--3--3--3--0--3--5-----|--5--5--5--5--5--5--------|
--1--1--1--1--1--1--1--3--|--------------------------|--------------------------|


  E  E  E  E  E  E  E  E     E  E  E  E  E  E  E  E     E  E  E  E  E  E  E  E   
--------------------------|--------------------------|--------------------------|
--------------------------|--3--3--3--3--3--3--3-----|--------------------------|
--1--1--1--1--1--1--1--0--|-----------------------3--|--3--3--3--3--3--3--0--3--|
--------------------------|--------------------------|--------------------------|


  E  E  E  E  E  E  E  E     E  E  E  E  E  E  E  E     E  E  E  E  E  E  E  E   
--------------------------|--------------------------|--------------------------|
--------------------------|--------------------------|--------------------------|
--5--5--5--5--5--5--5--3--|--1--1--1--0--0--1--------|--------------------------|
--------------------------|--------------------3--1--|--1--1--1--1--1--1--1--3--|


  E  E  E  E  E  E  E  E     E  E  E  E  E  E  E  E     E  E  E  E  E  E  E  E   
--------------------------|--------------------------|--------------------------|
--------------------------|-----------2--2--2--3--5--|--------------------------|
--3--3--3--3--3--3--0--3--|--5--5--5-----------------|--1--1--1--1--1--1--1--0--|
--------------------------|--------------------------|--------------------------|


  E  E  E  E  E  E  E  E     E  E  E  E  E  E  E  E     E  E  E  E  E  E  E  E   
--------------------------|--------------------------|--------------------------|
--3--3--3--3--3--3--3-----|--------------------------|--------------------------|
-----------------------0--|--3--3--3--3--3--3--0--3--|--5--5--5--5--5--0--5--3--|
--------------------------|--------------------------|--------------------------|


  E  E  E  E  E  E  E  E     E  E  E  E  E  E  E  E     E  E  E  E  E  E  E  E   
--------------------------|--------------------------|--------------------------|
--------------------------|--------------------------|--------------------------|
--1--1--1--1--1--1--1--0--|--------------------------|--3--3--3--3--3--3--0--3--|
--------------------------|--1--1--1--1--1--1--1--3--|--------------------------|


  E  E  E  E  E  E  E  E     E  E  E  E  E  E  E  E     E  E  E  E  E  E  E  E   
--------------------------|--------------------------|--------------------------|
--------------------------|--------------------------|--3--3--3--5--5--5--5--3--|
--5--5--5--5--5--0--5--3--|--1--1--1--1--1--1--1--0--|--------------------------|
--------------------------|--------------------------|--------------------------|


  E  E  E  E  E  E  E  E     E  E  E  E  E  E  E  E     E  E  E  E  E  E  E  E   
--------------------------|--------------------------|--------------------------|
-----------2--5--3--2-----|--------------------------|--------------------------|
--3--3--3--------------3--|--5--5--5--5--5--5--5--3--|--1--1--1--1--1--1--1--0--|
--------------------------|--------------------------|--------------------------|


  E  E  E  E  E  E  E  E     E  E  E  E  E  E  E  E    
--------------------------|--------------------------||
--3--3--3--3--3--3--5--3--|--------------------------||
--------------------------|--3--3--3--0--3--0--------||
--------------------------|--------------------3--0--||




Duration Legend
---------------
W - whole
H - half
Q - quarter
E - 8th
S - 16th
T - 32nd
X - 64th
. - note dotted
|-n-|  - n-tuplets


Tablature Legend
----------------
L - tied note
x - dead note
g - grace note
(n) - ghost note
> - accentuded note
NH - natural harmonic
AH - artificial harmonic
TH - tapped harmonic
SH - semi harmonic
PH - pitch harmonic
h - hammer on
p - pull off
b - bend
br - bendRelease
pb - preBend
pbr - preBendRelease
brb - bendReleaseBend
\n/ - tremolo bar dip
\n - tremolo bar dive
-/n - tremolo bar Release up
/n\ - tremolo bar inverted dip
/n - tremolo bar return
-\n - tremolo bar Release down
S - shift slide
s - legato slide
/ -  slide into from below or out of upwards
\ -  slide into from above or out of downwards
~ - vibrato
W - wide vibrato
tr - trill
TP - tremolo picking
T - tapping
S - slap
P - pop
< - fade in
^ - brush up
v - brush down
comments
We did not receive enough feedback on this tab! Please rate:
print report bad tab
1 2 3 4 5
I want to post or [tab]
guest
You may want to rate the tab now too:
select rating
Please do not post tabs as comments. Select "correction" instead!