Oops, an error
Loading. Please wait.

Hot Cherie Tab

7,360 views 18 this week
no commentswrite comment
1 2 3 4 5
accurate
x 1
Autoscroll
+/-
esc
set tempo
stop
Contributor
Difficulty
Tabbers playing skills
intermediate
advanced ++
WARNING: You are trying to view
                                    content from Ultimate-Guitar.com
                                    in an unauthorized application,
                                    which is prohibited.

                                    Please use an official Ultimate
                                    Guitar Tabs application for iPhone,
                                    iPad or Android to access legitimate
                                    chords, guitar, bass, and drum tabs
                                    from Ultimate-Guitar.com database.

                                    Type "ultimate guitar tabs" in Apple
                                    App Store's or Android Market's
                                    search to find the application.
-------------------------------------------------------------------------------
                             HOT CHERIE - Hardline
-------------------------------------------------------------------------------
Tabbed by: Isaias Garcia (TexasFury)

Tuning: Standard


Rhythm Guitar

     W                   W                   W                   W                 
E||-------------------|-------------------|-------------------|-------------------|
B||-------------------|-------------------|-------------------|-------------------|
G||-------------------|-------------------|-------------------|-------------------|
D||-------------------|-------------------|-------------------|-------------------|
A||-------------------|-------------------|-------------------|-------------------|
E||-------------------|-------------------|-------------------|-------------------|


  W                   W                   W                   W                   W                 
-------------------|-------------------|-------------------|-------------------|-------------------|
-------------------|-------------------|-------------------|-------------------|-------------------|
-------------------|-------------------|-------------------|-------------------|-------------------|
-------------------|-------------------|-------------------|-------------------|-------------------|
-------------------|-------------------|-------------------|-------------------|-------------------|
-------------------|-------------------|-------------------|-------------------|-------------------|


  W                   Q    Q    E  E  E  E     Q    Q    E  E  E  E     Q    Q    E  E  E  E   
-------------------|---------------------3--|--L------------3-----3--|--L------------3-----3--|
-------------------|---------------------3--|--L------------3-----3--|--L------------3-----3--|
-------------------|--7------------7-----0--|--L------------0-----0--|--L------------0-----0--|
-------------------|--7------------7--------|------------------------|------------------------|
-------------------|--5------------5--0--1--|--L------------1--0--2--|--L------------2--0--3--|
-------------------|------------------------|------------------------|------------------------|


  Q    E  E  E  E  E  E     Q    Q    E  E  E  E     Q    Q    E  E  E  E     W                 
--L----------------------|---------------------3--|--L------------3-----3--|--L----------------|
--L----------------------|---------------------3--|--L------------3-----3--|--L----------------|
--L----------------------|--7------------7-----0--|--L------------0-----0--|--L----------------|
----------3--L--2--------|--7------------7--------|------------------------|-------------------|
--L----------------5--3--|--5------------5--0--1--|--L------------1--0--3--|--L----------------|
-------------------------|------------------------|------------------------|-------------------|


  Q    Q    E  E  E  E     Q    Q    E  E  E  E     Q    Q    E  E  E  E   
---------------------3--|--L------------------3--|--L------------3-----3--|
---------------------3--|--L------------3-----3--|--L------------3-----3--|
--7------------7-----0--|--L------------3-----0--|--L------------0-----0--|
--7------------7--------|---------------3--------|------------------------|
--5------------5--0--1--|--L------------1--0--2--|--L------------2--0--3--|
------------------------|------------------------|------------------------|


  Q    E  E  E  E  E  E     Q    Q    E  E  E  E     Q    Q    E  E  E  E   
--L----------------------|---------------------3--|--L------------3-----3--|
--L----------------------|---------------------3--|--L------------3-----3--|
--L----------------------|--7------------7-----0--|--L------------0-----0--|
-------------------------|--7------------7--------|---------------0--------|
--L-------1--L--0--------|--5------------5--0--1--|--L------------1--0--2--|
-------------------3--1--|------------------------|------------------------|


  Q    Q    E  E  E  E     Q    E  E  E  E  E  E     Q    Q    E  E  E  E   
--L------------3-----3--|--L----------------------|---------------------3--|
--L------------3-----3--|--L----------------------|---------------------3--|
--L------------0-----0--|--L----------------------|--7------------7-----0--|
------------------------|----------3--L--2--------|--7------------7--------|
--L------------2--0--3--|--L----------------5--3--|--5------------5--0--1--|
------------------------|-------------------------|------------------------|


  Q    Q    E  E  E  E     Q    Q    E  E  E  E     Q    E  E  E  E  E  E   
--L------------------3--|--L------------3-----3--|--L----------------------|
--L------------3-----3--|--L------------3-----3--|--L----------------------|
--L------------3-----0--|--L------------0-----0--|--L----------------------|
---------------3--------|------------------------|-------------------------|
--L------------1--0--2--|--L------------2--0--3--|--L-------1--L--0--------|
------------------------|------------------------|-------------------3--1--|


  Q    Q    E  E  E  E     Q    Q    E  E  E  E     Q    Q    E  E  E  E   
---------------------3--|--L------------3-----3--|--L------------3-----3--|
---------------------3--|--L------------3-----3--|--L------------3-----3--|
--7------------7-----0--|--L------------0-----0--|--L------------0-----0--|
--7------------7--------|---------------0--------|------------------------|
--5------------5--0--1--|--L------------1--0--2--|--L------------2--0--3--|
------------------------|------------------------|------------------------|


                pick scrape                                                                
  H.            Q             H.           E  S S    W                   W                 
--L------------------------|----------------------|-------------------|-------------------|
--L------------------------|----------------------|-------------------|--6----------------|
--L------------------------|--3------------L--5-5-|--5----------------|--7----------------|
----------------x\---------|--3------------L--5-5-|--5----------------|--7----------------|
--L-------------x\---------|--1------------L--3-3-|--3----------------|--5----------------|
---------------------------|----------------------|-------------------|-------------------|


                  PM PM       PM PM    PM PM    PM    PM    PM PM             
  H.           E  S  S     E  E  E  E  E  E  E  E     E  E  E  E  Q    E  E   
------------------------|--------------------------|-------------------------|
--5------------L--------|--------------------------|-------------------------|
--5------------L--------|--3--------3--------3-----|-----3--------3----3-----|
--5------------L--------|--3--------3--------3-----|-----3--------3----3-----|
--3------------L--1--1--|--1--1--1--1--1--1--1--1--|--1--1--1--1--1----1--0--|
------------------------|--------------------------|-------------------------|


                                                  PM PM    PM PM    PM PM  
  H.           S  S  E     W                   E  E  E  E  E  E  E  S  S   
------------------------|-------------------|-----------------------------|
------------------------|-------------------|--3--------3--------3--------|
--2------------5h-7p-5--|--L----------------|--2--------2--------2--------|
--2------------5h-7p-5--|--L----------------|--0--0--0--0--0--0--0--------|
--0---------------------|-------------------|--------------------0--0--0--|
------------------------|-------------------|-----------------------------|


     PM PM    PM PM    PM       PM PM    PM PM    PM       PM PM    PM PM       
  E  E  E  E  E  E  E  E     E  E  E  E  E  E  E  E     E  E  E  E  E  E  Q     
--------------------------|--------------------------|-------------------------|
--------------------------|--6--------6--------6-----|-------------------------|
--3--------3--------3-----|--5--------5--------5-----|--5--------5--------5----|
--3--------3--------3-----|--3--3--3--3--3--3--3--3--|--5--------5--------5----|
--1--1--1--1--1--1--1--1--|--------------------------|-----3--3-----3--3-------|
--------------------------|--------------------------|-------------------------|


     PM PM    PM PM    PM PM       PM PM    PM PM    PM       PM PM    PM PM    PM  
  E  E  E  E  E  E  E  S  S     E  E  E  E  E  E  E  E     E  E  E  E  E  E  E  E   
-----------------------------|--------------------------|--------------------------|
--3--------3--------3--------|--------------------------|--6--------6--------6-----|
--2--------2--------2--------|--3--------3--------3-----|--5--------5--------5-----|
--0--0--0--0--0--0--0--------|--3--------3--------3-----|--3--3--3--3--3--3--3--3--|
-----------------------0--0--|--1--1--1--1--1--1--1--1--|--------------------------|
-----------------------------|--------------------------|--------------------------|


     PM PM    PM PM            PM PM    PM PM    PM PM       PM PM    PM PM    PM  
  E  E  E  E  E  E  Q       E  E  E  E  E  E  E  S  S     E  E  E  E  E  E  E  E   
-------------------------|-----------------------------|--------------------------|
-------------------------|--3--------3--------3--------|--------------------------|
--5--------5--------5----|--2--------2--------2--------|--3--------3--------3-----|
--5--------5--------5----|--0--0--0--0--0--0--0--------|--3--------3--------3-----|
--3--3--3--3--3--3--3----|-----------------------0--0--|--1--1--1--1--1--1--1--1--|
-------------------------|-----------------------------|--------------------------|


                                PM PM                                                        
  E  E  E  E  E  E  E  E     E  E  E  E  E  E  Q       W                   W                 
--------------------------|-------------------------|-------------------|-------------------|
--6--------6--L--6--6-----|-------------------------|-------------------|-------------------|
--5--------5--L--5--5-----|--5--------5--L--5--5----|--3----------------|--L----------------|
--3--3--3--3--L--3--3--3--|--5--------5--L--5--5----|--3----------------|--L----------------|
--------------------------|--3--3--3--3--L--3--3----|--1----------------|--L----------------|
--------------------------|-------------------------|-------------------|-------------------|


     PM PM    PM PM    PM       PM PM    PM PM            PM PM    PM PM        
  E  E  E  E  E  E  E  E     E  E  E  E  E  E  Q       E  E  E  E  E  E  E  E   
--------------------------|--3--------3--------3----|--3--------3--------3--3--|
--3--------3--------3-----|--3--------3--------3----|--3--------3--------0--0--|
--2--------2--------2-----|--0--------0--------0----|--0--------0--------0--0--|
--0--0--0--0--0--0--0--0--|-------------------------|--------------------------|
--------------------------|-----1--1-----1--1-------|-----2--2-----2--2--------|
--------------------------|-------------------------|--------------------------|


  H        E  E  E  E     Q    Q    E  E  E  E     Q    Q    E  E  E  E     Q    Q    E  E  E  E   
--3--------------------|---------------------3--|--L------------3-----3--|--L------------3-----3--|
--3--------------------|---------------------3--|--L------------3-----3--|--L------------3-----3--|
--0--------------------|--7------------7-----0--|--L------------0-----0--|--L------------0-----0--|
-----------------------|--7------------7--------|------------------------|------------------------|
--3--------1--0--------|--5------------5--0--1--|--L------------1--0--2--|--L------------2--0--3--|
-----------------3--1--|------------------------|------------------------|------------------------|


                   PM PM                                                    
  Q    E  E  E  E  E  E     Q    Q    E  E  E  E     Q    Q    E  E  E  E   
--L----------------------|---------------------3--|--L------------3-----3--|
--L----------------------|---------------------3--|--L------------3-----3--|
--L----------------------|--7------------7-----0--|--L------------0-----0--|
----------3--L--2--------|--7------------7--------|------------------------|
--L----------------5--3--|--5------------5--0--1--|--L------------1--0--2--|
-------------------------|------------------------|------------------------|


  Q    Q    E  E  E  E     Q    E  E  E  E  E  E     Q    Q    E  E  E  E   
--L------------3-----3--|--L----------------------|---------------------3--|
--L------------3-----3--|--L----------------------|---------------------3--|
--L------------0-----0--|--L----------------------|--7------------7-----0--|
------------------------|-------------------------|--7------------7--------|
--L------------2--0--3--|--L-------1--L--0--------|--5------------5--0--1--|
------------------------|-------------------3--1--|------------------------|


                                                                     PM PM  
  Q    Q    E  E  E  E     Q    Q    E  E  E  E     Q    E  E  E  E  E  E   
--L------------3-----3--|--L------------3-----3--|--L----------------------|
--L------------3-----3--|--L------------3-----3--|--L----------------------|
--L------------0-----0--|--L------------0-----0--|--L----------------------|
------------------------|------------------------|----------3--L--2--------|
--L------------1--0--2--|--L------------2--0--3--|--L----------------5--3--|
------------------------|------------------------|-------------------------|


  Q    Q    E  E  E  E     Q    Q    E  E  E  E     Q    Q    E  E  E  E   
---------------------3--|--L------------3-----3--|--L------------3-----3--|
---------------------3--|--L------------3-----3--|--L------------3-----3--|
--7------------7-----0--|--L------------0-----0--|--L------------0-----0--|
--7------------7--------|---------------0--------|------------------------|
--5------------5--0--1--|--L------------1--0--2--|--L------------2--0--3--|
------------------------|------------------------|------------------------|


                pick scrape                                                                
  H.            Q             H.           E  S S    W                   W                 
--L------------------------|----------------------|-------------------|-------------------|
--L------------------------|----------------------|-------------------|--6----------------|
--L------------------------|--3------------L--5-5-|--5----------------|--7----------------|
----------------x\---------|--3------------L--5-5-|--5----------------|--7----------------|
--L-------------x\---------|--1------------L--3-3-|--3----------------|--5----------------|
---------------------------|----------------------|-------------------|-------------------|


                  PM PM       PM PM    PM PM    PM    PM    PM PM             
  H.           E  S  S     E  E  E  E  E  E  E  E     E  E  E  E  Q    E  E   
------------------------|--------------------------|-------------------------|
--5------------L--------|--------------------------|-------------------------|
--5------------L--------|--3--------3--------3-----|-----3--------3----3-----|
--5------------L--------|--3--------3--------3-----|-----3--------3----3-----|
--3------------L--1--1--|--1--1--1--1--1--1--1--1--|--1--1--1--1--1----1--0--|
------------------------|--------------------------|-------------------------|


                                                  PM PM    PM PM    PM       PM PM    PM PM    PM  
  H.           S  S  E     W                   E  E  E  E  E  E  E  E     E  E  E  E  E  E  E  E   
------------------------|-------------------|--------------------------|--------------------------|
------------------------|-------------------|--3--------3--------3-----|--------------------------|
--2------------5h-7p-5--|--L----------------|--2--------2--------2-----|--3--------3--------3-----|
--2------------5h-7p-5--|--L----------------|--0--0--0--0--0--0--0-----|--3--------3--------3-----|
--0---------------------|-------------------|-----------------------0--|--1--1--1--1--1--1--1--1--|
------------------------|-------------------|--------------------------|--------------------------|


     PM PM    PM PM              PM PM    PM PM            PM PM    PM PM    PM  
  E  E  E  E  E  E  E  S S    E  E  E  E  E  E  Q       E  E  E  E  E  E  E  E   
---------------------------|-------------------------|--------------------------|
--6--------6--------6------|-------------------------|--3--------3--------3-----|
--5--------5--------5------|--5--------5--------5----|--2--------2--------2-----|
--3--3--3--3--3--3--3--5-5-|--5--------5--------5----|--0--0--0--0--0--0--0-----|
-----------------------3-3-|--3--3--3--3--3--3--3----|-----------------------0--|
---------------------------|-------------------------|--------------------------|


     PM PM    PM PM    PM       PM PM    PM PM              PM PM    PM PM       
  E  E  E  E  E  E  E  E     E  E  E  E  E  E  E  S S    E  E  E  E  E  E  Q     
--------------------------|---------------------------|-------------------------|
--------------------------|--6--------6--------6------|-------------------------|
--3--------3--------3-----|--5--------5--------5------|--5--------5--------5----|
--3--------3--------3-----|--3--3--3--3--3--3--3--5-5-|--5--------5--------5----|
--1--1--1--1--1--1--1--1--|-----------------------3-3-|--3--3--3--3--3--3--3----|
--------------------------|---------------------------|-------------------------|


     PM PM    PM PM    PM       PM PM    PM PM    PM       PM PM    PM PM    PM  
  E  E  E  E  E  E  E  E     E  E  E  E  E  E  E  E     E  E  E  E  E  E  E  E   
--------------------------|--------------------------|--------------------------|
--3--------3--------3-----|--------------------------|--6--------6--------6-----|
--2--------2--------2-----|--3--------3--------3-----|--5--------5--------5-----|
--0--0--0--0--0--0--0-----|--3--------3--------3-----|--3--3--3--3--3--3--3--3--|
-----------------------0--|--1--1--1--1--1--1--1--1--|--------------------------|
--------------------------|--------------------------|--------------------------|


     PM PM    PM PM                                                    PM PM    PM PM    PM  
  E  E  E  E  E  E  Q       W                   W                   E  E  E  E  E  E  E  E   
-------------------------|-------------------|-------------------|--------------------------|
-------------------------|-------------------|-------------------|--3--------3--------3-----|
--5--------5--------5----|--3----------------|--L----------------|--2--------2--------2-----|
--5--------5--------5----|--3----------------|--L----------------|--0--0--0--0--0--0--0--0--|
--3--3--3--3--3--3--3----|--1----------------|--L----------------|--------------------------|
-------------------------|-------------------|-------------------|--------------------------|


  PM                            PM PM    PM PM    PM    PM    PM PM              
  E  E  E  E  E  E  E  E     E  E  E  E  E  E  E  E     E  E  E  E  E  E  E  E   
--------------------------|--------------------------|--------------------------|
-----3--L-----------------|--------------------------|--------------------------|
-----2--L-----------------|--3--------3--------3-----|-----3--------------------|
--0--0--L--0--3--3--2--3--|--3--------3--------3-----|-----3--------3--3--2--3--|
--------------------------|--1--1--1--1--1--1--1--1--|--1--1--1--1--------------|
--------------------------|--------------------------|--------------------------|


     PM PM    PM PM    PM    PM                            PM PM    PM PM    PM  
  E  E  E  E  E  E  E  E     E  E  E  E  E  E  E  E     E  E  E  E  E  E  E  E   
--------------------------|--------------------------|--------------------------|
--3--------3--------3-----|-----3--L-----------------|--------------------------|
--2--------2--------2-----|-----2--L-----------------|--3--------3--------3-----|
--0--0--0--0--0--0--0--0--|--0--0--L--0--3--3--2--3--|--3--------3--------3-----|
--------------------------|--------------------------|--1--1--1--1--1--1--1--1--|
--------------------------|--------------------------|--------------------------|


  PM                                                                                      
  E  E  E  E  E  E  E  E     H.           E  S S    W                   W                 
--------------------------|----------------------|-------------------|-------------------|
--------------------------|----------------------|-------------------|--6----------------|
-----3--2-----------------|--3------------L--5-5-|--5----------------|--7----------------|
-----------5--3--2--------|--3------------L--5-5-|--5----------------|--7----------------|
--1-----------------5--3--|--1------------L--3-3-|--3----------------|--5----------------|
--------------------------|----------------------|-------------------|-------------------|


                  PM       PM PM    PM PM    PM    PM    PM PM                                     
  H.           E  E     E  E  E  E  E  E  E  E     E  E  E  E  Q    Q       H.           S  S  E   
---------------------|--------------------------|------------------------|------------------------|
--5------------L-----|--------------------------|------------------------|------------------------|
--5------------L-----|--3--------3--------3-----|-----3--------3----3----|--2------------5h-7p-5--|
--5------------L-----|--3--------3--------3-----|-----3--------3----3----|--2------------5h-7p-5--|
--3------------L--1--|--1--1--1--1--1--1--1--1--|--1--1--1--1--1----1----|--0---------------------|
---------------------|--------------------------|------------------------|------------------------|


                                PM PM    PM PM    PM       PM PM    PM PM    PM  
  E  E  S  S  E  H           E  E  E  E  E  E  E  E     E  E  E  E  E  E  E  E   
--------------------------|--------------------------|--------------------------|
--------------------------|--3--------3--------3-----|--------------------------|
--L--7--5h-7p-5--L--------|--2--------2--------2-----|--3--------3--------3-----|
--L--7--5h-7p-5--L--------|--0--0--0--0--0--0--0-----|--3--------3--------3-----|
--------------------------|-----------------------0--|--1--1--1--1--1--1--1--1--|
--------------------------|--------------------------|--------------------------|


     PM PM    PM PM              PM PM    PM PM            PM PM    PM PM    PM  
  E  E  E  E  E  E  E  S S    E  E  E  E  E  E  Q       E  E  E  E  E  E  E  E   
---------------------------|-------------------------|--------------------------|
--6--------6--------6------|-------------------------|--3--------3--------3-----|
--5--------5--------5------|--5--------5--------5----|--2--------2--------2-----|
--3--3--3--3--3--3--3--5-5-|--5--------5--------5----|--0--0--0--0--0--0--0-----|
-----------------------3-3-|--3--3--3--3--3--3--3----|-----------------------0--|
---------------------------|-------------------------|--------------------------|


     PM PM    PM PM    PM       PM PM    PM PM              PM PM    PM PM       
  E  E  E  E  E  E  E  E     E  E  E  E  E  E  E  S S    E  E  E  E  E  E  Q     
--------------------------|---------------------------|-------------------------|
--------------------------|--6--------6--------6------|-------------------------|
--3--------3--------3-----|--5--------5--------5------|--5--------5--------5----|
--3--------3--------3-----|--3--3--3--3--3--3--3--5-5-|--5--------5--------5----|
--1--1--1--1--1--1--1--1--|-----------------------3-3-|--3--3--3--3--3--3--3----|
--------------------------|---------------------------|-------------------------|


     PM PM    PM PM    PM       PM PM    PM PM    PM       PM PM    PM PM         
  E  E  E  E  E  E  E  E     E  E  E  E  E  E  E  E     E  E  E  E  E  E  E  S S  
--------------------------|--------------------------|---------------------------|
--3--------3--------3-----|--------------------------|--6--------6--------6------|
--2--------2--------2-----|--3--------3--------3-----|--5--------5--------5------|
--0--0--0--0--0--0--0-----|--3--------3--------3-----|--3--3--3--3--3--3--3--5-5-|
-----------------------0--|--1--1--1--1--1--1--1--1--|-----------------------3-3-|
--------------------------|--------------------------|---------------------------|


     PM PM    PM PM            PM PM    PM PM    PM       PM PM    PM PM    PM  
  E  E  E  E  E  E  Q       E  E  E  E  E  E  E  E     E  E  E  E  E  E  E  E   
-------------------------|--------------------------|--------------------------|
-------------------------|--3--------3--------3-----|--------------------------|
--5--------5--------5----|--2--------2--------2-----|--3--------3--------3-----|
--5--------5--------5----|--0--0--0--0--0--0--0-----|--3--------3--------3-----|
--3--3--3--3--3--3--3----|-----------------------0--|--1--1--1--1--1--1--1--1--|
-------------------------|--------------------------|--------------------------|


     PM PM    PM PM              PM PM    PM PM            PM PM    PM PM    PM  
  E  E  E  E  E  E  E  S S    E  E  E  E  E  E  Q       E  E  E  E  E  E  E  E   
---------------------------|-------------------------|--------------------------|
--6--------6--------6------|-------------------------|--3--------3--------3-----|
--5--------5--------5------|--5--------5--------5----|--2--------2--------2-----|
--3--3--3--3--3--3--3--5-5-|--5--------5--------5----|--0--0--0--0--0--0--0-----|
-----------------------3-3-|--3--3--3--3--3--3--3----|-----------------------0--|
---------------------------|-------------------------|--------------------------|


     PM PM    PM PM    PM       PM PM    PM PM              PM PM    PM PM       
  E  E  E  E  E  E  E  E     E  E  E  E  E  E  E  S S    E  E  E  E  E  E  Q     
--------------------------|---------------------------|-------------------------|
--------------------------|--6--------6--------6------|-------------------------|
--3--------3--------3-----|--5--------5--------5------|--5--------5--------5----|
--3--------3--------3-----|--3--3--3--3--3--3--3--5-5-|--5--------5--------5----|
--1--1--1--1--1--1--1--1--|-----------------------3-3-|--3--3--3--3--3--3--3----|
--------------------------|---------------------------|-------------------------|


     PM PM    PM PM    PM       PM PM    PM PM    PM       PM PM    PM PM         
  E  E  E  E  E  E  E  E     E  E  E  E  E  E  E  E     E  E  E  E  E  E  E  S S  
--------------------------|--------------------------|---------------------------|
--3--------3--------3-----|--------------------------|--6--------6--------6------|
--2--------2--------2-----|--3--------3--------3-----|--5--------5--------5------|
--0--0--0--0--0--0--0-----|--3--------3--------3-----|--3--3--3--3--3--3--3--5-5-|
-----------------------0--|--1--1--1--1--1--1--1--1--|-----------------------3-3-|
--------------------------|--------------------------|---------------------------|


     PM PM    PM PM            PM PM    PM PM    PM       PM PM    PM PM    PM  
  E  E  E  E  E  E  Q       E  E  E  E  E  E  E  E     E  E  E  E  E  E  E  E   
-------------------------|--------------------------|--------------------------|
-------------------------|--3--------3--------3-----|--------------------------|
--5--------5--------5----|--2--------2--------2-----|--3--------3--------3-----|
--5--------5--------5----|--0--0--0--0--0--0--0-----|--3--------3--------3-----|
--3--3--3--3--3--3--3----|-----------------------0--|--1--1--1--1--1--1--1--1--|
-------------------------|--------------------------|--------------------------|


     PM PM    PM PM              PM PM    PM PM            PM PM    PM PM    PM  
  E  E  E  E  E  E  E  S S    E  E  E  E  E  E  Q       E  E  E  E  E  E  E  E   
---------------------------|-------------------------|--------------------------|
--6--------6--------6------|-------------------------|--3--------3--------3-----|
--5--------5--------5------|--5--------5--------5----|--2--------2--------2-----|
--3--3--3--3--3--3--3--5-5-|--5--------5--------5----|--0--0--0--0--0--0--0-----|
-----------------------3-3-|--3--3--3--3--3--3--3----|-----------------------0--|
---------------------------|-------------------------|--------------------------|


     PM PM    PM PM    PM       PM PM    PM PM              PM PM    PM PM        
  E  E  E  E  E  E  E  E     E  E  E  E  E  E  E  S S    E  E  E  E  E  E  Q      
--------------------------|---------------------------|-------------------------||
--------------------------|--6--------6--------6------|-------------------------||
--3--------3--------3-----|--5--------5--------5------|--5--------5--------5----||
--3--------3--------3-----|--3--3--3--3--3--3--3--5-5-|--5--------5--------5----||
--1--1--1--1--1--1--1--1--|-----------------------3-3-|--3--3--3--3--3--3--3----||
--------------------------|---------------------------|-------------------------||



Lead Guitar

     W                   W                   W                   W                 
E||-------------------|-------------------|-------------------|-------------------|
B||-------------------|-------------------|-------------------|-------------------|
G||-------------------|-------------------|-------------------|-------------------|
D||-------------------|-------------------|-------------------|-------------------|
A||-------------------|-------------------|-------------------|-------------------|
E||-------------------|-------------------|-------------------|-------------------|


  W                   W                   W                   W                   W                 
-------------------|-------------------|-------------------|-------------------|-------------------|
-------------------|-------------------|-------------------|-------------------|-------------------|
-------------------|-------------------|-------------------|-------------------|-------------------|
-------------------|-------------------|-------------------|-------------------|-------------------|
-------------------|-------------------|-------------------|-------------------|-------------------|
-------------------|-------------------|-------------------|-------------------|-------------------|


  W                   W                   W                   W                   W                 
-------------------|-------------------|-------------------|-------------------|-------------------|
-------------------|-------------------|-------------------|-------------------|-------------------|
-------------------|-------------------|-------------------|-------------------|-------------------|
-------------------|-------------------|-------------------|-------------------|-------------------|
-------------------|-------------------|-------------------|-------------------|-------------------|
-------------------|-------------------|-------------------|-------------------|-------------------|


  W                   W                   W                   Q     Q    H         
-------------------|-------------------|-------------------|----------------------|
-------------------|-------------------|-------------------|----------------------|
-------------------|-------------------|-------------------|--7\------------------|
-------------------|-------------------|-------------------|--7\------------------|
-------------------|-------------------|-------------------|--5\------------------|
-------------------|-------------------|-------------------|----------------------|


  W                   W                   W                   W                   W                 
-------------------|-------------------|-------------------|-------------------|-------------------|
-------------------|-------------------|-------------------|-------------------|-------------------|
-------------------|-------------------|-------------------|-------------------|-------------------|
-------------------|-------------------|-------------------|-------------------|-------------------|
-------------------|-------------------|-------------------|-------------------|-------------------|
-------------------|-------------------|-------------------|-------------------|-------------------|


  W                   W                   W                   W                   W                 
-------------------|-------------------|-------------------|-------------------|-------------------|
-------------------|-------------------|-------------------|-------------------|-------------------|
-------------------|-------------------|-------------------|-------------------|-------------------|
-------------------|-------------------|-------------------|-------------------|-------------------|
-------------------|-------------------|-------------------|-------------------|-------------------|
-------------------|-------------------|-------------------|-------------------|-------------------|


  W                   W                   W                   W                   W                 
-------------------|-------------------|-------------------|-------------------|-------------------|
-------------------|-------------------|-------------------|-------------------|-------------------|
-------------------|-------------------|-------------------|-------------------|-------------------|
-------------------|-------------------|-------------------|-------------------|-------------------|
-------------------|-------------------|-------------------|-------------------|-------------------|
-------------------|-------------------|-------------------|-------------------|-------------------|


  W                   W                   W                   W                   W                 
-------------------|-------------------|-------------------|-------------------|-------------------|
-------------------|-------------------|-------------------|-------------------|-------------------|
-------------------|-------------------|-------------------|-------------------|-------------------|
-------------------|-------------------|-------------------|-------------------|-------------------|
-------------------|-------------------|-------------------|-------------------|-------------------|
-------------------|-------------------|-------------------|-------------------|-------------------|


  W                   W                   W                   W                   W                 
-------------------|-------------------|-------------------|-------------------|-------------------|
-------------------|-------------------|-------------------|-------------------|-------------------|
-------------------|-------------------|-------------------|-------------------|-------------------|
-------------------|-------------------|-------------------|-------------------|-------------------|
-------------------|-------------------|-------------------|-------------------|-------------------|
-------------------|-------------------|-------------------|-------------------|-------------------|


  W                   W                   W                   W                   W                 
-------------------|-------------------|-------------------|-------------------|-------------------|
-------------------|-------------------|-------------------|-------------------|-------------------|
-------------------|-------------------|-------------------|-------------------|-------------------|
-------------------|-------------------|-------------------|-------------------|-------------------|
-------------------|-------------------|-------------------|-------------------|-------------------|
-------------------|-------------------|-------------------|-------------------|-------------------|


  W                   W                   W                   W                   W                 
-------------------|-------------------|-------------------|-------------------|-------------------|
-------------------|-------------------|-------------------|-------------------|-------------------|
-------------------|-------------------|-------------------|-------------------|-------------------|
-------------------|-------------------|-------------------|-------------------|-------------------|
-------------------|-------------------|-------------------|-------------------|-------------------|
-------------------|-------------------|-------------------|-------------------|-------------------|


                                                      |-3-|                   
  W                   W                    H          E   S  S  S  S   S  E   
-------------------|-------------------|-------------10----------------------|
-------------------|-------------------|--13b------------13----10------------|
-------------------|-------------------|--------------------12----12p-10-----|
-------------------|-------------------|---------------------------------12--|
-------------------|-------------------|-------------------------------------|
-------------------|-------------------|-------------------------------------|


                                     |---3---|            |---3--|  |--3--|  |---3---|        
   Q      E.    S  E   E    Q        E   E   E   E   E    S   S  S  S  S  S  S   S   S  S  S  
----------------------13b---L----|--13--12--10--12--12b--10h-12-10----10---------------------|
---------------------------------|---------------------------------13----13-10h-13p-10-------|
---------10b----Lb---------------|-----------------------------------------------------12-10-|
--12~----------------------------|-----------------------------------------------------------|
---------------------------------|-----------------------------------------------------------|
---------------------------------|-----------------------------------------------------------|


   E    S  S  H.               Q     Q    H           W                   W                 
----------------------------|----------------------|-------------------|-------------------|
-------10-------------------|----------------------|-------------------|-------------------|
--12b-----12--L~------------|--7\------------------|-------------------|-------------------|
----------------------------|--7\------------------|-------------------|-------------------|
----------------------------|--5\------------------|-------------------|-------------------|
----------------------------|----------------------|-------------------|-------------------|


  W                   W                   W                   W                   W                 
-------------------|-------------------|-------------------|-------------------|-------------------|
-------------------|-------------------|-------------------|-------------------|-------------------|
-------------------|-------------------|-------------------|-------------------|-------------------|
-------------------|-------------------|-------------------|-------------------|-------------------|
-------------------|-------------------|-------------------|-------------------|-------------------|
-------------------|-------------------|-------------------|-------------------|-------------------|


  W                   W                   W                   W                   W                 
-------------------|-------------------|-------------------|-------------------|-------------------|
-------------------|-------------------|-------------------|-------------------|-------------------|
-------------------|-------------------|-------------------|-------------------|-------------------|
-------------------|-------------------|-------------------|-------------------|-------------------|
-------------------|-------------------|-------------------|-------------------|-------------------|
-------------------|-------------------|-------------------|-------------------|-------------------|


  W                   W                   W                   W                   W                 
-------------------|-------------------|-------------------|-------------------|-------------------|
-------------------|-------------------|-------------------|-------------------|-------------------|
-------------------|-------------------|-------------------|-------------------|-------------------|
-------------------|-------------------|-------------------|-------------------|-------------------|
-------------------|-------------------|-------------------|-------------------|-------------------|
-------------------|-------------------|-------------------|-------------------|-------------------|


  W                   W                   W                   W                   W                 
-------------------|-------------------|-------------------|-------------------|-------------------|
-------------------|-------------------|-------------------|-------------------|-------------------|
-------------------|-------------------|-------------------|-------------------|-------------------|
-------------------|-------------------|-------------------|-------------------|-------------------|
-------------------|-------------------|-------------------|-------------------|-------------------|
-------------------|-------------------|-------------------|-------------------|-------------------|


  W                   W                   W                   W                   W                 
-------------------|-------------------|-------------------|-------------------|-------------------|
-------------------|-------------------|-------------------|-------------------|-------------------|
-------------------|-------------------|-------------------|-------------------|-------------------|
-------------------|-------------------|-------------------|-------------------|-------------------|
-------------------|-------------------|-------------------|-------------------|-------------------|
-------------------|-------------------|-------------------|-------------------|-------------------|


  W                   W                   W                   W                   W                 
-------------------|-------------------|-------------------|-------------------|-------------------|
-------------------|-------------------|-------------------|-------------------|-------------------|
-------------------|-------------------|-------------------|-------------------|-------------------|
-------------------|-------------------|-------------------|-------------------|-------------------|
-------------------|-------------------|-------------------|-------------------|-------------------|
-------------------|-------------------|-------------------|-------------------|-------------------|


  W                   W                   W                   H        E   E    Q     
-------------------|-------------------|-------------------|--------------24b---L----|
-------------------|-------------------|-------------------|-------------------------|
-------------------|-------------------|-------------------|-------------------------|
-------------------|-------------------|-------------------|-------------------------|
-------------------|-------------------|-------------------|-------------------------|
-------------------|-------------------|-------------------|-------------------------|


   \6/                                                                              
   H.            E   S  S     H.             E      S   S     E   E   H.            
---L-------------L-----13-|--15b-------------Lpbr---Lp-13-|--15--------------------|
--------------------15----|-------------------------------|------15---L------------|
--------------------------|-------------------------------|------------------------|
--------------------------|-------------------------------|------------------------|
--------------------------|-------------------------------|------------------------|
--------------------------|-------------------------------|------------------------|


                                                                              |---3---|   
  E   E    H         E   E      E   E   H         E   S  S     H.             E   E   E   
----------------------------|------------------------------|-----------------------------|
-----18b---L---------L--18--|--17--15---L---------L-----13-|--15b------------13--15------|
----------------------------|------------------------14----|-------------------------14--|
----------------------------|------------------------------|-----------------------------|
----------------------------|------------------------------|-----------------------------|
----------------------------|------------------------------|-----------------------------|


                                             |---3--|         |---3--| |---3--| |---3--| |---3--|  
   E   S  S  S  S  E   E   E   S   S  E      E  E   E   Q     S  S   S S  S   S S  S   S S  S   S  
-----------------------------------------|--------------------------------------------------------|
--13-------------------------------------|--------------------------------------------------------|
------12-14--L-10-12--10--10-------------|--------------------------------------------------------|
----------------------10--10---------10--|-----------------------------------------------7h-8h-10-|
------------------------------10h-12-----|--12--8--10------------------7h-8h-10-7h-8h-10----------|
-----------------------------------------|-------------10~----6h-8h-10----------------------------|


  S  S  S S  S  S  S  S  S  E.    Q        W                   W                 
---------------------------------------|--------------------|-------------------|
---------------------------------------|--------------------|-------------------|
----------7-10p-7-10p-7-10--Lb----L----|--10----------------|--9----------------|
--7h-8-10------------------------------|--------------------|-------------------|
---------------------------------------|--------------------|-------------------|
---------------------------------------|--------------------|-------------------|


  W                   W                   W                   W                   W                 
-------------------|-------------------|-------------------|-------------------|-------------------|
-------------------|-------------------|-------------------|-------------------|-------------------|
--7----------------|--5----------------|-------------------|-------------------|-------------------|
-------------------|-------------------|-------------------|-------------------|-------------------|
-------------------|-------------------|-------------------|-------------------|-------------------|
-------------------|-------------------|-------------------|-------------------|-------------------|


  W                   W                   W                   W                   W                 
-------------------|-------------------|-------------------|-------------------|-------------------|
-------------------|-------------------|-------------------|-------------------|-------------------|
-------------------|-------------------|-------------------|-------------------|-------------------|
-------------------|-------------------|-------------------|-------------------|-------------------|
-------------------|-------------------|-------------------|-------------------|-------------------|
-------------------|-------------------|-------------------|-------------------|-------------------|


  W                   W                   W                   W                   W                 
-------------------|-------------------|-------------------|-------------------|-------------------|
-------------------|-------------------|-------------------|-------------------|-------------------|
-------------------|-------------------|-------------------|-------------------|-------------------|
-------------------|-------------------|-------------------|-------------------|-------------------|
-------------------|-------------------|-------------------|-------------------|-------------------|
-------------------|-------------------|-------------------|-------------------|-------------------|


  W                   W                   W                   W                   W                 
-------------------|-------------------|-------------------|-------------------|-------------------|
-------------------|-------------------|-------------------|-------------------|-------------------|
-------------------|-------------------|-------------------|-------------------|-------------------|
-------------------|-------------------|-------------------|-------------------|-------------------|
-------------------|-------------------|-------------------|-------------------|-------------------|
-------------------|-------------------|-------------------|-------------------|-------------------|


  W                   H        Q     S   S  E      H.             E      S   S  
-------------------|---------------------------|-------------------------------|
-------------------|-----------------------18--|--20b-------------Lpbr---Lp-18-|
-------------------|----------------17h-19-----|-------------------------------|
-------------------|---------------------------|-------------------------------|
-------------------|---------------------------|-------------------------------|
-------------------|---------------------------|-------------------------------|


   W                     H.             Q        H          E   E    E      S   S  
---------------------|-----------------18----|------------------------------------|
---------------------|--20b------------------|--20~---------L--20b---Lpbr---Lp-18-|
--19~----------------|-----------------------|------------------------------------|
---------------------|-----------------------|------------------------------------|
---------------------|-----------------------|------------------------------------|
---------------------|-----------------------|------------------------------------|


                                                                                >       
   H          E   E   E   E      H.             E      S   S     H.             E   E   
-----------------------------|-------------------------------|-------------------------|
-----------------------------|-------------------------------|-------------------------|
--19~---------L--19---L--21--|--21b-------------Lpbr---Lp-19-|--17~------------17------|
-----------------------------|-------------------------------|---------------------19--|
-----------------------------|-------------------------------|-------------------------|
-----------------------------|-------------------------------|-------------------------|


   H.             S   S  E      H.             E      S   S     W                  
----------------------------|-------------------------------|---------------------|
------------------------18--|--20b-------------Lpbr---Lp-18-|---------------------|
-----------------17h-19-----|-------------------------------|--19~----------------|
--17~-----------------------|-------------------------------|---------------------|
----------------------------|-------------------------------|---------------------|
----------------------------|-------------------------------|---------------------|


   H.             Q        H          Q.        S   S     H          E     E   E   E   
-----------------18----|------------------------------|-------------------------------|
--20b------------------|--20~--------20br-------Lp-18-|---------------------------17--|
-----------------------|------------------------------|--19~---------L\--/19---L------|
-----------------------|------------------------------|-------------------------------|
-----------------------|------------------------------|-------------------------------|
-----------------------|------------------------------|-------------------------------|


                                                                 PH                  
      W                    Q     E   S   S  Q     E   S  S       W                   
-----------------------|-----------------------------------|-----------------------||
--17g18----------------|--18-----L--17p-15-----------------|-----------------------||
-----------------------|-------------------17-----L--15-14-|-----------------------||
-----------------------|-----------------------------------|--<>17~----------------||
-----------------------|-----------------------------------|-----------------------||
-----------------------|-----------------------------------|-----------------------||



Fill Guitar

     W                   W                   W                   W                 
E||-------------------|-------------------|-------------------|-------------------|
B||-------------------|-------------------|-------------------|-------------------|
G||-------------------|-------------------|-------------------|-------------------|
D||-------------------|-------------------|-------------------|-------------------|
A||-------------------|-------------------|-------------------|-------------------|
E||-------------------|-------------------|-------------------|-------------------|


  W                   W                   W                   W                   W                 
-------------------|-------------------|-------------------|-------------------|-------------------|
-------------------|-------------------|-------------------|-------------------|-------------------|
-------------------|-------------------|-------------------|-------------------|-------------------|
-------------------|-------------------|-------------------|-------------------|-------------------|
-------------------|-------------------|-------------------|-------------------|-------------------|
-------------------|-------------------|-------------------|-------------------|-------------------|


  W                   W                   W                   W                   W                 
-------------------|-------------------|-------------------|-------------------|-------------------|
-------------------|-------------------|-------------------|-------------------|-------------------|
-------------------|-------------------|-------------------|-------------------|-------------------|
-------------------|-------------------|-------------------|-------------------|-------------------|
-------------------|-------------------|-------------------|-------------------|-------------------|
-------------------|-------------------|-------------------|-------------------|-------------------|


  W                   W                   W                   W                   W                 
-------------------|-------------------|-------------------|-------------------|-------------------|
-------------------|-------------------|-------------------|-------------------|-------------------|
-------------------|-------------------|-------------------|-------------------|-------------------|
-------------------|-------------------|-------------------|-------------------|-------------------|
-------------------|-------------------|-------------------|-------------------|-------------------|
-------------------|-------------------|-------------------|-------------------|-------------------|


  W                   W                   W                   W                   W                 
-------------------|-------------------|-------------------|-------------------|-------------------|
-------------------|-------------------|-------------------|-------------------|-------------------|
-------------------|-------------------|-------------------|-------------------|-------------------|
-------------------|-------------------|-------------------|-------------------|-------------------|
-------------------|-------------------|-------------------|-------------------|-------------------|
-------------------|-------------------|-------------------|-------------------|-------------------|


  W                   W                   W                   W                   W                 
-------------------|-------------------|-------------------|-------------------|-------------------|
-------------------|-------------------|-------------------|-------------------|-------------------|
-------------------|-------------------|-------------------|-------------------|-------------------|
-------------------|-------------------|-------------------|-------------------|-------------------|
-------------------|-------------------|-------------------|-------------------|-------------------|
-------------------|-------------------|-------------------|-------------------|-------------------|


  W                   W                   W                   W                 
-------------------|-------------------|-------------------|-------------------|
-------------------|-------------------|-------------------|-------------------|
-------------------|-------------------|-------------------|-------------------|
-------------------|-------------------|-------------------|-------------------|
-------------------|-------------------|-------------------|-------------------|
-------------------|-------------------|-------------------|-------------------|


  W                    W                    W                    H        E   E  E   E   
--------------------|--------------------|--------------------|-------------------------|
--------------------|--------------------|--------------------|--5--------6p--5---------|
--3~----------------|--5~----------------|--7~----------------|------------------7p--5--|
--------------------|--------------------|--------------------|-------------------------|
--------------------|--------------------|--------------------|-------------------------|
--------------------|--------------------|--------------------|-------------------------|


    W         PH         PH            PH                                                 
    Q    E    E   Q      Q        E    E   Q    Q     Q        H        E  S  S S  S  E   
-------------------------------|----------------------------|----------------------------|
-------------------------------|----------------------------|----------------------------|
-------------------------------|----------------------------|-------------------5h-7p-5--|
--<>8----L--<>8~--L----<>8~----|--L--<>8~--L----8~----8~----|--7--------L--5h-7----------|
-------------------------------|----------------------------|----------------------------|
-------------------------------|----------------------------|----------------------------|


  H.            Q        W                   W                   W                 
----------------------|-------------------|-------------------|-------------------|
----------------------|-------------------|-------------------|-------------------|
--L-------------------|-------------------|-------------------|-------------------|
----------------------|-------------------|-------------------|-------------------|
----------------------|-------------------|-------------------|-------------------|
---------------12\----|-------------------|-------------------|-------------------|


  W                   W                   W                   W                 
-------------------|-------------------|-------------------|-------------------|
-------------------|-------------------|-------------------|-------------------|
-------------------|-------------------|-------------------|-------------------|
-------------------|-------------------|-------------------|-------------------|
-------------------|-------------------|-------------------|-------------------|
-------------------|-------------------|-------------------|-------------------|


              PM PM PM PM                                                                   
  E  E  E  E  S  S  S  S  Q       W                   W                   W                 
-------------------------------|-------------------|-------------------|-------------------|
-------------------------------|-------------------|-------------------|-------------------|
--5--------5--------------5----|-------------------|-------------------|-------------------|
-----2--2-----2--2--2--2-------|-------------------|-------------------|-------------------|
-------------------------------|-------------------|-------------------|-------------------|
-------------------------------|-------------------|-------------------|-------------------|


  W                   W                   W                   W                   W                 
-------------------|-------------------|-------------------|-------------------|-------------------|
-------------------|-------------------|-------------------|-------------------|-------------------|
-------------------|-------------------|-------------------|-------------------|-------------------|
-------------------|-------------------|-------------------|-------------------|-------------------|
-------------------|-------------------|-------------------|-------------------|-------------------|
-------------------|-------------------|-------------------|-------------------|-------------------|


  W                   W                   W                   W                   W                 
-------------------|-------------------|-------------------|-------------------|-------------------|
-------------------|-------------------|-------------------|-------------------|-------------------|
-------------------|-------------------|-------------------|-------------------|-------------------|
-------------------|-------------------|-------------------|-------------------|-------------------|
-------------------|-------------------|-------------------|-------------------|-------------------|
-------------------|-------------------|-------------------|-------------------|-------------------|


  W                   W                   W                   W                   W                 
-------------------|-------------------|-------------------|-------------------|-------------------|
-------------------|-------------------|-------------------|-------------------|-------------------|
-------------------|-------------------|-------------------|-------------------|-------------------|
-------------------|-------------------|-------------------|-------------------|-------------------|
-------------------|-------------------|-------------------|-------------------|-------------------|
-------------------|-------------------|-------------------|-------------------|-------------------|


  W                   W                   W                   W                   W                 
-------------------|-------------------|-------------------|-------------------|-------------------|
-------------------|-------------------|-------------------|-------------------|-------------------|
-------------------|-------------------|-------------------|-------------------|-------------------|
-------------------|-------------------|-------------------|-------------------|-------------------|
-------------------|-------------------|-------------------|-------------------|-------------------|
-------------------|-------------------|-------------------|-------------------|-------------------|


  W                   W                   W                   W                  
-------------------|-------------------|-------------------|--------------------|
-------------------|-------------------|-------------------|--------------------|
-------------------|-------------------|-------------------|--3~----------------|
-------------------|-------------------|-------------------|--------------------|
-------------------|-------------------|-------------------|--------------------|
-------------------|-------------------|-------------------|--------------------|


  W                    W                    H        E   E  E   E   
--------------------|--------------------|-------------------------|
--------------------|--------------------|--5--------6p--5---------|
--5~----------------|--7~----------------|------------------7p--5--|
--------------------|--------------------|-------------------------|
--------------------|--------------------|-------------------------|
--------------------|--------------------|-------------------------|


    PH         PH         PH            PH                                                 
    Q     E    E   Q      Q        E    E   Q    Q     Q        H        E  S  S S  S  E   
--------------------------------|----------------------------|----------------------------|
--------------------------------|----------------------------|----------------------------|
--------------------------------|----------------------------|-------------------5h-7p-5--|
--<>8~----L--<>8~--L----<>8~----|--L--<>8~--L----8~----8~----|--7--------L--5h-7----------|
--------------------------------|----------------------------|----------------------------|
--------------------------------|----------------------------|----------------------------|


  H.            Q        W                   W                   W                 
----------------------|-------------------|-------------------|-------------------|
----------------------|-------------------|-------------------|-------------------|
--L-------------------|-------------------|-------------------|-------------------|
----------------------|-------------------|-------------------|-------------------|
----------------------|-------------------|-------------------|-------------------|
---------------12\----|-------------------|-------------------|-------------------|


  W                   W                   W                   W                 
-------------------|-------------------|-------------------|-------------------|
-------------------|-------------------|-------------------|-------------------|
-------------------|-------------------|-------------------|-------------------|
-------------------|-------------------|-------------------|-------------------|
-------------------|-------------------|-------------------|-------------------|
-------------------|-------------------|-------------------|-------------------|


              PM PM PM PM                                                                   
  E  E  E  E  S  S  S  S  Q       W                   W                   W                 
-------------------------------|-------------------|-------------------|-------------------|
-------------------------------|-------------------|-------------------|-------------------|
--5--------5--------------5----|-------------------|-------------------|-------------------|
-----2--2-----2--2--2--2-------|-------------------|-------------------|-------------------|
-------------------------------|-------------------|-------------------|-------------------|
-------------------------------|-------------------|-------------------|-------------------|


  W                   W                   W                   W                   W                 
-------------------|-------------------|-------------------|-------------------|-------------------|
-------------------|-------------------|-------------------|-------------------|-------------------|
-------------------|-------------------|-------------------|-------------------|-------------------|
-------------------|-------------------|-------------------|-------------------|-------------------|
-------------------|-------------------|-------------------|-------------------|-------------------|
-------------------|-------------------|-------------------|-------------------|-------------------|


  W                   W                   W                   W                   W                 
-------------------|-------------------|-------------------|-------------------|-------------------|
-------------------|-------------------|-------------------|-------------------|-------------------|
-------------------|-------------------|-------------------|-------------------|-------------------|
-------------------|-------------------|-------------------|-------------------|-------------------|
-------------------|-------------------|-------------------|-------------------|-------------------|
-------------------|-------------------|-------------------|-------------------|-------------------|


  W                   W                    W                    W                  
-------------------|--------------------|--------------------|--------------------|
-------------------|--------------------|--------------------|--------------------|
-------------------|--3~----------------|--5~----------------|--7~----------------|
-------------------|--------------------|--------------------|--------------------|
-------------------|--------------------|--------------------|--------------------|
-------------------|--------------------|--------------------|--------------------|


                              W         PH         PH            PH                    
  H        E   E  E   E       Q    E    E   Q      Q        E    E   Q    Q     Q      
-------------------------|-------------------------------|----------------------------|
--5--------6p--5---------|-------------------------------|----------------------------|
------------------7p--5--|-------------------------------|----------------------------|
-------------------------|--<>8----L--<>8~--L----<>8~----|--L--<>8~--L----8~----8~----|
-------------------------|-------------------------------|----------------------------|
-------------------------|-------------------------------|----------------------------|


  H        E  S  S S  S  E     E  S  S S  S  E  Q     Q        W                 
----------------------------|-------------------------------|-------------------|
----------------------------|-------------------------------|-------------------|
-------------------5h-7p-5--|--L-------5h-7p-5--L-----------|-------------------|
--7--------L--5h-7----------|-----5h-7----------------------|-------------------|
----------------------------|-------------------------------|-------------------|
----------------------------|------------------------12\----|-------------------|


  W                   W                   W                   W                   W                 
-------------------|-------------------|-------------------|-------------------|-------------------|
-------------------|-------------------|-------------------|-------------------|-------------------|
-------------------|-------------------|-------------------|-------------------|-------------------|
-------------------|-------------------|-------------------|-------------------|-------------------|
-------------------|-------------------|-------------------|-------------------|-------------------|
-------------------|-------------------|-------------------|-------------------|-------------------|


  W                   E  E  E  E  E  E  E  E     W                   W                 
-------------------|--------------------------|-------------------|-------------------|
-------------------|--------------------------|-------------------|-------------------|
-------------------|--5--------5--------5-----|-------------------|-------------------|
-------------------|-----2--2-----2--2-----2--|-------------------|-------------------|
-------------------|--------------------------|-------------------|-------------------|
-------------------|--------------------------|-------------------|-------------------|


  W                   W                   W                   W                   W                 
-------------------|-------------------|-------------------|-------------------|-------------------|
-------------------|-------------------|-------------------|-------------------|-------------------|
-------------------|-------------------|-------------------|-------------------|-------------------|
-------------------|-------------------|-------------------|-------------------|-------------------|
-------------------|-------------------|-------------------|-------------------|-------------------|
-------------------|-------------------|-------------------|-------------------|-------------------|


  E  E  E  E  E  E  E  E      H.             E      S   S     W                  
--------------------------|-------------------------------|---------------------|
--------------------------|--20b-------------Lpbr---Lp-18-|---------------------|
--5--------5--------5-----|-------------------------------|--19~----------------|
-----2--2-----2--2-----2--|-------------------------------|---------------------|
--------------------------|-------------------------------|---------------------|
--------------------------|-------------------------------|---------------------|


   H.             Q        H          E   E    E      S   S     H          E   E   E   E   
-----------------18----|------------------------------------|-----------------------------|
--20b------------------|--20~---------L--20b---Lpbr---Lp-18-|-----------------------------|
-----------------------|------------------------------------|--19~---------L--19---L--21--|
-----------------------|------------------------------------|-----------------------------|
-----------------------|------------------------------------|-----------------------------|
-----------------------|------------------------------------|-----------------------------|


                                                  >                                    
   H.             E      S   S     H.             E   E      H.             S   S  E   
-------------------------------|-------------------------|----------------------------|
-------------------------------|-------------------------|------------------------18--|
--21b-------------Lpbr---Lp-19-|--17~------------17------|-----------------17h-19-----|
-------------------------------|---------------------19--|--17~-----------------------|
-------------------------------|-------------------------|----------------------------|
-------------------------------|-------------------------|----------------------------|


   H.             E      S   S     W                     H.             Q     
-------------------------------|---------------------|-----------------18----|
--20b-------------Lpbr---Lp-18-|---------------------|--20b------------------|
-------------------------------|--19~----------------|-----------------------|
-------------------------------|---------------------|-----------------------|
-------------------------------|---------------------|-----------------------|
-------------------------------|---------------------|-----------------------|


   H          Q.        S   S     H          E     E   E   E         W                 
------------------------------|-------------------------------|-----------------------|
--20~--------20br-------Lp-18-|---------------------------17--|--17g18----------------|
------------------------------|--19~---------L\--/19---L------|-----------------------|
------------------------------|-------------------------------|-----------------------|
------------------------------|-------------------------------|-----------------------|
------------------------------|-------------------------------|-----------------------|


                                         PH                  
   Q     E   S   S  Q     E   S  S       W                   
-----------------------------------|-----------------------||
--18-----L--17p-15-----------------|-----------------------||
-------------------17-----L--15-14-|-----------------------||
-----------------------------------|--<>17~----------------||
-----------------------------------|-----------------------||
-----------------------------------|-----------------------||




Duration Legend
---------------
W - whole
H - half
Q - quarter
E - 8th
S - 16th
T - 32nd
X - 64th
. - note dotted
|-n-|  - n-tuplets


Tablature Legend
----------------
L - tied note
x - dead note
g - grace note
(n) - ghost note
> - accentuded note
NH - natural harmonic
AH - artificial harmonic
TH - tapped harmonic
SH - semi harmonic
PH - pitch harmonic
h - hammer on
p - pull off
b - bend
br - bendRelease
pb - preBend
pbr - preBendRelease
brb - bendReleaseBend
\n/ - tremolo bar dip
\n - tremolo bar dive
-/n - tremolo bar Release up
/n\ - tremolo bar inverted dip
/n - tremolo bar return
-\n - tremolo bar Release down
S - shift slide
s - legato slide
/ -  slide into from below or out of upwards
\ -  slide into from above or out of downwards
~ - vibrato
W - wide vibrato
tr - trill
TP - tremolo picking
T - tapping
S - slap
P - pop
< - fade in
^ - brush up
v - brush down
comments
We did not receive enough feedback on this tab! Please rate:
print report bad tab
1 2 3 4 5
I want to post or [tab]
guest
You may want to rate the tab now too:
select rating
Please do not post tabs as comments. Select "correction" instead!