Oops, an error
Loading. Please wait.

Takin Me Down Tab

ver1
ver1

Whole song

Interactive

More versions @911Tabs.com
1,291 views 6 this week
no commentswrite comment
1 2 3 4 5
please rate
add to favorites launch autoscroll
font size
0
reset
Autoscroll
+/-
esc
set tempo
stop
Contributor
Difficulty
Tabbers playing skills
intermediate
advanced ++
WARNING: You are trying to view
                                    content from Ultimate-Guitar.com
                                    in an unauthorized application,
                                    which is prohibited.

                                    Please use an official Ultimate
                                    Guitar Tabs application for iPhone,
                                    iPad or Android to access legitimate
                                    chords, guitar, bass, and drum tabs
                                    from Ultimate-Guitar.com database.

                                    Type "ultimate guitar tabs" in Apple
                                    App Store's or Android Market's
                                    search to find the application.
-------------------------------------------------------------------------------
                             TAKIN' ME DOWN - Hardline
-------------------------------------------------------------------------------
Tabbed by: Isaias Garcia (TexasFury)

Tuning: Standard


Rhythm Guitar

            PM PM        PM PM       PM           PM PM      PM PM PM         
     E   E  S  S  E  E   S  S  S  E  S     E   E  S  S  E  S S  S  S   Q      
E||-------------------------------------|------------------------------------|
B||-------------------------------------|------------------------------------|
G||----------------------------9s-7-----|-----------------------------12\----|
D||----------------------------9s-7-----|-----------------------------12\----|
A||--5~--7--------5--7~--------7s-5-----|--5~--7--------5--7-----------------|
E||---------0--0---------0--0--------0--|---------0--0-------0--0--0---------|


         PM PM        PM PM                                                        
  E   E  S  S  E  E   S  S  S  E  S     E  S S E   S S S S E     W                 
-------------------------------------|------------------------|-------------------|
-------------------------------------|------------------------|-------------------|
----------------------------9s-7-----|------------------------|-------------------|
----------------------------9s-7--5~-|--L---------------------|--2----------------|
--5~--7--------5--7~--------7s-5-----|-----7-5-7~--5----------|--2----------------|
---------0--0---------0--0-----------|---------------7-6-5-3--|--0----------------|


         PM PM        PM PM       PM           PM PM      PM PM PM         
  E   E  S  S  E  E   S  S  S  E  S     E   E  S  S  E  S S  S  S   Q      
-------------------------------------|------------------------------------|
-------------------------------------|------------------------------------|
----------------------------9s-7-----|-----------------------------12\----|
----------------------------9s-7-----|-----------------------------12\----|
--5~--7--------5--7~--------7s-5-----|--5~--7--------5--7-----------------|
---------0--0---------0--0--------0--|---------0--0-------0--0--0---------|


         PM PM       PM PM                                                            
  E   E  S  S  E  E  S  S  S  E  S     E  S S E   S S S S E     S S E  Q    H         
------------------------------------|------------------------|-----------------------|
------------------------------------|------------------------|-----------------------|
---------------------------9s-7-----|------------------------|-----------------------|
---------------------------9s-7--5~-|--L---------------------|--2-2------------------|
--5~--7--------5--7--------7s-5-----|-----7-5-7~--5----------|--2-2------------------|
---------0--0--------0--0-----------|---------------7-6-5-3--|--0-0------------------|


                                                                         PM PM        PM PM         
  W                   S S E  Q    H           W                   E   E  S  S  E  E   S  S  S  E.   
-------------------|-----------------------|-------------------|-----------------------------------|
-------------------|-----------------------|-------------------|-----------------------------------|
-------------------|-----------------------|-------------------|----------------------------9s-7---|
-------------------|--2-2------------------|-------------------|----------------------------9s-7---|
-------------------|--2-2------------------|-------------------|--5~--7--------5--7~--------7s-5---|
-------------------|--0-0------------------|-------------------|---------0--0---------0--0---------|


         PM PM      PM PM PM                                                             
  E   E  S  S  E  S S  S  S   Q        S S  E  Q    H           H        Q    S S  S  S  
------------------------------------|------------------------|--------------------------|
------------------------------------|------------------------|--------------------------|
-----------------------------12\----|--9-9\------------------|--------------------------|
-----------------------------12\----|--9-9\------------------|--------------------------|
--5~--7--------5--7-----------------|--7-7\------------------|--------------------------|
---------0--0-------0--0--0---------|------------------------|------------------0h-3p-0-|


                                                                                   W         
  S S E  Q    H           Q    E.  S E  E  E  E     W                   H          H         
-----------------------|-------------------------|-------------------|----------------------|
-----------------------|-----------x-x--x--x--x--|-------------------|----------------------|
-----------------------|-----------x-x--x--x--x--|--2----------------|--4--------<>4--------|
--2-2------------------|-----------x-x--x--x--x--|--2----------------|--4-------------------|
--2-2------------------|-------------------------|--0----------------|--2-------------------|
--0-0------------------|-------------------------|-------------------|----------------------|


                                          PM PM PM       PM PM PM PM              
  W                   W                   S  S  S  S  E  S  S  S  S  E   S S E    
--3----------------|-------------------|-----------------------------------------|
--3----------------|-------------------|-----------------------------------------|
--0----------------|--2----------------|-----------------------------------------|
--0----------------|--2----------------|-----------------------------5~----------|
-------------------|--0----------------|--------5--7~-L--------5--7------7-5-7~--|
--3----------------|-------------------|--5--7-----------5--7--------------------|


  PM PM PM                       PM PM PM       PM PM PM PM                                      
  S  S  S  S  E  E  Q    Q       S  S  S  S  E  S  S  S  S  E   S S E      Q    Q     Q    Q     
--------------------3---------|-----------------------------------------|-------------3---------|
--------------------3---------|-----------------------------------------|-------------3---------|
--------------------0----2----|-----------------------------------------|--7----6~----0----2----|
--------------------0----2----|-----------------------------5~----------|--7----7~----0----2----|
--------5--7~-L--5-------0----|--------5--7~-L--------5--7------7-5-7~--|--5---------------0----|
--5--7--------------3---------|--5--7-----------5--7--------------------|-------------3---------|


  S S E  Q    H            Q     Q    H           S S E  Q    H            Q     Q    H         
-----------------------|--(0)------------------|-----------------------|--(0)------------------|
-----------------------|--(0)------------------|-----------------------|--(0)------------------|
-----------------------|-----------------------|-----------------------|-----------------------|
--2-2------------------|-----------------------|--2-2------------------|-----------------------|
--2-2------------------|-----------------------|--2-2------------------|-----------------------|
--0-0------------------|-----------------------|--0-0------------------|-----------------------|


         PM PM        PM PM                  PM PM      PM PM PM                                  
  E   E  S  S  E  E   S  S  S  E.     E   E  S  S  E  S S  S  S   Q        S S  E  Q    H         
-----------------------------------|------------------------------------|------------------------|
-----------------------------------|------------------------------------|------------------------|
----------------------------9s-7---|-----------------------------12\----|--9-9\------------------|
----------------------------9s-7---|-----------------------------12\----|--9-9\------------------|
--5~--7--------5--7~--------7s-5---|--5~--7--------5--7-----------------|--7-7\------------------|
---------0--0---------0--0---------|---------0--0-------0--0--0---------|------------------------|


   Q     Q    Q    S S  S  S    S S E  Q    H            Q     E.  S E  E  E  E   
--(0)------------------------|-----------------------|--(0)----------------------|
--(0)------------------------|-----------------------|--(0)--------x-x--x--x--x--|
-----------------------------|-----------------------|-------------x-x--x--x--x--|
-----------------------------|--2-2------------------|-------------x-x--x--x--x--|
-----------------------------|--2-2------------------|---------------------------|
---------------------0h-3p-0-|--0-0------------------|---------------------------|


                                 W                                                 
  W                   H          H           W                   W                 
-------------------|----------------------|--3----------------|-------------------|
-------------------|----------------------|--3----------------|-------------------|
--2----------------|--4--------<>4--------|--0----------------|--2----------------|
--2----------------|--4-------------------|--0----------------|--2----------------|
--0----------------|--2-------------------|-------------------|--0----------------|
-------------------|----------------------|--3----------------|-------------------|


  H        H           Q    E  E  H           H        Q    E  E     W                 
-----------3--------|----------------------|-----------3----L-----|-------------------|
--5--------3--------|----------------------|--5--------3----L-----|-------------------|
--5--------0--------|--2-------------------|--5--------0----L--2--|--L----------------|
--5--------0--------|--2-------2--L--------|--5--------0----L--2--|--L----------------|
--3-----------------|--0-------2--L--------|--3----------------0--|--L----------------|
-----------3--------|-------3--0--L--------|-----------3----L-----|-------------------|


  H        H           Q    E  E  H           Q    E.  S S S S S S S E     W                 
-----------3--------|----------------------|----------------------------|-------------------|
--5--------3--------|----------------------|----------------------------|-------------------|
--5--------0--------|--2-------------------|--5----L---5-5-5-5-5-x-x-7--|--L----------------|
--5--------0--------|--2-------2--L--------|--5----L---5-5-5-5-5-x-x-7--|--L----------------|
--3-----------------|--0-------2--L--------|--3----L---3-3-3-3-3-x-x-5--|--L----------------|
-----------3--------|-------3--0--L--------|----------------------------|-------------------|


  S  S E  H        S S  S S    S  S E  H.              S  S E  H        S S  S S  
----------------------------|-----------------------|----------------------------|
----------------------------|-----------------------|----------------------------|
--7h-9---------------7p-6---|--7h-9-----------------|--7h-9---------------7p-6---|
--7h-9---------------7--L---|--7h-9-----------------|--7h-9---------------7--L---|
----------------------------|-----------------------|----------------------------|
-------0--L--------L------0-|-------0--L------------|-------0--L--------L------0-|


  Q    E.  S H           S  S E  H        S S  S S    S  S E  H.            
----------------------|----------------------------|-----------------------|
----------------------|----------------------------|-----------------------|
--7----L---7-6--------|--7h-9---------------7p-6---|--7h-9-----------------|
--7----L---7-7--------|--7h-9---------------7--L---|--7h-9-----------------|
----------------------|----------------------------|-----------------------|
----------------------|-------0--L--------L------0-|-------0--L------------|


                                                                          W         
  S  S E  H        S S  S S    H           W                   H          H         
----------------------------|-----------|-------------------|----------------------|
----------------------------|-----------|-------------------|----------------------|
--7h-9---------------7p-6---|--7--------|--2----------------|--4--------<>4--------|
--7h-9---------------7--L---|--7--------|--2----------------|--4-------------------|
----------------------------|--5--------|--0----------------|--2-------------------|
-------0--L--------L------0-|-----------|-------------------|----------------------|


  W                   W                   H        H           Q    E  E  H         
--3----------------|-------------------|-----------3--------|----------------------|
--3----------------|-------------------|--5--------3--------|----------------------|
--0----------------|--2----------------|--5--------0--------|--2-------------------|
--0----------------|--2----------------|--5--------0--------|--2-------2--L--------|
-------------------|--0----------------|--3-----------------|--0-------2--L--------|
--3----------------|-------------------|-----------3--------|-------3--0--L--------|


  H        Q    E  E     W                   H        H           Q    E  E  H         
-----------3----L-----|-------------------|-----------3--------|----------------------|
--5--------3----L-----|-------------------|--5--------3--------|----------------------|
--5--------0----L--2--|--L----------------|--5--------0--------|--2-------------------|
--5--------0----L--2--|--L----------------|--5--------0--------|--2-------2--L--------|
--3----------------0--|--L----------------|--3-----------------|--0-------2--L--------|
-----------3----L-----|-------------------|-----------3--------|-------3--0--L--------|


  W                   W                   H        H           Q    E  E  H         
-------------------|-------------------|-----------3--------|----------------------|
-------------------|-------------------|--5--------3--------|----------------------|
--2----------------|--4----------------|--5--------0--------|--2-------------------|
--2----------------|--4----------------|--5--------0--------|--2-------2--L--------|
--0----------------|--2----------------|--3-----------------|--0-------2--L--------|
-------------------|-------------------|-----------3--------|-------3--0--L--------|


  H        Q    E  E     W                   H        H           Q    E  E  H         
-----------3----L-----|-------------------|-----------3--------|----------------------|
--5--------3----L-----|-------------------|--5--------3--------|----------------------|
--5--------0----L--2--|--L----------------|--5--------0--------|--2-------------------|
--5--------0----L--2--|--L----------------|--5--------0--------|--2-------2--L--------|
--3----------------0--|--L----------------|--3-----------------|--0-------2--L--------|
-----------3----L-----|-------------------|-----------3--------|-------3--0--L--------|


                                          PM PM PM       PM PM PM PM              
  W                   W                   S  S  S  S  E  S  S  S  S  E   S S E    
-------------------|-------------------|-----------------------------------------|
-------------------|-------------------|-----------------------------------------|
--2----------------|--4----------------|-----------------------------------------|
--2----------------|--4----------------|-----------------------------5~----------|
--0----------------|--2----------------|--------5--7~-L--------5--7------7-5-7~--|
-------------------|-------------------|--5--7-----------5--7--------------------|


  PM PM PM                       PM PM PM       PM PM PM PM                                      
  S  S  S  S  E  E  Q    Q       S  S  S  S  E  S  S  S  S  E   S S E      Q    Q     Q    Q     
--------------------3---------|-----------------------------------------|-------------3---------|
--------------------3---------|-----------------------------------------|-------------3---------|
--------------------0----2----|-----------------------------------------|--7----6~----0----2----|
--------------------0----2----|-----------------------------5~----------|--7----7~----0----2----|
--------5--7~-L--5-------0----|--------5--7~-L--------5--7------7-5-7~--|--5---------------0----|
--5--7--------------3---------|--5--7-----------5--7--------------------|-------------3---------|


  PM PM PM       PM PM PM PM                PM PM PM                     
  S  S  S  S  E  S  S  S  S  E   S S E      S  S  S  S  E  E  Q    Q     
-----------------------------------------|--------------------3---------|
-----------------------------------------|--------------------3---------|
-----------------------------------------|--------------------0----2----|
-----------------------------5~----------|--------------------0----2----|
--------5--7~-L--------5--7------7-5-7~--|--------5--7~-L--5-------0----|
--5--7-----------5--7--------------------|--5--7--------------3---------|


  PM PM PM       PM PM PM PM                PM PM PM                     
  S  S  S  S  E  S  S  S  S  E   S S E      S  S  S  S  E  E  Q    Q     
-----------------------------------------|--------------------3---------|
-----------------------------------------|--------------------3---------|
-----------------------------------------|--------------------0---------|
-----------------------------5~----------|--------------------0---------|
--------5--7~-L--------5--7------7-5-7~--|--------5--7~-L--5------------|
--5--7-----------5--7--------------------|--5--7--------------3---------|


  S S E  Q    H                                          
-------------------------------------------------------||
-------------------------------------------------------||
--9-9--------------------------------------------------||
--9-9--------------------------------------------------||
--7-7--------------------------------------------------||
-------------------------------------------------------||




Lead Guitar #1
                                                                                <                 
     W                   W                   W                   H        Q       W                 
E||-------------------|-------------------|-------------------|----------------|--0----------------|
B||-------------------|-------------------|-------------------|----------------|--0----------------|
G||-------------------|-------------------|-------------------|----------------|--9----------------|
D||-------------------|-------------------|-------------------|----------------|--9----------------|
A||-------------------|-------------------|-------------------|----------------|--7----------------|
E||-------------------|-------------------|-------------------|----------------|-------------------|


  W                   W                   W                   H        Q       W                 
-------------------|-------------------|-------------------|----------------|-------------------|
-------------------|-------------------|-------------------|----------------|-------------------|
-------------------|-------------------|-------------------|----------------|-------------------|
-------------------|-------------------|-------------------|----------------|-------------------|
-------------------|-------------------|-------------------|----------------|-------------------|
-------------------|-------------------|-------------------|----------------|-------------------|


  W                   W                   W                   W                   W                 
-------------------|-------------------|-------------------|-------------------|-------------------|
-------------------|-------------------|-------------------|-------------------|-------------------|
-------------------|-------------------|-------------------|-------------------|-------------------|
-------------------|-------------------|-------------------|-------------------|-------------------|
-------------------|-------------------|-------------------|-------------------|-------------------|
-------------------|-------------------|-------------------|-------------------|-------------------|


  W                   W                   W                   W                   W                 
-------------------|-------------------|-------------------|-------------------|-------------------|
-------------------|-------------------|-------------------|-------------------|-------------------|
-------------------|-------------------|-------------------|-------------------|--2----------------|
-------------------|-------------------|-------------------|-------------------|--2----------------|
-------------------|-------------------|-------------------|-------------------|--0----------------|
-------------------|-------------------|-------------------|-------------------|-------------------|


  W                   W                   W                   W                   W                 
-------------------|--3----------------|-------------------|-------------------|-------------------|
-------------------|--3----------------|-------------------|-------------------|-------------------|
--4----------------|--0----------------|--2----------------|-------------------|-------------------|
--4----------------|--0----------------|--2----------------|-------------------|-------------------|
--2----------------|-------------------|--0----------------|-------------------|-------------------|
-------------------|--3----------------|-------------------|-------------------|-------------------|


  W                   W                   W                   W                   W                 
-------------------|-------------------|-------------------|-------------------|-------------------|
-------------------|-------------------|-------------------|-------------------|-------------------|
-------------------|-------------------|-------------------|-------------------|-------------------|
-------------------|-------------------|-------------------|-------------------|-------------------|
-------------------|-------------------|-------------------|-------------------|-------------------|
-------------------|-------------------|-------------------|-------------------|-------------------|


  W                   W                   W                   W                   W                 
-------------------|-------------------|-------------------|-------------------|-------------------|
-------------------|-------------------|-------------------|-------------------|-------------------|
-------------------|-------------------|-------------------|-------------------|-------------------|
-------------------|-------------------|-------------------|-------------------|-------------------|
-------------------|-------------------|-------------------|-------------------|-------------------|
-------------------|-------------------|-------------------|-------------------|-------------------|


  W                   W                   W                   W                   W                 
-------------------|-------------------|-------------------|-------------------|-------------------|
-------------------|-------------------|-------------------|-------------------|-------------------|
-------------------|-------------------|-------------------|-------------------|-------------------|
-------------------|-------------------|-------------------|-------------------|-------------------|
-------------------|-------------------|-------------------|-------------------|-------------------|
-------------------|-------------------|-------------------|-------------------|-------------------|


  W                   W                   W                   W                   W                 
-------------------|-------------------|-------------------|-------------------|-------------------|
-------------------|-------------------|-------------------|-------------------|-------------------|
-------------------|-------------------|-------------------|-------------------|-------------------|
-------------------|-------------------|-------------------|-------------------|-------------------|
-------------------|-------------------|-------------------|-------------------|-------------------|
-------------------|-------------------|-------------------|-------------------|-------------------|


  W                   W                   W                   W                 
-------------------|-------------------|-------------------|-------------------|
-------------------|-------------------|-------------------|-------------------|
-------------------|-------------------|-------------------|-------------------|
-------------------|-------------------|-------------------|-------------------|
-------------------|-------------------|-------------------|-------------------|
-------------------|-------------------|-------------------|-------------------|


                                                           NH  NH   NH  NH  NH  NH 
                        |---3--|                                                   
    E    E   H          S   S  S  S  S     E  E  E  E  S   S   E    S   S   S   S  
--/12--/12---L~------------------------|--------------------------------------<>7-|
--/12--/12---L~--------15p-12----------|------------------------------------------|
------------------------------14-12----|----------------------------------<>7-----|
------------------------------------14-|---L--------------------------<>7---------|
---------------------------------------|---------------------<>7--<>L-------------|
---------------------------------------|------0--L--0--L-<>7----------------------|


    NH   NH     NH         \1/    \2/ \2/       \2    \2/ \2/    \4        
    E    S S    Q     E.   S   S  S   S   S     Q     E   S   S  H         
-----------5~-<>L---------------------------|-----------------------------|
--<>5--<>5-----------15----L---L--L---Lp-12-|-----------------------------|
--------------------------------------------|--14-----L--14p-12--L--------|
--------------------------------------------|-----------------------------|
--------------------------------------------|-----------------------------|
--------------------------------------------|-----------------------------|


              |--3--|                                      |--3-|      |-3| |--3-|        
  H        E  T  T  T S S S   T  T S    S  S T  T T T S  S T  T T T  T E  S S  S S S E.   
----------------------3--------------|-----7-2p-0---0------------------------------------|
-----------5--3h-4h-5----------------|--7b--------3------0-------------------------------|
--------------------------2br-2p-0---|----------------2b---2p-0---2p-0-------------------|
-----------------------------------2-|--------------------------2------7--5--------5-----|
-------------------------------------|--------------------------------------7p-5-----7---|
-------------------------------------|-------------------------------------------7-------|


  W                   H           W                   W                   W                 
-------------------|-----------|-------------------|-------------------|-------------------|
-------------------|-----------|-------------------|-------------------|-------------------|
-------------------|-----------|-------------------|-------------------|-------------------|
-------------------|-----------|-------------------|-------------------|-------------------|
-------------------|-----------|-------------------|-------------------|-------------------|
-------------------|-----------|-------------------|-------------------|-------------------|


  W                   W                   W                   W                 
-------------------|-------------------|-------------------|-------------------|
-------------------|-------------------|-------------------|-------------------|
-------------------|-------------------|-------------------|-------------------|
-------------------|-------------------|-------------------|-------------------|
-------------------|-------------------|-------------------|-------------------|
-------------------|-------------------|-------------------|-------------------|


  E   E    H.                 W                     Q    Q    H         
--------------------------|---------------------|----------------------|
-----20b---Lpb------------|---------------------|----------------------|
--------------------------|--19b----------------|---L------------------|
--------------------------|---------------------|----------------------|
--------------------------|---------------------|----------------------|
--------------------------|---------------------|----------------------|


                |--3--|     |--3--|                                                             
  Q    E   E    S  S  S  E  S  S  S  E      Q     Q       S  E.    Q        H         H         
------------------------------21-21-22b--|-------21br----19-------------|----------------------|
---------------17----17-20---------------|------------------20b---------|----------------------|
----------19b-----19---------------------|------------------------21----|---L\-----------------|
-----------------------------------------|------------------------------|----------------------|
-----------------------------------------|------------------------------|----------------------|
-----------------------------------------|------------------------------|----------------------|


  W                   H        Q    E   E       W                      W                   
-------------------|------------------------|----------------------|----------------------|
-------------------|-------------------15b--|---Lpb----------------|---Lpb----------------|
-------------------|------------------------|----------------------|----------------------|
-------------------|------------------------|----------------------|----------------------|
-------------------|------------------------|----------------------|----------------------|
-------------------|------------------------|----------------------|----------------------|


   W                      H.              E   E        E.   S  S  E.   S   S   E   E   E    
----------------------|----------------------17br--|---L------15------15h-17p-15---L---Lb--|
---Lpb----------------|---Lpb-------------L--------|-------17----17------------------------|
----------------------|----------------------------|---------------------------------------|
----------------------|----------------------------|---------------------------------------|
----------------------|----------------------------|---------------------------------------|
----------------------|----------------------------|---------------------------------------|


  W                   W                   W                   W                   W                 
-------------------|-------------------|-------------------|-------------------|-------------------|
-------------------|-------------------|-------------------|-------------------|-------------------|
-------------------|-------------------|-------------------|-------------------|-------------------|
-------------------|-------------------|-------------------|-------------------|-------------------|
-------------------|-------------------|-------------------|-------------------|-------------------|
-------------------|-------------------|-------------------|-------------------|-------------------|


  W                   W                   W                 
-------------------|-------------------|-------------------|
-------------------|-------------------|-------------------|
-------------------|-------------------|-------------------|
-------------------|-------------------|-------------------|
-------------------|-------------------|-------------------|
-------------------|-------------------|-------------------|

   
  W                                          
-------------------------------------------||
-------------------------------------------||
-------------------------------------------||
-------------------------------------------||
-------------------------------------------||
-------------------------------------------||



Lead Guitar #2

     W                   W                   W                   H        Q       W                 
E||-------------------|-------------------|-------------------|----------------|-------------------|
B||-------------------|-------------------|-------------------|----------------|-------------------|
G||-------------------|-------------------|-------------------|----------------|-------------------|
D||-------------------|-------------------|-------------------|----------------|-------------------|
A||-------------------|-------------------|-------------------|----------------|-------------------|
E||-------------------|-------------------|-------------------|----------------|-------------------|


  W                   W                   W                   H        Q       W                 
-------------------|-------------------|-------------------|----------------|-------------------|
-------------------|-------------------|-------------------|----------------|-------------------|
-------------------|-------------------|-------------------|----------------|-------------------|
-------------------|-------------------|-------------------|----------------|-------------------|
-------------------|-------------------|-------------------|----------------|-------------------|
-------------------|-------------------|-------------------|----------------|-------------------|


  W                   W                   W                   W                   W                 
-------------------|-------------------|-------------------|-------------------|-------------------|
-------------------|-------------------|-------------------|-------------------|-------------------|
-------------------|-------------------|-------------------|-------------------|-------------------|
-------------------|-------------------|-------------------|-------------------|-------------------|
-------------------|-------------------|-------------------|-------------------|-------------------|
-------------------|-------------------|-------------------|-------------------|-------------------|


  W                   W                   W                   W                   W                 
-------------------|-------------------|-------------------|-------------------|-------------------|
-------------------|-------------------|-------------------|-------------------|-------------------|
-------------------|-------------------|-------------------|-------------------|-------------------|
-------------------|-------------------|-------------------|-------------------|-------------------|
-------------------|-------------------|-------------------|-------------------|-------------------|
-------------------|-------------------|-------------------|-------------------|-------------------|


  W                   W                   W                   W                   W                 
-------------------|-------------------|-------------------|-------------------|-------------------|
-------------------|-------------------|-------------------|-------------------|-------------------|
-------------------|-------------------|-------------------|-------------------|-------------------|
-------------------|-------------------|-------------------|-------------------|-------------------|
-------------------|-------------------|-------------------|-------------------|-------------------|
-------------------|-------------------|-------------------|-------------------|-------------------|


  W                   W                   W                   W                   W                 
-------------------|-------------------|-------------------|-------------------|-------------------|
-------------------|-------------------|-------------------|-------------------|-------------------|
-------------------|-------------------|-------------------|-------------------|-------------------|
-------------------|-------------------|-------------------|-------------------|-------------------|
-------------------|-------------------|-------------------|-------------------|-------------------|
-------------------|-------------------|-------------------|-------------------|-------------------|


  W                   W                   W                   W                   W                 
-------------------|-------------------|-------------------|-------------------|-------------------|
-------------------|-------------------|-------------------|-------------------|-------------------|
-------------------|-------------------|-------------------|-------------------|-------------------|
-------------------|-------------------|-------------------|-------------------|-------------------|
-------------------|-------------------|-------------------|-------------------|-------------------|
-------------------|-------------------|-------------------|-------------------|-------------------|


  W                   W                   W                   W                   W                 
-------------------|-------------------|-------------------|-------------------|-------------------|
-------------------|-------------------|-------------------|-------------------|-------------------|
-------------------|-------------------|-------------------|-------------------|-------------------|
-------------------|-------------------|-------------------|-------------------|-------------------|
-------------------|-------------------|-------------------|-------------------|-------------------|
-------------------|-------------------|-------------------|-------------------|-------------------|


  W                   W                   W                   W                   W                 
-------------------|-------------------|-------------------|-------------------|-------------------|
-------------------|-------------------|-------------------|-------------------|-------------------|
-------------------|-------------------|-------------------|-------------------|-------------------|
-------------------|-------------------|-------------------|-------------------|-------------------|
-------------------|-------------------|-------------------|-------------------|-------------------|
-------------------|-------------------|-------------------|-------------------|-------------------|


  W                   W                   W                   W                   W                 
-------------------|-------------------|-------------------|-------------------|-------------------|
-------------------|-------------------|-------------------|-------------------|-------------------|
-------------------|-------------------|-------------------|-------------------|-------------------|
-------------------|-------------------|-------------------|-------------------|-------------------|
-------------------|-------------------|-------------------|-------------------|-------------------|
-------------------|-------------------|-------------------|-------------------|-------------------|


                                                              |--3--|  
  W                   W                   H        Q      E   S  S  S  
-------------------|-------------------|------------------------------|
-------------------|-------------------|----------------/10--10-10-10-|
-------------------|-------------------|------------------------------|
-------------------|-------------------|------------------------------|
-------------------|-------------------|------------------------------|
-------------------|-------------------|------------------------------|


               \0                                     
       |---3---|                                      
   E   S   S   S  E  E  H           W                 
---------------------------------|-------------------|
--10--10h-12p-10--L--9--L--------|-------------------|
---------------------------------|-------------------|
---------------------------------|-------------------|
---------------------------------|-------------------|
---------------------------------|-------------------|


   PMPM  PMPM  PMPM PM PM PM PM PM PM \1/    \2                                     
   |--3--| |--3--|  |--3--|  |--3--|                                                
   S S   S S   S S  S  S  S  S  S  S  Q.     E     E  E  E  E     W                 
------------------------------------------------|-----5--------|-------------------|
------------------------------------------------|--------5-----|-------------------|
-----------------------------7-----7--9------L--|--7--------7--|--6----------------|
-----------7-----7--9--7--9-----9---------------|--------------|-------------------|
--11-7--11----11--------------------------------|--------------|-------------------|
------------------------------------------------|--------------|-------------------|


  W                   W                   W                   W                   W                 
-------------------|--3----------------|-------------------|-------------------|-------------------|
-------------------|--3----------------|-------------------|-------------------|-------------------|
--4----------------|--0----------------|--2----------------|-------------------|-------------------|
--4----------------|--0----------------|--2----------------|-------------------|-------------------|
--2----------------|-------------------|--0----------------|-------------------|-------------------|
-------------------|--3----------------|-------------------|-------------------|-------------------|


  W                   W                   W                   W                   W                 
-------------------|-------------------|-------------------|-------------------|-------------------|
-------------------|-------------------|-------------------|-------------------|-------------------|
-------------------|-------------------|-------------------|-------------------|-------------------|
-------------------|-------------------|-------------------|-------------------|-------------------|
-------------------|-------------------|-------------------|-------------------|-------------------|
-------------------|-------------------|-------------------|-------------------|-------------------|


  W                   W                   W                   W                   W                 
-------------------|-------------------|-------------------|-------------------|-------------------|
-------------------|-------------------|-------------------|-------------------|-------------------|
-------------------|-------------------|-------------------|-------------------|-------------------|
-------------------|-------------------|-------------------|-------------------|-------------------|
-------------------|-------------------|-------------------|-------------------|-------------------|
-------------------|-------------------|-------------------|-------------------|-------------------|


  W                   W                   W                   W                   W                 
-------------------|-------------------|-------------------|-------------------|-------------------|
-------------------|-------------------|-------------------|-------------------|-------------------|
-------------------|-------------------|-------------------|-------------------|-------------------|
-------------------|-------------------|-------------------|-------------------|-------------------|
-------------------|-------------------|-------------------|-------------------|-------------------|
-------------------|-------------------|-------------------|-------------------|-------------------|


  W                   W                   W                   W                   W                 
-------------------|-------------------|-------------------|-------------------|-------------------|
-------------------|-------------------|-------------------|-------------------|-------------------|
-------------------|-------------------|-------------------|-------------------|-------------------|
-------------------|-------------------|-------------------|-------------------|-------------------|
-------------------|-------------------|-------------------|-------------------|-------------------|
-------------------|-------------------|-------------------|-------------------|-------------------|


  
  W                   W                   W                                          
-------------------|-------------------|-------------------------------------------||
-------------------|-------------------|-------------------------------------------||
-------------------|-------------------|-------------------------------------------||
-------------------|-------------------|-------------------------------------------||
-------------------|-------------------|-------------------------------------------||
-------------------|-------------------|-------------------------------------------||




Duration Legend
---------------
W - whole
H - half
Q - quarter
E - 8th
S - 16th
T - 32nd
X - 64th
. - note dotted
|-n-|  - n-tuplets


Tablature Legend
----------------
L - tied note
x - dead note
g - grace note
(n) - ghost note
> - accentuded note
NH - natural harmonic
AH - artificial harmonic
TH - tapped harmonic
SH - semi harmonic
PH - pitch harmonic
h - hammer on
p - pull off
b - bend
br - bendRelease
pb - preBend
pbr - preBendRelease
brb - bendReleaseBend
\n/ - tremolo bar dip
\n - tremolo bar dive
-/n - tremolo bar Release up
/n\ - tremolo bar inverted dip
/n - tremolo bar return
-\n - tremolo bar Release down
S - shift slide
s - legato slide
/ -  slide into from below or out of upwards
\ -  slide into from above or out of downwards
~ - vibrato
W - wide vibrato
tr - trill
TP - tremolo picking
T - tapping
S - slap
P - pop
< - fade in
^ - brush up
v - brush down
comments
We did not receive enough feedback on this tab! Please rate:
print report bad tab
1 2 3 4 5
I want to post or [tab]
guest
You may want to rate the tab now too:
select rating
Please do not post tabs as comments. Select "correction" instead!