Oops, an error
Loading. Please wait.

Honestly Acoustic Tab

ver2
ver2

Solo

Whole song

Interactive

More versions @911Tabs.com
8,884 views 21 this week
no commentswrite comment
1 2 3 4 5
please rate
Autoscroll
+/-
esc
set tempo
stop
Contributor
ulo
Hey! There's an official Ultimate Guitar app which is ideal
for learning songs when you're away from computer. Get the app
WARNING: You are trying to view
                                    content from Ultimate-Guitar.com
                                    in an unauthorized application,
                                    which is prohibited.

                                    Please use an official Ultimate
                                    Guitar Tabs application for iPhone,
                                    iPad or Android to access legitimate
                                    chords, guitar, bass, and drum tabs
                                    from Ultimate-Guitar.com database.

                                    Type "ultimate guitar tabs" in Apple
                                    App Store's or Android Market's
                                    search to find the application.
trancribed by: ulo (etitskoymalaki@yahoo.com)
song title:    honestly (acoustic version)
band name:     harem scarem
album title:   mood swings
tuning:        half-step down(Eb-Ab-Db-Gb-Bb-Eb)


intro:                                             (let ring)-----.
                                                                  |
|----------------|----------------|--------------7-|--------------|-|
|------------0---|----------------|--------5p4---4-|--------9-7-5-7-|
|----------------|----------------|--------4-----4-|----------------|
|----4---4-6---6-|----------------|----------------|-----/9-9-7-6-7-|
|--2---2---------|------------2-/6|4-----4-4---4-4-|----------------|
|0---------------|--------2/4-----|----------------|----------------|

|--------0-------|----------0-----|--7-----5-----4-|----2-----------|
|--------0-------|------------4---|--9-----7-----5-|----4-----------|
|------2---------|------2s4-----4-|----9-----8-----|6-----4---4-----|
|----------------|----------------|----------------|-------46--\4-2-|
|0---------------|----------------|----------------|----------------|
|----------------|----------------|0-----0-----0---|--0-------------|


verse:

|--------0-------|----------------|----------------|----------------|
|----------0-----|----------------|--------5p4---4-|----------------|
|------1-----1---|----------------|--------4-----4-|----------4-----|
|--------------2-|----------------|----------------|----4-4/6--\4-2-|
|----------------|------------2-/6|4-----4-4---4-4-|--7-------------|
|0---------------|--------2/4-----|----------------|----------------|

|--------0-------|----------------|--------0-------|----------------|
|----------0-----|----------------|----------0-----|----------------|
|------2-----2---|----------4-----|------1-----1---|--2-2-2-2p1---1-|
|--------------2-|------2-/6-\4-2-|--------------2-|--2-2-2-2---2---|
|0---------------|--2-4-----------|----------------|----------------|
|----------------|----------------|0---------------|----------------|

|--------0-------|----------------|----------------|----------------|
|----------0-----|----------------|--------5p4---4-|----------------|
|------1-----1---|----------------|--------4-----4-|----------4-----|
|--------------2-|----------------|----------------|----4-4/6--\4-2-|
|----------------|------------2-/6|4-----4-4---4-4-|--7-------------|
|0---------------|------2-2/4-----|----------------|----------------|

|--------0-------|----------------|--------0-------|----------------|
|----------0-----|----------------|----------0-----|--9-------7-----|
|------2-----2---|----------4-----|-----1------1---|----9-------8---|
|--------------2-|------2-/6-\4-2-|--------------2-|------9-------9-|
|0---------------|--2-4-----------|----------------|7-------6-------|
|----------------|----------------|0---------------|----------------|


pre-chorus:

|--------4-------|--------2-------|--------0-------|----------------|
|----------4-----|----------2-----|----------0-5-4-|5---------7-----|
|----6-------6---|----4-------4---|----2-----------|------------8---|
|--6---6-------6-|--4---4-------4-|--2---2-----6-4-|6-------------9-|
|4---------------|2---------------|0---------------|----7---6-------|
|----------------|----------------|----------------|----------------|

|--------4-------|--------2-------|--------0-------|--------0-------|
|----------4-----|----------2-----|----------0-----|----------0-----|
|----6-------6---|----4-------4---|----2-------2---|------------2---|
|--6---6-------6-|--4---4-------4-|--2---2-------2-|------2-------2-|
|4---------------|2---------------|0---------------|----------------|
|----------------|----------------|----------------|----------------|


chorus:

|--------0-------|----------------|--------------7-|----------------|
|----------0-----|----------------|--------5p4---4-|----------------|
|------1-----1---|----------------|--------4-----4-|----------4-----|
|----2---------2-|----------------|----------------|----4-4/6--\4-2-|
|----------------|------------2-/6|4-------4---4-4-|--7-------------|
|0---------------|--------2/4-----|----------------|----------------|

|--------0-------|----------------|----------------|----------------|
|----------0-----|----------------|----------------|----------------|
|------2-----2---|----------4-----|--------2p1-----|-----(rest)-----|
|--------------2-|------2-/6-\4-2-|------2-----2---|----------------|
|0---------------|--2-4-----------|--------------2-|----------------|
|----------------|----------------|0---------------|----------------|


verse:

|--------0-------|----------------|----------------|----------------|
|----------0-----|----------------|--------5p4---4-|----------------|
|------1-----1---|----------------|--------4-----4-|----------4-----|
|--------------2-|----------------|----------------|----4-4/6--\4-2-|
|----------------|------------2-/6|4-----4-4---4-4-|--7-------------|
|0---------------|--------2/4-----|----------------|----------------|

|--------0-------|----------------|--7-----5-----4-|----2-----------|
|----------0-----|----------------|--9-----7-----5-|----4-----------|
|------2-----2---|----------4-----|----9-----8-----|6-----4---4-----|
|--------------2-|------2-/6-\4-2-|----------------|-------46--\4-2-|
|0---------------|--2-4-----------|----------------|----------------|
|----------------|----------------|0-----0-----0---|--0-------------|

|--------0-------|----------------|----------------|----------------|
|----------0-----|----------------|--------5p4---4-|----------------|
|------1-----1---|----------------|--------4-----4-|----------4-----|
|--------------2-|----------------|----------------|----4-4/6--\4-2-|
|----------------|------------2-/6|4-----4-4---4-4-|--7-------------|
|0---------------|--------2/4-----|----------------|----------------|

|--------0-------|----------------|--------0-------|----------------|
|----------0-----|----------------|------------0---|--9-------7-----|
|------2-----2---|----------4-----|----------------|----9-------8---|
|--------------2-|------2-/6-\4-2-|------2---------|------9-------9-|
|0---------------|--2-4-----------|----------------|7-------6-------|
|----------------|----------------|0---------------|----------------|


pre-chorus:

|--------4-------|--------2-------|--------0-------|----------------|
|----------4-----|----------2-----|----------0-5-4-|5---------7-----|
|----6-------6---|----4-------4---|----2-----------|------------8---|
|--6---6-------6-|--4---4-------4-|--2---2-----6-4-|6-------------9-|
|4---------------|2---------------|0---------------|----7---6-------|
|----------------|----------------|----------------|----------------|

|--------4-------|--------2-------|--------0-------|0---0---0-------|
|----------4-----|----------2-----|----------0-----|--4---4---4-----|
|----6-------6---|----4-------4---|----2-------2---|------------4---|
|--6---6-------6-|--4---4-------4-|--2---2-------2-|--------------2-|
|4---------------|2---------------|0---------------|----------------|
|----------------|----------------|----------------|----------------|


chorus:

|--------0-------|----------------|--------------7-|----------------|
|----------0-----|----------------|--------5p4---4-|----------------|
|------1-----1---|----------------|--------4-----4-|------4---4-----|
|----2---------2-|----------------|----------------|----6--/6--\4-2-|
|--2-------------|------------2-/6|4-------4---4-4-|----------------|
|0---------------|--------2/4-----|----------------|----------------|

|--------0-------|----------------|--7-----5-----4-|----2-----------|
|----------0-----|----------------|--9-----7-----5-|----4-----------|
|------2-----2---|----------4-----|----9-----8-----|6-----4---4-----|
|--------------2-|------2-/6-\4-2-|----------------|-------46--\4-2-|
|0---------------|--2-4-----------|----------------|----------------|
|----------------|----------------|0-----0-----0---|--0-------------|

|--------0-------|----------------|--------------7-|----------------|
|----------0-----|----------------|--------5p4---4-|----------------|
|------1-----1---|----------------|--------4-----4-|----------4-----|
|--------------2-|----------------|----------------|----4-4/6--\4-2-|
|----------------|------------2-/6|4-------4---4-4-|--7-------------|
|0---------------|--------2/4-----|----------------|----------------|

|--------0-------|----------------|----------------|----------------|
|----------0-----|----------------|----------------|--9-------7-----|
|------2-----2---|----------4-----|--------2p1-----|----9-------8---|
|--------------2-|------2-/6-\4-2-|------2-----2---|------9-------9-|
|0---------------|--2-4-----------|--------------2-|7-------6-------|
|----------------|----------------|0---------------|----------------|


solo:


guitar 1:

|--12------11-12-----11------12-11-----|
|-9---12---12-12--------12---12-12-----|
|9-----------------------------------7/|
|--------------------------------------|
|--------------------------------------|
|--------------------------------------|

|----9---7---5-4---0---2---4---7-4-----|
|------------------------------------7/|
|9---9---8---6-4---1---2---4---9-4-----|
|--------------------------------------|
|--------------------------------------|
|--------------------------------------|

|----7---5---4-4---2---0---0---0-------|
|9---9---7---5-5---4---2---2---2s4--0--|
|--------------------------------------|
|--------------------------------------|
|--------------------------------------|
|--------------------------------------|

|-------------------------------------4---5---7----9-----11--11/12-|
|7p0-0-9p0-0-10p0-0-9p0-0-7h9p7p0--5/7-5/7-7/9-9/10-10/12--12------|
|------------------------------------------------------------------|
|------------------------------------------------------------------|
|------------------------------------------------------------------|
|------------------------------------------------------------------|



guitar 2:

|--------4-------|--------2-------|--------0-------|----------------|
|----------4-----|----------2-----|----------0-----|--9-------7-----|
|----6-------6---|----4-------4---|----2-------2---|----9-------8---|
|--6---6-------6-|--4---4-------4-|--2---2-------2-|------9-------9-|
|4---------------|2---------------|0---------------|7-------6-------|
|----------------|----------------|----------------|----------------|

|--------4-------|--------2-------|--------0-------|0-------0-------|
|----------4-----|----------2-----|----------0-----|--0-------0-----|
|----6-------6---|----4-------4---|----2-------2---|----2-------2---|
|--6---6-------6-|--4---4-------4-|--2---2-------2-|------2-------2-|
|4---------------|2---------------|0---------------|----------------|
|----------------|----------------|----------------|----------------|


bridge:

|--------0-------|--------2-------|--------0-------|--------3-------|
|----------0-----|----3-----3-----|----------0-----|----------1-----|
|------------1---|--2---2-----2---|----2-------2---|----0-----------|
|----2---------2-|0-------------0-|--2---2---------|--2---2---------|
|--2---2---------|----------------|0-------------2-|3---------------|
|0---------------|----------------|----------------|------------3-2-|

|--------0-------|--------2-------|--------0-------|3---------------|
|----------0-----|----3-----3-----|----------0-----|1---------------|
|------------1---|--2---2-----2---|----2-------2---|0----(rest)-----|
|----2---------2-|0-------------0-|--2---2-------2-|2---------------|
|--2---2---------|----------------|0---------------|3---------------|
|0---------------|----------------|----------------|----------------|

|----------------|
|----------------|
|-----(rest)-----|
|----------------|
|----------------|
|----------------|


chorus:

 E                                 C#m
|--------0-------|----------------|--------------7-|----------------|
|----------0-----|----------------|--------5p4---4-|----------------|
|------1-----1---|----------------|--------4-----4-|------4---4-----|
|----2---------2-|----------------|----------------|----6--/6--\4-2-|
|--2-------------|------------2-/6|4-------4---4-4-|----------------|
|0---------------|--------2/4-----|----------------|----------------|

 Asus2                             E
|--------0-------|----------------|--7-----5-----4-|----2-----------|
|----------0-----|----------------|--9-----7-----5-|----4-----------|
|------2-----2---|----------4-----|----9-----8-----|6-----4---4-----|
|--------------2-|------2-/6-\4-2-|----------------|-------46--\4-2-|
|0---------------|--2-4-----------|----------------|----------------|
|----------------|----------------|0-----0-----0---|--0-------------|

 E                                 C#m
|--------0-------|----------------|--------------7-|----------------|
|----------0-----|----------------|--------5p4---4-|----------------|
|------1-----1---|----------------|--------4-----4-|----------4-----|
|--------------2-|----------------|----------------|----4-4/6--\4-2-|
|----------------|------------2-/6|4-------4---4-4-|--7-------------|
|0---------------|--------2/4-----|----------------|----------------|

 Asus2                             E
|--------0-------|----------------|----------------|----------------|
|----------0-----|----------------|----------------|----------------|
|------2-----2---|----------4-----|----------------|----------------|
|--------------2-|------2-/6-\4-2-|----------------|----------------|
|0---------------|--2-4-----------|----------------|----------------|
|----------------|----------------|0---------------|----------------|


  E     C#m   Asus2

|-0-|  |-4-|  |-0-|
|-0-|  |-5-|  |-0-|
|-1-|  |-6-|  |-2-|
|-2-|  |-6-|  |-2-|
|-2-|  |-4-|  |-0-|
|-0-|  |-x-|  |-x-|
comments
We did not receive enough feedback on this tab! Please rate:
print report bad tab
1 2 3 4 5
I want to post or [tab]
guest
You may want to rate the tab now too:
select rating
Please do not post tabs as comments. Select "correction" instead!