Oops, an error
Loading. Please wait.

Something To Say Tab

ver3
ver3

Intro

Solo

More versions @911Tabs.com
35,668 views 102 this week
no commentswrite comment
1 2 3 4 5
excellent!
x 7
Autoscroll
+/-
esc
set tempo
stop
WARNING: You are trying to view
                                    content from Ultimate-Guitar.com
                                    in an unauthorized application,
                                    which is prohibited.

                                    Please use an official Ultimate
                                    Guitar Tabs application for iPhone,
                                    iPad or Android to access legitimate
                                    chords, guitar, bass, and drum tabs
                                    from Ultimate-Guitar.com database.

                                    Type "ultimate guitar tabs" in Apple
                                    App Store's or Android Market's
                                    search to find the application.
SOMETHING TO SAY
by Harem Scarem
Submitted and Tab By Agape Jehosapahat B. Esplago
I Dedicated This To My FRiends "BIG_ZYNEP"

Intro: (Part I)
----12--------------------------12----------|
----12--------------------------------------|
----11--------------------------------------|
----12-----------------------5--------------|
-----------------0--2--5--7-----------------|
--0-----0--2--3-----------------------------|

--------------------------------------------|
--8-----10--7--8--10--7--8--5--4------------|
--9------------9------7-----5---------------|
-----9--------------------------------------|
--7------------7------5-----3---------------|
--------------------------------------------|


-------------------------5/7/5-----5/7/5----|
--8-----10--7--8--10--7---------7-----------|
--9------------9------7---------7-----------|
-----9--------------------------------------|
--7------------7------5---------5-----------|
--------------------------------------------|


--------------------------------------------|
--8-----10--7--8--10----7--8--5--4----------|
--9------------9--------7-----5-------------|
-----9--------------------------------------|
--7------------7------5-------3-------------|
--------------------------------------------|


-----3---------5------12------------------------12--|
-------3---------5---------12-----------------------|
---------5---------7------------11-----------12-----|
-------------------------------------12-------------|
--3---------5-----------------------------12--------|
-------------------------0----0----0----0-----------|

Intro: (Part II)

-------------------------------------------------|
-----8----------8-------8------------------------|
--------9---------9------9-----------------------|
-----------9--------9-----9----------------------|
--7-----------7--------7-------------------------|
-------------------------------------------------|


 2nd Intro

|--------5p2-----|---------0-------|-------3--(3)-(3)-|-3s5--5s3------|
|-3----------3---|-----------0-----|-------3--(3)-(3)-|-3s5--5s3------|
|-2----2-------2-|-----4-------4---|---------------0--|---------------|
|-0--0-----------|-------2-------2-|-----------0------|-------------0-|
|----------------|-2s4-------------|------------------|---------------|
|----------------|-----------------|-2--3-------------|---------------|

|-2------5p2-----|---------0-------|-------3-----|
|-3----------3---|-----------0-----|-------3--2--|
|-2----2-------2-|-----4-------4---|----------2--|
|----0-----------|-------2-------2-|----------2--|
|----------------|-2s4-------------|----------0--|
|----------------|-----------------|-2--3--------|

|--------10p9--------|-------------||
|-----10------10-----|-------3-----||
|-2S9------------9S6-|-7-----2-----||
|--------------------|----0-----0--||
|--------------------|-------------||
|--------------------|-------------||


 Verse
|-------------|-2-----2-----|-2-----2-----|-7-----7-----|-6-----12p10----------|
|-3-----3-----|-3-----3-----|-2-----2-----|-8-----8-----|-5-----------11-------|
|-2-----2-----|-------------|-------------|----7-----7--|----------------12----|
|----0-----0--|----0-----0--|----0-----0--|-------------|----0-----------------|
|-------------|-------------|-------------|-------------|----------------------|
|-------------|-------------|-------------|-------------|----------------------|

|-------2-----|-2-----2-----|-7-----7-----|-6-----12p10-------|
|-3-----3-----|-2-----2-----|-8-----8-----|-5-----------11----|
|-2-----------|-------------|----7-----7--|-------12----12-12-|
|----0-----0--|----0-----0--|-------------|----0--------------|
|-------------|-------------|-------------|-------------------|
|-------------|-------------|-------------|-------------------|

|---------2-------|-------0---------|-------------|-----------------|
|-------3---3-----|-------0-0-------|------3------|---3-3-------0---|
|-----4-------4---|-----2-----2-----|----0----0---|---0-0-------2---|
|---4-----------4-|---2---------2---|-----------0-|-----------2-----|
|-2---------------|-0---------------|-------------|-------2-0-------|
|-----------------|---------------0-|-3-----------|-3---------------|

|-------------2---|-------0-(0)---2--|------------------|------|
|-------3-------3-|-------0-(0)---0--|-------3-(3)------|-2----|
|-----4---4-------|-----2-------2----|-----0-------0----|-2----|
|---4-------4-----|---2--------------|---0-----------0--|-2----|
|-2---------------|-0----------------|------------------|-0----|
|-----------------|------------------|-3----------------|------|

|--------10p9--------|-------------|-2----2-----|-7-----7-----|
|-(2)---------10-----|-------3-----|-2----2-----|-8-----8-----|
|-(2)------------9S6-|-7-----2-----|------------|----7-----7--|
|-(2)----------------|----0-----0--|---------0--|-------------|
|-(0)----------------|-------------|------------|-------------|
|--------------------|-------------|------------|-------------|

|-6-----12p10-------|-------2-----|-------5-----|-7-----7-----|
|-5-----------11----|-3-----3-----|-7-----7-----|-8-----8-----|
|-------12----12-12-|-2-----------|-6-----6-----|----7-----7--|
|----0--------------|----0-----0--|----0-----0--|-------------|
|-------------------|-------------|-------------|-------------|
|-------------------|-------------|-------------|-------------|


|-6-----12p10-------|---------2-------|
|-5-----------11----|-------3---3-----|
|-------12----12-12-|-----4-------4---|
|----0--------------|---4-----------4-|
|-------------------|-2---------------|
|-------------------|-----------------|


|-------0---------|--------------|----------------|
|-------0-0-------|------3-------|---3-3-------0--|
|-----2-----2-----|----0----0----|---0-0-------2--|
|---2---------2---|-----------0--|-----------2----|
|-0---------------|--------------|-------2-0------|
|---------------0-|-3------------|-3--------------|


|-------------2---|-------0-(0)---2--|------------------|------|-------||
|-------3-------3-|-------0-(0)---0--|-------3-(3)------|-2----|-(2)---||
|-----4---4-------|-----2-------2----|-----0-------0----|-2----|-(2)---||
|---4-------4-----|---2--------------|---0-----------0--|-2----|-(2)---||
|-2---------------|-0----------------|------------------|-0----|-(0)---||
|-----------------|------------------|-3----------------|------|-------||


 Chorus

|-------2-2-2-0--|-------0-(0)------|---------------|----------------|
|-----3---3-3-3--|-----0---------0--|-------3-------|-----3-------2--|
|---2------------|-----2-------2----|-----0---------|----------------|
|-0--------------|---2---------2----|---0-----------|---4---4---2----|
|----------------|-0----------------|------------0--|-2-------0------|
|----------------|------------------|-3-------3-----|----------------|


|-------2-2-2-0--|-------0-----0--|----------------|------------------|
|-----3---3-3-3--|-----0---0------|-------3-----2--|-------3-(3)------|
|---2------------|-----2-----2----|-----4----------|-----0------------|
|-0--------------|---2-------2----|---4-------2----|---0--------------|
|----------------|-0--------------|-2-------0------|------------------|
|----------------|----------------|----------------|-3-----------3-2--|


|--------0-------|---------------|------10p9--------|-------------||
|----------0-----|-----0------2--|-----------10-----|-------3--2--||
|------0-----0---|---------------|--------------9S6-|-7-----2--2--||
|----2---------2-|---0------2----|-0----------------|----0--------||
|----------------|--------0------|------------------|-------------||
|-0--------------|-3-------------|------------------|-------------||


 Bridge

|---------2-------|---------2-------|---------3-------|---------3-------|
|--3--------3-----|-----------3-----|-----------3-----|-----------3-----|
|--4----4-----4---|-------4-----4---|-------5-----5---|-------5-----5---|
|-----4---------4-|-----4---------4-|-----5---------5-|-----5---------5-|
|--2--------------|--2--------------|--3--------------|--3--------------|
|-----------------|-----------------|-----------------|-----------------|
|
|
| Gtr II
|
|-14--------------|-14--------------|-15--------------|-15--------------|
|-15--------------|-15--------------|-15--------------|-15--------------|
|-----------------|-----------------|-----------------|-----------------|
|-----------------|-----------------|-----------------|-----------------|
|-----------------|-----------------|-----------------|-----------------|
|-----------------|-----------------|-----------------|-----------------|


|---------2-------|---------2-------|---------3-------|------2-------------(2)-|
|-----------3-----|-----------3-----|-----------3-----|------3-------------(3)-|
|-------4-----4---|-------4-----4---|-------5-----5---|------------------------|
|-----4---------4-|-----4---------4-|-----5---------5-|----2-------------------|
|--2--------------|--2--------------|--3--------------|-0----------------------|
|-----------------|-----------------|-----------------|------------------------|
|
|-14--------------|-14--------------|-15--------------|------------------------|
|-15--------------|-15--------------|-15--------------|----------7h=8---7------|
|-----------------|-----------------|-----------------|----------7-(7)-(7)--9--|
|-----------------|-----------------|-----------------|------------------------|
|-----------------|-----------------|-----------------|------------------------|
|-----------------|-----------------|-----------------|------------------------|


 Guitar Solo

|-------------------------|----------2-----------2-|
|-----------------0-------|------------3-----------|
|-----------2---------2---|--------4-------4-------|
|-------2-----------2-----|------4-------4---------|
|-0-------------0---------|-2----------------------|
|-------------------------|------------------------|
|
|-7---7-----7---5---7---7-|---5--------------(5)---|
|-8---8-----8-8-7---8---8-|-8-7--------------(7)---|
|-------------------------|------------------------|
|-------------------------|------------------------|
|-------------------------|------------------------|
|-------------------------|------------------------|


|---------2----------|-----------------|
|-----------3--------|-------3---------|
|-------4-----4------|-----0-----------|
|-----4---------4----|---------0-------|
|-2------------------|------------2----|
|--------------------|--3--------------|
|
|
|-5h7p5-2-3-5---7--9-|-10--------------|
|-7-----3-5-7---8-10-|-12--------------|
|--------------------|-----------------|
|--------------------|-----------------|
|--------------------|-----------------|
|--------------------|-----------------|


|-----------------------------------|
|---------------------0-------------|
|------------------2-----------2----|
|------------2----------------------|
|--0--------------------------------|
|-----------------------------------|
|
|--9h10S=12-10h12-14-12-14-15-14-12-|
|-10----/14-12----15-14-15-17-15-14-|
|-----------------------------------|
|-----------------------------------|
|-----------------------------------|
|-----------------------------------|


|---------------2--------|------------------------------------|
|-----------3--------3---|-------------3----------------2-----|
|--------4-------------4-|------------------------------------|
|-----4------------4-----|--------4-----------------2---------|
|--2---------------------|--2-------------------0-------------|
|------------------------|------------------------------------|
|
|-10-12-14-10-(10)-------|-10h12p10----9h10p9---5h7p5---------|
|-12-14-15-12-(12)-------|-12---------10--------7-------------|
|------------------------|----------------------------------2-|
|------------------------|------------------------------2S5---|
|------------------------|------------------------------------|
|------------------------|------------------------------------|


|------------------|---------------0---------------|
|-------3-(3)------|---------------------0---------|
|-----0-------0----|-----------0-------2-----------|
|---0--------------|---------2---------------------|
|---------------2--|-0-----------------------------|
|-3----------------|-------------------------------|
|
|
|------------------|-------------------------------|
|------------------|-2h3p2p0-----------------------|
|-4----------------|---------2---0---------0---0---|
|------------------|-------------------4---------2-|
|------------------|-------------------------------|
|------------------|-------------------------------|


|-----2--------0---|-----------------|
|---3--------2-----|-------3---------|
|-2------2---------|-----0-----------|
|-0------2---------|---0-----0-------|
|-0------0---------|-----------------|
|------------------|-3---------3-2---|
|
|------------------|-----------------|
|----------------2-|-3---------------|
|------------2-4---|-----------------|
|-4------4h5-------|-----------------|
|------------------|-----------------|
|------------------|-----------------|


|------------0-----|-------------------|
|----------0-------|-------0-------2h3-|
|-------0----------|----0----------2---|
|-----2--------2---|-------------------|
|---2--------------|-----------0-------|
|-0----------------|-3-------3---------|
|
|------------------|-------------------|
|---8p7---10-----8-|-7----10-----8p7---|
|-------9----------|----9------------9-|
|------------------|-------------------|
|------------------|-------------------|
|------------------|-------------------|


|-------------------|----------------------------||
|-------------------|----------------------------||
|-------------------|----------------------------||
|-------------------|----------------------------||
|--0----------------|----------------------------||
|-------------------|----------------------------||
|
|
|-10----10p9--------|-----------------------7--9-||
|-------10---10-----|----------------7-8-10-9-10-||
|-------------9-9-6-|-7--------6-7-9-7-9-11------||
|---------------9-7-|-7--0-(0)-7-9-6-------------||
|-------------------|----------------------------||
|-------------------|----------------------------||


 Chorus

|-2--(2)--2-2-0--|------0-------|--------------|----------------|
|-3--(3)--3-3-3--|----0------0--|------3-------|-----3-------2--|
|-2--(2)---------|----2----2----|----0---------|----------------|
|-----0----------|---------2----|----0---------|---4---4---2----|
|----------------|-0------------|-----------0--|-2-------0------|
|----------------|--------------|-3-------3----|----------------|


|-------2-2-2-0--|-------0------|----------------|----------------|
|-----3---3-3-3--|-----0------0-|-------3-----2--|-------3--------|
|---2------------|-----2----2---|-----4----------|-----0----------|
|-0--------------|---2------2---|---4-------2----|---0------------|
|----------------|-0------------|-2-------0------|----------------|
|----------------|--------------|----------------|-3--------3-2---|

|--------0-------|---------------|-------2-2-2-0--|------0-------|
|----------0-----|-----0------2--|-----3---3-3-3--|----0------0--|
|------0-----0---|---------------|---2------------|----2----2----|
|----2---------2-|---0------2----|-0--------------|---------2----|
|----------------|--------0------|----------------|-0------------|
|-0--------------|-3-------------|----------------|--------------|


|---------------|----------------|-------2-2-2-0--|------0-------|
|-------3-------|-----3-------2--|-----3---3-3-3--|----0------0--|
|-----0---------|----------------|---2------------|----2----2----|
|---0-----------|---4---4---2----|-0--------------|---------2----|
|------------0--|-2-------0------|----------------|-0------------|
|-3-------3-----|----------------|----------------|--------------|


|----------------|---------------|--------0-------|---------------|
|-------3-----2--|-------3-------|----------0-----|-----0------2--|
|-----4----------|-----0---------|------0-----0---|---------------|
|---4-------2----|---0-----------|----2---------2-|---0------2----|
|-2-------0------|---------------|----------------|--------0------|
|----------------|-3--------3-2--|-0--------------|-3-------------|


|----------------|--------10p9--------|--------------*|
|-----0-------2--|-------------10-----|-------<7>----*|
|-------0--------|----------------9S6-|-7-----<7>----*|
|---0-------2----|----<7>-------------|----0---------*|
|---------0------|-5------------------|--------------*|
|-3--------------|--------------------|--------------*|


lyrics:

yesteday i had it all
to put down to a tip
but now somethings wrong
between you and me

Iwas wrong so wrong
to think i would stay
and seasons come and seasons go
and todays sre the day

I was sing nows the time
to go out seperate ways
Idont know about the wrong
could me find the straight to say

that our love our love
seems a better day
and whos to say if i had the chance
but todays another day

chorus:

if you ever right something
that you wanted to say
you better start talking
before i go waay
that i could say
I'll be feeling okay
that i will bring a better days
but i wont feelrigth knowing
I was lying to you

bridge:

ever wasted all my time
they try to make amend
Ill try to read between the lines
I done seems to care

solo:
repeat chorus:

THis not perfect,I accept some Correction,just Email ME agape_jehosaphat8@yahoo.com,I
have many TAbs!if you want Just email me! SALAMAT PO!nahirapan ako
Dito Grabe!
comments
print report bad tab
I want to post or [tab]
guest
You may want to rate the tab now too:
select rating
Please do not post tabs as comments. Select "correction" instead!