Oops, an error
Loading. Please wait.

Dethroned Tab

603 views 1 this week
no commentswrite comment
1 2 3 4 5
please rate
Autoscroll
+/-
esc
set tempo
stop
Contributor
WARNING: You are trying to view
                                    content from Ultimate-Guitar.com
                                    in an unauthorized application,
                                    which is prohibited.

                                    Please use an official Ultimate
                                    Guitar Tabs application for iPhone,
                                    iPad or Android to access legitimate
                                    chords, guitar, bass, and drum tabs
                                    from Ultimate-Guitar.com database.

                                    Type "ultimate guitar tabs" in Apple
                                    App Store's or Android Market's
                                    search to find the application.
Band:  Hate Eternal 
Album: Conquering the throne 
Song:  Dethroned 


.  - palm mute           /  - slide up to 
\  - slide down to       ~  - vibrato 
h  - hammer on           b  - Bend 
p  - pull off            Suffixes for bend 
t  - tap                 f  - full bend    h - half bend 
ph - pinched harmonic    q  - quarter bend t - tap bend 
*  - see comment         ^  - Hold bend    r release bend 
x  - Stuccatto           ~  - vibrato bend 
,  - slight palm mute    () - ghost note, sustained note 
"  - tremolo note        <> - Trill 

Tuning c# 



Riff 1 
|------------------------------------------------| 
|------------------------------------------------| 
|------------------------------------------------| 
|---4---3------------------4---3-----------4---3-| 
|-3-2-4-1-4-3------------3-2-4-1-4-3-------2-2-1-| 
|-1---2---2-1-3344332222-1---2---2-1-334433--0---| 
  

Guitar 1 
|------------------------------------------------| 
|------------------------------------------------| 
|------------------------------------------------| 
|---4---3----------------------------------------| 
|-3-2-4-1-4-3--------------3-2-1-------3-2-1-----| 
|-1---2---2-1-3344332222-1-------2-3-1-------2-3-| 
|                        . . . . . . . . . . . . 
| 
| 
|Guitar 2 
|------------------------------------------------| 
|------------------------------------------------| 
|------------------------------------------------| 
|---4---3----------------------------------------| 
|-3-2-4-1-4-3--------------5-4-3-------5-4-3-----| 
|-1---2---2-1-3344332222-3-------4-5-3-------4-5-| 
|                        . . . . . . . . . . . . 


|------------------------------------------------| 
|------------------------------------------------| 
|------------------------------------------------| 
|---4---3------------------4---3-----------4---3-| 
|-3-2-4-1-4-3------------3-2-4-1-4-3-------2-2-1-| 
|-1---2---2-1-3344332222-1---2---2-1-334433--0---| 


|----------------------------------------| 
|----------------------------------------| 
|----------------------------------------| 
|---4---3--------------------------------| 
|-3-2-4-1-4-3------------3-4-5-444-4-3-4-| 
|-1---2---2-1-3344332222-1-2-3-222-2-1-2-| 
                         . . . ... . . . 

|------------------------------------------------| 
|------------------------------------------------| 
|------------------------------------------------| 
|---4---3------------------4---3-----------4---3-| 
|-3-2-4-1-4-3------------3-2-4-1-4-3-------2-2-1-| 
|-1---2---2-1-3344332222-1---2---2-1-334433--0---| 
  

|------------------------------------------------| 
|------------------------------------------------| 
|------------------------------------------------| 
|---4---3----------------------------------------| 
|-3-2-4-1-4-3--------------3-2-1-------3-2-1-----| 
|-1---2---2-1-3344332222-0-------2-3-0-------2-3-| 
                         . . . . . . . . . . . . 


|------------------------------------------------| 
|------------------------------------------------| 
|------------------------------------------------| 
|---4---3------------------4---3-----------4---3-| 
|-3-2-4-1-4-3------------3-2-4-1-4-3-------2-2-1-| 
|-1---2---2-1-3344332222-1---2---2-1-334433--0---| 


|----------------------------------------| 
|----------------------------------------| 
|----------------------------------------| 
|---4---3--------------------------------| 
|-3-2-4-1-4-3------------3-4-5-444-4-3-4-| 
|-1---2---2-1-3344332222-1-2-3-222-2-1-2-| 
                         . . . ... . . . 

|------------------------------------------------| 
|------------------------------------------------| 
|------------------------------------------------| 
|---4---3------------------4---3-----------4---3-| 
|-3-2-4-1-4-3------------3-2-4-1-4-3-------2-2-1-| 
|-1---2---2-1-3344332222-1---2---2-1-334433--0---| 


|----------------------------------------| 
|----------------------------------------| 
|----------------------------------------| 
|---4---3--------------------------------| 
|-3-2-4-1-4-3------------3-4-5-444-4-3-4-| 
|-1---2---2-1-3344332222-1-2-3-222-2-1-2-| 
                         . . . ... . . . 

Pre - riff 2 Guitar 1 
|-----------------------------------------------------------------------| 
|-----------------------------------------------------------------------| 
|-----------------------------------------------------------------------| 
|-----5555-----6666-----5555-----4444-----5555-----6666-------4-------6-| 
|-4-3------4-3------4-3------4-3------4-3------4-3------4---3---5---4---| 
|-2-1------2-1------2-1------2-1------2-1------2-1------2-2-----3-3-----| 
| . .      . .      . .      . .      . .      . . 
| 
| 
|Guitar 2 
|----------------------------------------------------------------------------| 
|----------------------------------------------------------------------------| 
|----------------------------------------------------------------------------| 
|----------------------------------------------------------------------------| 
|4-3-5----4-3-6----4-3-5----4-3-4----4-3-5----4-3-6--4-----------3-----------| 
|2-1-3----2-1-4----2-1-3----2-1-2----2-1-3----2-1-4--2-2-2-2-2-2-1-1-1-1-1-1-| 
 . . .    . . .    . . .    . . .    . . .    . . . 


Riff 2 guitar 1 
|-----------------------------------------------------------------------| 
|-----------------------------------------------------------------------| 
|-----------------------------------------------------------------------| 
|-----5555-----6666-----5555-----4444-----5555-----6666-------4-------6-| 
|-4-3------4-3------4-3------4-3------4-3------4-3------4---3---5---4---| 
|-2-1------2-1------2-1------2-1------2-1------2-1------2-2-----3-3-----| 
| 
| 
| 
| 
|Guitar 2 
|-----------------------------------------------------------------------------| 
|-----------------------------------------------------------------------------| 
|-----------------------------------------------------------------------------| 
|----5555-----6666-----5555-----4444-----5555-----6666------------------------| 
|4-3------4-3------4-3------4-3------4-3------4-3------4-----------3----------| 
|2-1------2-1------2-1------2-1------2-1------2-1------2-2-2-2-2-2-1-1-1-1-1-1| 


Then both guitars 3x 
|-----------------------------------------------------------------------------| 
|-----------------------------------------------------------------------------| 
|-----------------------------------------------------------------------------| 
|----5555-----6666-----5555-----4444-----5555-----6666------------------------| 
|4-3------4-3------4-3------4-3------4-3------4-3------4-----------3----------| 
|2-1------2-1------2-1------2-1------2-1------2-1------2-2-2-2-2-2-1-1-1-1-1-1| 




Pre - Riff 3 guitar 1 
|-----------------------------------------------------| 
|-----------------------------------------------------| 
|-----------------------------------------------------| 
|-------555-------555444666-------555-----------------| 
|-6-7-6-----6-7-6-----------6-7-6-----6-7-6-----------| 
|-4-5-4-----4-5-4-----------4-5-4-----4-5-4-1100443322| 
| . . .     . . .           . . .     . . . 
| 
| 
| 
|Guitar 2 
|-------------------------------------------------------| 
|-------------------------------------------------------| 
|-------------------------------------------------------| 
|-------------------------------------------------------| 
|-6-7-6-5--6-7-6-4------------6-7-6-5--6-7-5------------| 
|-4-5-4-3--4-5-4-2------------4-5-4-3--4-5-3------------| 
  . . . .  . . . .            . . . .  . . . 


Guitar 1 
|-------------------------------------------------| 
|-------------------------------------------------| 
|-------------------------------------------------| 
|-------555-------555444666-----------------------| 
|-6-7-6-----6-7-6-----------6-7-6-----6-7-6-------| 
|-4-5-4-----4-5-4-----------4-5-4-333-4-5-4-112233| 
| . . .     . . .           . . .     . . . 
| 
| 
| 
|Guitar 2 
|-------------------------------------------------------| 
|-------------------------------------------------------| 
|-------------------------------------------------------| 
|-------------------------------------------------------| 
|-6-7-6-5--6-7-6-444-444-444-6-7-6-6----6-7-------------| 
|-4-5-4-3--4-5-4-222-222-222-4-5-4-3----4-5-------------| 
  . . . .  . . . ... ... ... . . . .    . . 


Riff 3a 
|-------------------------------------------------------------| 
|-------------------------------------------------------------| 
|-------------------------------------------------------------| 
|-55----------55----------554466----------55------------------| 
|-------------------------------------------------------------| 
|----22332233----22332233--------22332233----22332233-1100321-| 


|----------------------------------------------------------| 
|----------------------------------------------------------| 
|----------------------------------------------------------| 
|---------55----------554466----------55----------------55-| 
|----------------------------------------------------------| 
|22332233----22332233--------22332233----22332233-552233---| 


|----------------------------------------------------------| 
|----------------------------------------------------------| 
|----------------------------------------------------------| 
|---------55----------554466----------55-------------------| 
|----------------------------------------------------------| 
|22332233----22332233--------22332233----22332233-11004433-| 


|----------------------------------------------------------| 
|----------------------------------------------------------| 
|----------------------------------------------------------| 
|---------55----------554466----------55-------------------| 
|----------------------------------------------------------| 
|22332233----22332233--------22332233----22332233-55223344-| 


Riff 4 
|------------------------------------------------------------------------------| 
|------------------------------------------------------------------------------| 
|------------------------------------------------------------------------------| 
|-5566---------6655---------5555---------5544---------4444---------4433--------| 
|------5-4-5-4------5-4-3-4------5-4-3-4------5-4-5-4------5-4-3-4------5-4-3-4| 
|------3-2-3-2------3-2-1-2------3-2-1-2------3-2-3-2------3-2-1-2------3-2-1-2| 
       . . . .      . . . .      . . . .      . . . .      . . . .      . . . . 


|------------------| 
|------------------| 
|------------------| 
|------------------| 
|------------------| 
|-4433667755776655-| 


Riff 3b 
|---------------------------------------------------------| 
|---------------------------------------------------------| 
|---------------------------------------------------------| 
|---------55----------554466----------55------------------| 
|---------------------------------------------------------| 
|22332233----22332233--------22332233----22332233-1100321-| 


|--------------------------------------------------------| 
|--------------------------------------------------------| 
|--------------------------------------------------------| 
|---------55----------554466----------55-----------------| 
|--------------------------------------------------------| 
|22332233----22332233--------22332233----22332233-552233-| 


Riff 4 
|------------------------------------------------------------------------------| 
|------------------------------------------------------------------------------| 
|------------------------------------------------------------------------------| 
|-5566---------6655---------5555---------5544---------4444---------4433--------| 
|------5-4-5-4------5-4-3-4------5-4-3-4------5-4-5-4------5-4-3-4------5-4-3-4| 
|------3-2-3-2------3-2-1-2------3-2-1-2------3-2-3-2------3-2-1-2------3-2-1-2| 
       . . . .      . . . .      . . . .      . . . .      . . . .      . . . . 


|------------------| 
|------------------| 
|------------------| 
|------------------| 
|------------------| 
|-4433667755776655-| 


Riff 5 
|------------------------------------------------------------------------------| 
|------------------------------------------------------------------------------| 
|------------------------------------------------------------------------------| 
|-6666---------6655---------5555---------5544---------4444---------4433--------| 
|------5-4-5-4------5-4-3-4------5-4-3-4------5-4-5-4------5-4-3-4------5-4-3-4| 
|------3-2-3-2------3-2-1-2------3-2-1-2------3-2-3-2------3-2-1-2------3-2-1-2| 
       . . . .      . . . .      . . . .      . . . .      . . . .      . . . . 


|----------------------------------| 
|----------------------------------| 
|----------------------------------| 
|----------------------------------| 
|------------------6-5-8-9-7-9-8-7-| 
|-4433667755776655-4-3-6-7-5-7-6-5-| 
                   . . . . . . . . 

Outro 
|------------------------------------------------| 
|------------------------------------------------| 
|------------------------------------------------| 
|---4---3------------------4---3-----------4---3-| 
|-3-2-4-1-4-3------------3-2-4-1-4-3-------2-2-1-| 
|-1---2---2-1-3344332222-1---2---2-1-334433--0---| 
  

Guitar 1 
|------------------------------------------------| 
|------------------------------------------------| 
|------------------------------------------------| 
|---4---3----------------------------------------| 
|-3-2-4-1-4-3--------------3-2-1-------3-2-1-----| 
|-1---2---2-1-3344332222-0-------2-3-0-------2-3-| 
|                        . . . . . . . . . . . . 
| 
| 
| 
|Guitar 2 
|------------------------------------------------| 
|------------------------------------------------| 
|------------------------------------------------| 
|---4---3----------------------------------------| 
|-3-2-4-1-4-3--------------5-4-3-------5-4-3-----| 
|-1---2---2-1-3344332222-3-------4-5-3-------4-5-| 
                         . . . . . . . . . . . . 


|------------------------------------------------| 
|------------------------------------------------| 
|------------------------------------------------| 
|---4---3------------------4---3-----------4---3-| 
|-3-2-4-1-4-3------------3-2-4-1-4-3-------2-2-1-| 
|-1---2---2-1-3344332222-1---2---2-1-334433--0---| 


|------------------------------------------------------------| 
|------------------------------------------------------------| 
|------------------------------------------------------------| 
|---4---3----------------------------------------------------| 
|-3-2-4-1-4-3------------3-4-5-444-4-3-5-444-4-3-5--444-3-4-3| 
|-1---2---2-1-3344332222-1-2-3-222-2-1-3-222-2-1-3--222-1-2-1| 
                         . . . ... . . . ... . . .  ... . . . 
 End.                




comments
We did not receive enough feedback on this tab! Please rate:
1 2 3 4 5
I want to post or [tab]
guest
You may want to rate the tab now too:
select rating
Please do not post tabs as comments. Select "correction" instead!