Oops, an error
Loading. Please wait.

Path To The Eternal Gods Tab

ver1
ver1

Whole song

Interactive

More versions @911Tabs.com
395 views 1 this week
no commentswrite comment
1 2 3 4 5
please rate
Autoscroll
+/-
esc
set tempo
stop
Contributor
Hey! There's an official Ultimate Guitar app which is ideal
for learning songs when you're away from computer. Get the app
WARNING: You are trying to view
                                    content from Ultimate-Guitar.com
                                    in an unauthorized application,
                                    which is prohibited.

                                    Please use an official Ultimate
                                    Guitar Tabs application for iPhone,
                                    iPad or Android to access legitimate
                                    chords, guitar, bass, and drum tabs
                                    from Ultimate-Guitar.com database.

                                    Type "ultimate guitar tabs" in Apple
                                    App Store's or Android Market's
                                    search to find the application.
Band: Hate eternal 
Album: I,Monarch
Song:  Path to the eternal gods

Copyright (c)  Earache recorda 2005
Version 1.1 - february 2006

.  - palm mute           /  - slide up to
\  - slide down to       ~  - vibrato
h  - hammer on           b  - Bend
p  - pull off            Suffixes for bend
t  - tap                 BH  - bend up half note
ph - pinched harmonic    q  - quarter bend t - tap bend
*  - see comment         ^  - Hold bend    r release bend
x  - Stuccatto           ~  - vibrato bend
,  - slight palm mute    () - ghost note, sustained note
"  - tremolo note        <> - Trill
                          BF  - bend up full note

Tuning c#

Riff 1 Intro Guitar 1
|------------------------------------------------------|
|------------------------------------------------------|
|------------------------------------------------------|
|-8-8-----------------8-8-----9-9-----8-8--------------|
|------------------------------------------------------|
|-6-6-----------------6-6-111-7-7-111-6-6--------------|
|
|
|
|Guitar 2
|------------------------------------------------------|
|------------------------------------------------------|
|------------------------------------------------------|
|-8-8-----------------8-8-----9-9-----8-8--------------|
|-----------------------------------------------332211-|
|-6-6-222-555-444-333-6-6-111-7-7-111-6-6-00033--------|


Guitar 1
|-----------------------------------------------------------------------|
|-----------------------------------------------------------------------|
|-----------------------------------------------------------------------|
|-6-6-----7-7-----9-9-----------5-----9-9-----1010----9-9---------------|
|----------------------------------------------------------------332211-|
|-4-4-000-5-5-111-7-7-111-444-333\----7-7-111-8-8-111-7-7-000-333-------|
|
|
|
|Guitar 2
|-----------------------------------------------------------------------|
|-----------------------------------------------------------------------|
|-----------------------------------------------------------------------|
|-6-6-----7-7-----8-8-----------------8-8-----9-9-----8-8---------------|
|----------------------------------------------------------------332211-|
|-4-4-000-5-5-111-6-6-000-333-555-333-6-6-111-7-7-111-6-6-000-333-------|

Both guitars
|-------------|
|-------------|
|-------------|
|-6-6-----7-7-|
|-------------|
|-4-4-000-5-5-|



Riff 2
|-----------------------------------------------------------|
|-----------------------------------------------------------|
|-----------------------------------------------------------|
|-7/8-----7777-7/8-----7777-7/8-----7777-8\7----777-888-888-|
|-----------------------------------------------------------|
|-5/6-555------5/6-555------5/6-555------6\5-555------------|


|-------------------------------------------------------|
|-------------------------------------------------------|
|-------------------------------------------------------|
|-7/8-----7777-7/8-----7777-7/8-----7777-8\7-----776666-|
|-------------------------------------------------------|
|-5/6-555------5/6-555------5/6-555------6\5-555--------|


Riff 3 Guitar 1
|---------------------------------------------------------|
|---------------------------------------------------------|
|---------------------------------------------------------|
|---------------------------------------------------------|
|--------------------------------------------------332211-|
|-9-9-222-555-444-333-9-9-111-10-10-111-9-9-000-333-------|
|
|
|
|
|Guitar 2
|-------------------------------------------------------|
|-------------------------------------------------------|
|-------------------------------------------------------|
|-------------------------------------------------------|
|------------------------------------------------332211-|
|-6-6-222-555-444-333-6-6-111-7-7-111-6-6-000-333-------|


Guitar 1
|-------------------------------------------------------------------|
|-------------------------------------------------------------------|
|-------------------------------------------------------------------|
|(6\)-----7-----6-6-------------------------------------------------|
|------------------------------------------------------------332211-|
|(4\)-000-5-000-4-4-222-444-333-9-9-111-10-10-111-9-9-000-333-------|
|
|
|
|
|Guitar 2
|-------------------------------------------------------------------|
|-------------------------------------------------------------------|
|-------------------------------------------------------------------|
|-6-6-----7-7-----6-6-----------------------------------------------|
|------------------------------------------------------------332211-|
|-4-4-000-5-5-000-4-4-222-444-333-6-6-111-7-7-111-6-6-000-333-------|

Guitar 1
|-------------|
|-------------|
|-------------|
|-6-----7-----|
|-------------|
|-4-000-5-000-|
|
|
|
|Guitar 2
|-----------------|
|-----------------|
|-----------------|
|-6-6-----7-7-----|
|-----------------|
|-4-4-000-5-5-000-|


Riff 2
|-----------------------------------------------------------|
|-----------------------------------------------------------|
|-----------------------------------------------------------|
|-7/8-----7777-7/8-----7777-7/8-----7777-8\7----777-888-888-|
|-----------------------------------------------------------|
|-5/6-555------5/6-555------5/6-555------6\5-555------------|


|-------------------------------------------------------|
|-------------------------------------------------------|
|-------------------------------------------------------|
|-7/8-----7777-7/8-----7777-7/8-----7777-8\7-----776666-|
|-------------------------------------------------------|
|-5/6-555------5/6-555------5/6-555------6\5-555--------|



Riff 4                                        |  4 times   |
|---------------------------------------------|------------|----------------|
|---------------------------------------------|------------|----------------|
|---------------------------------------------|------------|----------------|
|---------777-888-888-6-----7777-7\6-----7777-|7\5-----7777|-8\7-----776666-|
|-5\------------------5-----------------------|------------|----------------|
|-4\--555-------------4-555------5\4-555------|5\3-555-----|-6\5-555--------|


Fill
|-------------------------|
|-------------------------|
|-------------------------|
|-6-6---7-7---8-8---7-6-7-|
|-5-5---6-6---7-7---6-5-6-|
|-4-4-0-5-5-0-6-6-0-5-4-5-|



Riff 5 both guitars
|----------------------------------------------------------------|
|----------------------------------------------------------------|
|----------------------------------------------------------------|
|----------------------------------------------------------9-9-8-|
|----------------------------------------------------------------|
|-5-55-55-5-55-55-5-55-55-2-11-11-5-55-55-5-55-55-5-55-55--7-7-6-|
    .. ..   .. ..   .. ..   .. ..   .. ..   .. ..   .. .. 


Guitar 1
|----------------------------------------------------------------|
|----------------------------------------------------------------|
|----------------------------------------------------------------|
|------------------------------------------------101010-9-6-7-6\-|
|----------------------------------------------------------------|
|-5-55-55-5-55-55-5-55-55-2-11-11-5-55-55-5-55-55-8-8-8-7-4-5-4\-|
|   .. ..   .. ..   .. ..   .. ..   .. ..   .. .. 
|
|
|Guitar 2
|----------------------------------------------------------------|
|----------------------------------------------------------------|
|----------------------------------------------------------------|
|-------------------------------------------------8-8-8-7-4-5-4\-|
|----------------------------------------------------------------|
|-5-55-55-5-55-55-5-55-55-2-11-11-5-55-55-5-55-55-6-6-6-5-2-3-2\-|
    .. ..   .. ..   .. ..   .. ..   .. ..   .. .. 



Riff 6 
|Guitar 1 ( this part is  hard to hear)
|----------------------------------------------------------------|
|----------------------------------------------------------------|
|-----7\6------------6---------------7\6-7\6---------------------|
|-----------------------0----------------------------------9-9-8-|
|-----5-4------------4--0------------5\4-5\4---------------------|
|----------------------------------------------------------7-7-6-|
|
|
|
|
|----------------------------------------------------------------|
|----------------------------------------------------------------|
|----------------------------------------------------------------|
|----------------------------------------------------------9-9-8-|
|----------------------------------------------------------------|
|-5-55-55-5-55-55-5-55-55-2-11-11-5-55-55-5-55-55-5-55-55--7-7-6-|
    .. ..   .. ..   .. ..   .. ..   .. ..   .. ..   .. ..  


Guitar 1
|-------------------------------------------------------------|
|-------------------------------------------------------------|
|-----7----------------7--------------------------------------|
|-------------------------------------------0-----------------|
|-----5----------------5--------------------0-----------------|
|-5-----------------------------------------------------------|
|
|
|
|
|Guitar 2
|--------------------------------------------------------------|
|--------------------------------------------------------------|
|--------------------------------------------------------------|
|--------------------------------------------------------------|
|--------------------------------------------------------------|
|-5-55-55-5-55-55-5-55-55-2-11-11-5-55-55-5-55-55-5-55-5-55-55-|
    .. ..   .. ..   .. ..   .. ..   .. ..   .. ..   ..   .. ..


Riff 7 under solo 
|---------------------------------------------------------------------------|
|---------------------------------------------------------------------------|
|---------------------------------------------------------------------------|
|-7-7------------------7-7------------------7-7------------------7-7-----6-6|
|---------------------------------------------------------------------------|
|-5-5-1122332211332211-5-5-1122332211332211-5-5-1122332211332211-5-5-111-4-4|


|----------------------------------------------------------------------------|
|----------------------------------------------------------------------------|
|----------------------------------------------------------------------------|
|-----4-4------------------4-4----------------4-4----------------4-4-----8-8-|
|----------------------------------------------------------------------------|
|-111-2-2-1122332211332211-2-2-00112211002211-2-2-00112211002211-2-2-000-6-6-|


|------------------------------------------------------------------------------|
|------------------------------------------------------------------------------|
|------------------------------------------------------------------------------|
|----7-7------------------7-7------------------7-7------------------7-7-----6-6|
|------------------------------------------------------------------------------|
|111-5-5-1122332211332211-5-5-1122332211332211-5-5-1122332211332211-5-5-111-4-4|


|----------------------------------------------------------------------------|
|----------------------------------------------------------------------------|
|----------------------------------------------------------------------------|
|-----4-4------------------4-4----------------4-4----------------4-4-----8-8-|
|----------------------------------------------------------------------------|
|-111-2-2-1122332211332211-2-2-00112211002211-2-2-00112211002211-2-2-000-6-6-|


Riff 8 under solo                                   1x
|----------------------------------------------------|
|----------------------------------------------------|
|----------------------------------------------------|
|----------------------------------------------------|
|-6-5-6-8-9-8-6-5-6-8-9-8-6-5-6-8-9-8-6-5-6-8-9-12-9-|
|--0-0-0-0-0-0-0-0-0-0-0-0-0-0-0-0-0-0-0-0-0-0-0--0--|
   . . . . . . . . . . . . . . . . . . . . . . .  . 
                                                
                                                  3x
|--------------------------------------------------|
|--------------------------------------------------|
|--------------------------------------------------|
|--------------------------------------------------|
|-5-6-8-9-8-6-5-6-8-9-8-6-5-6-8-9-8-6--------------|
|--0-0-0-0-0-0-0-0-0-0-0-0-0-0-0-0-0--1/2-2-2-2/8~-|
   . . . . . . . . . . . . . . . . .  




Solo by k13m

so listen carefully to the song to get this right, 
its kinda tricky at some points witht he bends.

|------------------------------------------------------17--|
|-/18BH-18BHR-19p18h16-18BH-16-15---18BH-19-18h19p18p16----|
|----------------------------------------------------------|
|----------------------------------------------------------|
|----------------------------------------------------------|
|----------------------------------------------------------|

                                   ************
|17-18-20-20BHR-18h20--18h20p18p17-23BF-23-23BF-21h23h21-20--|
|----------------------------------************--------------|
|------------------------------------------------------------|
|------------------------------------------------------------|
|------------------------------------------------------------|
|------------------------------------------------------------|
**** im not sure if he bends from the 23rd or the 24th fret,
my current guitar has only 22 frets so im not sure ****


  *******     
|/18-17BH---17-------17---------------------------------------|
|--------------19-18-----19-18h19p18p16--19Bend-up-1.5-notes--|
|-------------------------------------------------------------|
|-------------------------------------------------------------|
|-------------------------------------------------------------|
|-------------------------------------------------------------|
**** play this fast after each other, and HOLD the bend ****


|--------------------------------------------|
|18-16h18p16p15-18BH-18--16h18p16-15-16-18---|
|--------------------------------------------|
|--------------------------------------------|
|--------------------------------------------|
|--------------------------------------------|

|---------------------------------------------------------|
|16-15-15p16h15p13----------------------------------------|
|------------------16-15----16p15p13------------15-16-15--|
|------------------------------------16---15-16-----------|
|---------------------------------------------------------|
|---------------------------------------------------------|

FAST!! this part is probaly wrong, its hard to hear what he plays.
|-------------------------------------------15-16-18-16-15------------|
|-------------------------13-15-16--15-16-18--------------18-16-15----|
|-----------------13-15-16----------------------------------------17--|
|12-13-15-13-15-16----------------------------------------------------|
|---------------------------------------------------------------------|
|---------------------------------------------------------------------|

|---------15-16-18-16-15-16-18BH--|
|15-16-18-------------------------|
|---------------------------------|
|---------------------------------|
|---------------------------------|
|---------------------------------|




|------------------------------------------------------------|
|------------------------------------------------------------|
|------------------------------------------------------------|
|-2-3-3-3-3-3-3-3--6-6-6-6-6-6-6-6-2-2-2-2-2-2-2-2-5-5-5-3-2-|
|------------------------------------------------------------|
|------------------------------------------------------------|


|---------------------------------------------------|
|---------------------------------------------------|
|-------------------------------------------------ph|
|-3-3-3-3-3-3-3-3-6-6-6-6-6-6-6-6-2-2-2-2-2-2-2-2-3-|
|---------------------------------------------------|
|---------------------------------------------------|


Harmony

|------------------------------------------------------------|
|------------------------------------------------------------|
|------------------------------------------------------------|
|-5-6-6-6-6-6-6-6--9-9-9-9-9-9-9-9-5-5-5-5-5-5-5-5-8-8-8-6-5-|
|------------------------------------------------------------|
|------------------------------------------------------------|


|---------------------------------------------------|
|---------------------------------------------------|
|-------------------------------------------------ph|
|-6-6-6-6-6-6-6-6-9-9-9-9-9-9-9-9-5-5-5-5-5-5-5-5-6-|
|---------------------------------------------------|
|---------------------------------------------------|





Riff 6 
|Guitar 1 ( this part is  hard to hear)
|----------------------------------------------------------------|
|----------------------------------------------------------------|
|-----7\6------------6---------------7\6-7\6---------------------|
|-----------------------0----------------------------------9-9-8-|
|-----5-4------------4--0------------5\4-5\4---------------------|
|----------------------------------------------------------7-7-6-|
|
|
|
|
|----------------------------------------------------------------|
|----------------------------------------------------------------|
|----------------------------------------------------------------|
|----------------------------------------------------------9-9-8-|
|----------------------------------------------------------------|
|-5-55-55-5-55-55-5-55-55-2-11-11-5-55-55-5-55-55-5-55-55--7-7-6-|
    .. ..   .. ..   .. ..   .. ..   .. ..   .. ..   .. ..  


Guitar 1
|-------------------------------------------------------------|
|-------------------------------------------------------------|
|-----7----------------7--------------------------------------|
|-------------------------------------------0-----------------|
|-----5----------------5--------------------0-----------------|
|-5-----------------------------------------------------------|
|
|
|
|
|Guitar 2
|--------------------------------------------------------------|
|--------------------------------------------------------------|
|--------------------------------------------------------------|
|--------------------------------------------------------------|
|--------------------------------------------------------------|
|-5-55-55-5-55-55-5-55-55-2-11-11-5-55-55-5-55-55-5-55-5-55-55-|
    .. ..   .. ..   .. ..   .. ..   .. ..   .. ..   ..   .. ..

Fill Guitar 1
|-------------|
|-------------|
|-------------|
|-10109-5-7\6-|
|-------------|
|-8-8-7-4-5\4-|
|
|
|
|Guitar 2
|-------------|
|-------------|
|-------------|
|-8-8-7-4-5-4-|
|-------------|
|-6-6-5-2-3\2-|



Riff 6 
|Guitar 1 ( this part is  hard to hear)
|----------------------------------------------------------------|
|----------------------------------------------------------------|
|-----7\6------------6--2------------7\6-7\6---------------------|
|----------------------------------------------------------9-9-8-|
|-----5-4------------4--0------------5\4-5\4---------------------|
|----------------------------------------------------------7-7-6-|
|
|
|
|
|----------------------------------------------------------------|
|----------------------------------------------------------------|
|----------------------------------------------------------------|
|----------------------------------------------------------9-9-8-|
|----------------------------------------------------------------|
|-5-55-55-5-55-55-5-55-55-2-11-11-5-55-55-5-55-55-5-55-55--7-7-6-|
    .. ..   .. ..   .. ..   .. ..   .. ..   .. ..   .. ..  


Guitar 1
|-------------------------------------------------------------|
|-------------------------------------------------------------|
|-----7----------------7--------------------------------------|
|-------------------------------------------0-----------------|
|-----5----------------5--------------------0-----------------|
|-5-----------------------------------------------------------|
|
|
|
|
|Guitar 2
|--------------------------------------------------------------|
|--------------------------------------------------------------|
|--------------------------------------------------------------|
|--------------------------------------------------------------|
|--------------------------------------------------------------|
|-5-55-55-5-55-55-5-55-55-2-11-11-5-55-55-5-55-55-5-55-5-55-55-|
    .. ..   .. ..   .. ..   .. ..   .. ..   .. ..   ..   .. ..


Riff 9 Intro Guitar 1   ( almost the same as intro)
|--------------------------------------------------------|
|--------------------------------------------------------|
|--------------------------------------------------------|
|-8-8-----------------8-8-----9-9-----8-8----------------|
|--------------------------------------------------------|
|-6-6-----------------6-6-111-7-7-111-6-6----------------|
|
|
|
|Guitar 2
|-------------------------------------------------------|
|-------------------------------------------------------|
|-------------------------------------------------------|
|-8-8-----------------8-8-----9-9-----8-8---------------|
|------------------------------------------------332211-|
|-6-6-222-555-444-333-6-6-111-7-7-111-6-6-000-333-------|


Guitar 1
|-----------------------------------------------------------------------|
|-----------------------------------------------------------------------|
|-----------------------------------------------------------------------|
|-6-6-----7-7-----9-9-----------5-----9-9-----1010----9-9---------------|
|-5-5-----6-6-----8-8--------------------------------------------332211-|
|-4-4-000-5-5-111-7-7-111-444-333\----7-7-111-8-8-111-7-7-000-333-------|
|
|
|
|Guitar 2
|-----------------------------------------------------------------------|
|-----------------------------------------------------------------------|
|-----------------------------------------------------------------------|
|-6-6-----7-7-----8-8-----------------8-8-----9-9-----8-8---------------|
|-5-5-----6-6-----7-7--------------------------------------------332211-|
|-4-4-000-5-5-111-6-6-000-333-555-333-6-6-111-7-7-111-6-6-000-333-------|

Both guitars
|----------------|
|----------------|
|----------------|
|-6-6-----7-7----|
|-5-5-----6-6----|
|-4-4-000-5-5-111|


Riff 10 outro 
|------------------------------------------------------------|
|------------------------------------------------------------|
|------------------------------------------------------------|
|------------------------------------------------------------|
|-5------------------5-6------5-6------5-6------------332211-|
|-5-1111111111111111-5-6-1111-5-6-1111-5-6-111-000-333-------|
  . ................ . . .... . . .... . . ... 

|-----------------------------------------------------------------------------|
|-----------------------------------------------------------------------------|
|-----------------------------------------------------------------------------|
|-8-8-----9-9-----8-8---------------------------------------------------------|
|-7-7-----8-8-----7-7------------------5-6------5-6------5-6-----------332211-|
|-6-6-111-7-7-111-6-6-1111111111111111-5-6-1111-5-6-1111-5-6-11-000-333-------|
                      ................ . . .... . . .... . . ..

|-------------------|
|-------------------|
|-------------------|
|-8-8-----9-9-----8-|
|-7-7-----8-8-----7-|
|-6-6-111-7-7-111-6-|

End.






comments
We did not receive enough feedback on this tab! Please rate:
print report bad tab
1 2 3 4 5
I want to post or [tab]
guest
You may want to rate the tab now too:
select rating
Please do not post tabs as comments. Select "correction" instead!