Oops, an error
Loading. Please wait.

Bloodsoil Tab

ver1
ver1

Whole song

Interactive

More versions @911Tabs.com
506 views 3 this week
no commentswrite comment
1 2 3 4 5
accurate
x 1
add to favorites launch autoscroll
font size
0
reset
Autoscroll
+/-
esc
set tempo
stop
Contributor
WARNING: You are trying to view
                                    content from Ultimate-Guitar.com
                                    in an unauthorized application,
                                    which is prohibited.

                                    Please use an official Ultimate
                                    Guitar Tabs application for iPhone,
                                    iPad or Android to access legitimate
                                    chords, guitar, bass, and drum tabs
                                    from Ultimate-Guitar.com database.

                                    Type "ultimate guitar tabs" in Apple
                                    App Store's or Android Market's
                                    search to find the application.
--------------------|-----------------------------|------------------------|
--------------------|-----------------------------|------------------------|
----------------12--|----12--12--11----11--11--9--|----9-------------------|
--------------------|-----------------------------|---------------------2--|
----------------10--|----10--10--9-----9---9---7--|----7--2--5----7--9--2--|
--------------------|-----------------------------|-------0--3----5--7--0--|


                                                                                
------------------|------------------|------------------|----------------------|
------------------|------------------|------------------|----------------------|
------------------|------------------|------------------|----------------------|
------------------|------------------|------------------|----------------------|
------------------|------------------|------------------|----------2--2--3--2--|
------------------|------------------|------------------|----------0--0--1--0--|


                                                                 
-------------------|----------------0--|----------------5-------|
-------------------|----------------0--|------------------5-----|
-------------------|----------------x--|--------------------5---|
-------------------|----------------2--|----------------------5-|
------2------------|----------------2--|------------------------|
------0------------|----------------0--|------------------------|


                                                 
-------------------|----------------------------|
-------------------|----------------------------|
-------------------|----------------------------|
-------------------|----------------------------|
----------------2--|----2-----------------------|
----------------0--|----0--0-0-0--0-0-0--0-0-0--|


                                                               
---------------------------------|----------------------------|
---------------------------------|----------------------------|
---------------------------------|----------------------------|
---------------------------------|----------------------------|
------------------------------2--|----2-----------------------|
--0-0-0-0-0-0-0-0-0-0-0-0-0-0-0--|----0--0-0-0--0-0-0--0-0-0--|


                                                            
------------------------------|----------------------------|
------------------------------|----------------------------|
------------------------------|----------------------------|
------------------------------|----------------------------|
------------------------3-----|----2-----------------------|
--0-0-0-0-0-0-0-0-0--0--1--0--|----0--0-0-0--0-0-0--0-0-0--|


                                                               
---------------------------------|----------------------------|
---------------------------------|----------------------------|
---------------------------------|----------------------------|
---------------------------------|----------------------------|
------------------------------2--|----2-----------------------|
--0-0-0-0-0-0-0-0-0-0-0-0-0-0-0--|----0--0-0-0--0-0-0--0-0-0--|


                                                          
----------------------------|----------------------------|
----------------------------|----------------------------|
----------------------------|----------------------------|
----------------------------|----------------------------|
-------------------------2--|----2-----------------------|
--2-2-2--3-3-3--1--0--1--0--|----0--0-0-0--0-0-0--0-0-0--|


                                                               
---------------------------------|----------------------------|
---------------------------------|----------------------------|
---------------------------------|----------------------------|
---------------------------------|----------------------------|
------------------------------2--|----2-----------------------|
--0-0-0-0-0-0-0-0-0-0-0-0-0-0-0--|----0--0-0-0--0-0-0--0-0-0--|


                                                            
------------------------------|----------------------------|
------------------------------|----------------------------|
------------------------------|----------------------------|
------------------------------|----------------------------|
------------------------3--2--|----2-----------------------|
--0-0-0-0-0-0-0-0-0--0--1--0--|----0--0-0-0--0-0-0--0-0-0--|


                                                               
---------------------------------|----------------------------|
---------------------------------|----------------------------|
---------------------------------|----------------------------|
---------------------------------|----------------------------|
------------------------------2--|----2-----------------------|
--0-0-0-0-0-0-0-0-0-0-0-0-0-0-0--|----0--0-0-0--0-0-0--0-0-0--|


                                                                 
-----------------------|------------------|---------------------|
-----------------------|------------------|---------------------|
-----------------------|------------------|---------------------|
--------------------2--|------------------|----------2-------2--|
--4----5----3----3--2--|------------------|----------2----2--3--|
--2----3----1----1--0--|------------------|----------0----0--3--|


                                                                  
--------------------|-------------------------|------------------|
--------------------|-------------------------|------------------|
--------------------|-------------------------|------------------|
--------------2--2--|--5----2--4-----4--------|------------------|
--------------3--3--|--3----3--3--3--3--3--5--|------------------|
--------------3--3--|--3----3--3--3--3--3--3--|------------------|


                                                                 
---------------------|--------------------|---------------------|
---------------------|--------------------|---------------------|
---------------------|--------------------|---------------------|
------------------4--|--------------4--7--|------------7--7--9/-|
----------5----5--2--|--------------2--5--|------------5--5--7/-|
----------3----3--2--|--------------2--5--|------------5--5--7/-|


                                                               
-------------------|---------------------|--------------------|
-------------------|---------------------|--------------------|
-------------------|---------------------|--------------------|
------2------------|----------2-------2--|--------------2--2--|
------2------------|----------2----2--3--|--------------3--3--|
------0------------|----------0----0--3--|--------------3--3--|


                                                                   
-------------------------|------------------|---------------------|
-------------------------|------------------|---------------------|
-------------------------|------------------|---------------------|
--5----2--4-----4--------|------------------|------------------4--|
--3----3--3--3--3--3--5--|------------------|---------------------|
--3----3--3--3--3--3--3--|------------------|----------12/-----2--|


                                                                         
-----------------------|-------------------|----------------------------|
-----------------------|-------------------|----------------------------|
--------------------4--|-------------------|----------------------------|
------4----4--4--4-----|-------------------|----------------------------|
--------------------2--|----------------2--|----2-----------------------|
------2----2--2--2-----|----------------0--|----0--0-0-0--0-0-0--0-0-0--|


                                                               
---------------------------------|----------------------------|
---------------------------------|----------------------------|
---------------------------------|----------------------------|
---------------------------------|----------------------------|
------------------------------2--|----2-----------------------|
--0-0-0-0-0-0-0-0-0-0-0-0-0-0-0--|----0--0-0-0--0-0-0--0-0-0--|


                                                            
------------------------------|----------------------------|
------------------------------|----------------------------|
------------------------------|----------------------------|
------------------------------|----------------------------|
------------------2--2--3--2--|----2-----------------------|
--0-0-0-0-0-0-0-0-0--0--1--0--|----0--0-0-0--0-0-0--0-0-0--|


                                                               
---------------------------------|----------------------------|
---------------------------------|----------------------------|
---------------------------------|----------------------------|
---------------------------------|----------------------------|
------------------------------2--|----2-----------------------|
--0-0-0-0-0-0-0-0-0-0-0-0-0-0-0--|----0--0-0-0--0-0-0--0-0-0--|


                                                          
----------------------------|----------------------------|
----------------------------|----------------------------|
----------------------------|----------------------------|
----------------------------|----------------------------|
-------------------------2--|----2-----------------------|
--2-2-2--3-3-3--1--0--1--0--|----0--0-0-0--0-0-0--0-0-0--|


                                                               
---------------------------------|----------------------------|
---------------------------------|----------------------------|
---------------------------------|----------------------------|
---------------------------------|----------------------------|
------------------------------2--|----2-----------------------|
--0-0-0-0-0-0-0-0-0-0-0-0-0-0-0--|----0--0-0-0--0-0-0--0-0-0--|


                                                            
------------------------------|----------------------------|
------------------------------|----------------------------|
------------------------------|----------------------------|
------------------------------|----------------------------|
------------------2--2--3--2--|----2-----------------------|
--0-0-0-0-0-0-0-0-0--0--1--0--|----0--0-0-0--0-0-0--0-0-0--|


                                                               
---------------------------------|----------------------------|
---------------------------------|----------------------------|
---------------------------------|----------------------------|
---------------------------------|----------------------------|
------------------------------2--|----2-----------------------|
--0-0-0-0-0-0-0-0-0-0-0-0-0-0-0--|----0--0-0-0--0-0-0--0-0-0--|


                                                                  
-----------------------|------------------|----------------------|
-----------------------|------------------|----------------------|
-----------------------|------------------|----------------------|
--------------------2--|------------------|----------------------|
--4----5----3----3--2--|------------------|------------10--9--7--|
--2----3----1----1--0--|------------------|----------------------|


                                                                     
-------------------|-----------------------|------------------------|
-------------------|-----------------------|------------------------|
--5----------------|-----------------------|------------------------|
-------------------|--5-----------7-----9/-|------2--------2-----2--|
--3----------------|--------------5-----7/-|------2--------2-----2--|
-------------------|--3--------0-----0-----|---------0--0-----0--0--|


                                                                   
----------------------|-------------------|-----------------------|
----------------------|-------------------|-----------------------|
----------------------|-------------------|-----------------------|
----------------------|--7----------------|--9-----------7-----9/-|
------------10--9--7--|-------------------|--------------5-----7/-|
----------------------|--5----------------|--7--------0-----0-----|


                                                                    
------------------------|----------------------|-------------------|
------------------------|----------------------|-------------------|
------------------------|----------------------|--5----------------|
------2--------2-----2--|----------------------|-------------------|
------2--------2-----2--|------------10--9--7--|--3----------------|
---------0--0-----0--0--|----------------------|-------------------|


                                                                        
-----------------------|------------------------|----------------------|
-----------------------|------------------------|----------------------|
-----------------------|------------------------|----------------------|
--5-----------7-----9/-|------2--------2-----2--|----------------------|
--------------5-----7/-|------2--------2-----2--|------------10--9--7--|
--3--------0-----0-----|---------0--0-----0--0--|----------------------|


                                                                         
-------------------|-----------------------|----------------------------|
-------------------|-----------------------|----------------------------|
-------------------|-----------------------|----------------------------|
--7----------------|--9-----------7-----9/-|----------------------------|
-------------------|--------------5-----7/-|----------------------------|
--5----------------|--7--------0-----0-----|----0--0-0-0--0-0-0--0-0-0--|


                                                               
---------------------------------|----------------------------|
---------------------------------|----------------------------|
---------------------------------|----------------------------|
---------------------------------|----------------------------|
------------------------------2--|----2-----------------------|
--0-0-0-0-0-0-0-0-0-0-0-0-0-0-0--|----0--0-0-0--0-0-0--0-0-0--|


                                                            
------------------------------|----------------------------|
------------------------------|----------------------------|
------------------------------|----------------------------|
------------------------------|----------------------------|
------------------2--2--3--2--|----2-----------------------|
--0-0-0-0-0-0-0-0-0--0--1--0--|----0--0-0-0--0-0-0--0-0-0--|


                                                               
---------------------------------|----------------------------|
---------------------------------|----------------------------|
---------------------------------|----------------------------|
---------------------------------|----------------------------|
------------------------------2--|----2-----------------------|
--0-0-0-0-0-0-0-0-0-0-0-0-0-0-0--|----0--0-0-0--0-0-0--0-0-0--|


                                                          
----------------------------|----------------------------|
----------------------------|----------------------------|
----------------------------|----------------------------|
----------------------------|----------------------------|
-------------------------2--|----2-----------------------|
--2-2-2--3-3-3--1--0--1--0--|----0--0-0-0--0-0-0--0-0-0--|


                                                               
---------------------------------|----------------------------|
---------------------------------|----------------------------|
---------------------------------|----------------------------|
---------------------------------|----------------------------|
------------------------------2--|----2-----------------------|
--0-0-0-0-0-0-0-0-0-0-0-0-0-0-0--|----0--0-0-0--0-0-0--0-0-0--|


                                                            
------------------------------|----------------------------|
------------------------------|----------------------------|
------------------------------|----------------------------|
------------------------------|----------------------------|
------------------2--2--3--2--|----2-----------------------|
--0-0-0-0-0-0-0-0-0--0--1--0--|----0--0-0-0--0-0-0--0-0-0--|


                                                               
---------------------------------|----------------------------|
---------------------------------|----------------------------|
---------------------------------|----------------------------|
---------------------------------|----------------------------|
------------------------------2--|----2-----------------------|
--0-0-0-0-0-0-0-0-0-0-0-0-0-0-0--|----0--0-0-0--0-0-0--0-0-0--|


                                                                  
-----------------------|------------------|----------------------|
-----------------------|------------------|----------------------|
-----------------------|------------------|----------------------|
--------------------2--|------------------|----------------------|
--4----5----3----3--2--|------------------|------------10--9--7--|
--2----3----1----1--0--|------------------|----------------------|


                                                                     
-------------------|-----------------------|------------------------|
-------------------|-----------------------|------------------------|
--5----------------|-----------------------|------------------------|
-------------------|--5-----------7-----9/-|------2--------2-----2--|
--3----------------|--------------5-----7/-|------2--------2-----2--|
-------------------|--3--------0-----0-----|---------0--0-----0--0--|


                                                                   
----------------------|-------------------|-----------------------|
----------------------|-------------------|-----------------------|
----------------------|-------------------|-----------------------|
----------------------|--7----------------|--9-----------7-----9/-|
------------10--9--7--|-------------------|--------------5-----7/-|
----------------------|--5----------------|--7--------0-----0-----|


                                                                    
------------------------|----------------------|-------------------|
------------------------|----------------------|-------------------|
------------------------|----------------------|--5----------------|
------2--------2-----2--|----------------------|-------------------|
------2--------2-----2--|------------10--9--7--|--3----------------|
---------0--0-----0--0--|----------------------|-------------------|


                                                                        
-----------------------|------------------------|----------------------|
-----------------------|------------------------|----------------------|
-----------------------|------------------------|----------------------|
--5-----------7-----9/-|------2--------2-----2--|----------------------|
--------------5-----7/-|------2--------2-----2--|------------10--9--7--|
--3--------0-----0-----|---------0--0-----0--0--|----------------------|


                                                                      
-------------------|-----------------------|-------------------------|
-------------------|-----------------------|-------------------------|
-------------------|-----------------------|-------------------------|
--7----------------|--9-----------7-----9/-|-------2--------2-----2--|
-------------------|--------------5-----7/-|-------2--------2-----2--|
--5----------------|--7--------0-----0-----|----0--0--0--0--0--0--0--|


                                                      
--------------------------|--------------------------|
--------------------------|--------------------------|
--------------------------|--------------------------|
--------2--------9--7--5--|--------5--------5-----5--|
--------2-----------------|--3--3--3--3--3--3--3--3--|
--0--0--0--0--0-----------|--------------------------|


                                                                                
--------------------------|-------------------------|--------------------------|
--------------------------|-------------------------|--------------------------|
--------------------------|-------------------------|--------------------------|
-----------------7-----9/-|-------2--------2-----2--|--------2--------9--7--5--|
--------5--------5-----7/-|-------2--------2-----2--|--------2-----------------|
--3--3--3--3--3-----0-----|----0--0--0--0--0--0--0--|--0--0--0--0--0-----------|


                                                                                
--------------------------|--------------------------|-------------------------|
--------------------------|--------------------------|-------------------------|
--------------------------|--------------------------|-------------------------|
--------------------------|-----------------7-----9/-|-------2--------2-----2--|
--------7--------7-----7--|--------9--------5-----7/-|-------2--------2-----2--|
--5--5--5--5--5--5--5--5--|--7--7--7--7--7-----0-----|----0--0--0--0--0--0--0--|


                                                      
--------------------------|--------------------------|
--------------------------|--------------------------|
--------------------------|--------------------------|
--------2--------9--7--5--|--------5--------5-----5--|
--------2-----------------|--3--3--3--3--3--3--3--3--|
--0--0--0--0--0-----------|--------------------------|


                                                                                
--------------------------|-------------------------|--------------------------|
--------------------------|-------------------------|--------------------------|
--------------------------|-------------------------|--------------------------|
-----------------7-----9/-|-------2--------2-----2--|--------2--------9--7--5--|
--------5--------5-----7/-|-------2--------2-----2--|--------2-----------------|
--3--3--3--3--3-----0-----|----0--0--0--0--0--0--0--|--0--0--0--0--0-----------|


                                                                              
--------------------------|--------------------------|-----------------------|
--------------------------|--------------------------|-----------------------|
--------------------------|--------------------------|-----------------------|
--------------------------|-----------------7--7--7--|--9/-------------------|
--------7--------7-----7--|--------9--------5--5--5--|--7/-------2--2--2--2--|
--5--5--5--5--5--5--5--5--|--7--7--7--7--7-----------|-----------0--0--0--0--|


                                                       
--------------------------|---------------------------|
--------------------------|---------------------------|
--------------------------|---------------------------|
--------------------------|---------------------------|
--2--2--2--2--2--1--2--1--|--1/-2--2--2--2-2-2--2--2--|
--0--0--0--0--0-----0-----|--------0--0--0-0-0--0--0--|


                                                         
-----------------------------|--------------------------|
-----------------------------|--------------------------|
--12/-11--------11/-9--------|--8/-9--------------------|
-----------------------------|--------------------------|
--10/-9---2--2--9/--7--2--2--|--6/-7--2--2--2--2--2--2--|
----------0--0---------0--0--|--------0--0--0--0--0--0--|


                                                      
--------------------------|--------------------------|
--------------------------|--------------------------|
--------------------------|--------------------------|
-----------------4-----4--|--4/-5--5--5--5--5--5--5--|
--2--2--2--2--2--2--2--2--|--2/-3--3--3--3--3--3--3--|
--0--0--0--0--0-----0-----|--------------------------|


                                                      
--------------------------|--------------------------|
--------------------------|--------------------------|
--------------------------|--------------------------|
--5/-7--7--7--7--7--7--7--|--4/-5--------------------|
--3/-5--5--5--5--5--5--5--|--2/-3--2--2--2--2--2--2--|
--------------------------|--------0--0--0--0--0--0--|


                                                       
--------------------------|---------------------------|
--------------------------|---------------------------|
--------------------------|---------------------------|
--------------------------|---------------------------|
--2--2--2--2--2--1--2--1--|--1/-2--2--2--2-2-2--2--2--|
--0--0--0--0--0-----0-----|--------0--0--0-0-0--0--0--|


                                                         
-----------------------------|--------------------------|
-----------------------------|--------------------------|
--12/-11--------11/-9--------|--8/-9--------------------|
-----------------------------|--------------------------|
--10/-9---2--2--9/--7--2--2--|--6/-7--2--2--2--2--2--2--|
----------0--0---------0--0--|--------0--0--0--0--0--0--|


                                                      
--------------------------|--------------------------|
--------------------------|--------------------------|
--------------------------|--------------------------|
-----------------4-----4--|--4/-5--5--5--5--5--5--5--|
--2--2--2--2--2--2--2--2--|--2/-3--3--3--3--3--3--3--|
--0--0--0--0--0-----0-----|--------------------------|


                                                      
--------------------------|--------------------------|
--------------------------|--------------------------|
--------------------------|--------------------------|
--5/-7--7--7--------------|--------------------------|
--3/-5--5--5--6h-7--------|--------2--2--2--2--2--2--|
--------------------5h-7--|--0h-1--0--0--0--0--0--0--|


                                                       
--------------------------|---------------------------|
--------------------------|---------------------------|
--------------------------|---------------------------|
--------------------------|---------------------------|
--2--2--2--2--2--1--2--1--|--1/-2--2--2--2-2-2--2--2--|
--0--0--0--0--0-----0-----|--------0--0--0-0-0--0--0--|


                                                         
-----------------------------|--------------------------|
-----------------------------|--------------------------|
--12/-11--------11/-9--------|--8/-9--------------------|
-----------------------------|--------------------------|
--10/-9---2--2--9/--7--2--2--|--6/-7--2--2--2--2--2--2--|
----------0--0---------0--0--|--------0--0--0--0--0--0--|


                                                      
--------------------------|--------------------------|
--------------------------|--------------------------|
--------------------------|--------------------------|
-----------------4-----4--|--4/-5--5--5--5--5--5--5--|
--2--2--2--2--2--2--2--2--|--2/-3--3--3--3--3--3--3--|
--0--0--0--0--0-----0-----|--------------------------|


                                                      
--------------------------|--------------------------|
--------------------------|--------------------------|
--------------------------|--------------------------|
--5/-7--7--7--7--7--7--7--|--4/-5--------------------|
--3/-5--5--5--5--5--5--5--|--2/-3--2--2--2--2--2--2--|
--------------------------|--------0--0--0--0--0--0--|


                                                       
--------------------------|---------------------------|
--------------------------|---------------------------|
--------------------------|---------------------------|
--------------------------|---------------------------|
--2--2--2--2--2--1--2--1--|--1/-2--2--2--2-2-2--2--2--|
--0--0--0--0--0-----0-----|--------0--0--0-0-0--0--0--|


                                                         
-----------------------------|--------------------------|
-----------------------------|--------------------------|
--12/-11--------11/-9--------|--8/-9--------------------|
-----------------------------|--------------------------|
--10/-9---2--2--9/--7--2--2--|--6/-7--2--2--2--2--2--2--|
----------0--0---------0--0--|--------0--0--0--0--0--0--|


                                                      
--------------------------|--------------------------|
--------------------------|--------------------------|
--------------------------|--------------------------|
-----------------4-----4--|--4/-5--5--5--5--5--5--5--|
--2--2--2--2--2--2--2--2--|--2/-3--3--3--3--3--3--3--|
--0--0--0--0--0-----0-----|--------------------------|


                                                                         
--------------------------|-----------------------|---------------------|
--------------------------|-----------------------|---------------------|
--------------------------|-----------------------|---------------------|
--5/-7--7--7--------------|-----------------------|------------1--------|
--3/-5--5--5--6h-7--------|--------2--2--2--------|------------1--2--2--|
--------------------5h-7--|--0h-1--0--0--0--------|---------------0--0--|


                                                                      
-----------------------|---------------------|-----------------------|
-----------------------|---------------------|-----------------------|
-----------------------|---------------------|-----------------------|
--1/-2-----------------|------------1--------|--1/-2-----------------|
--1/-2--2--2--2--------|------------1--2--2--|--1/-2--2--2--2--------|
--------0--0--0--------|---------------0--0--|--------0--0--0--------|


                                                                            
---------------------|--------------------------|--------------------------|
---------------------|--------------------------|--------------------------|
---------------------|--------------------------|--------------------------|
------------4--4--4--|--4/-5--5--5--5--5--5--5--|--5--5--5--5--5--4--4--4--|
------------2--2--2--|--2/-3--3--3--3--3--3--3--|--3--3--3--3--3--2--2--2--|
---------------------|--------------------------|--------------------------|


                                                                      
-----------------------|---------------------|-----------------------|
-----------------------|---------------------|-----------------------|
-----------------------|---------------------|-----------------------|
--4/-5-----------------|------------1--------|--1/-2-----------------|
--2/-3--2--2--2--------|------------1--2--2--|--1/-2--2--2--2--------|
--------0--0--0--------|---------------0--0--|--------0--0--0--------|


                                                                    
---------------------|-----------------------|---------------------|
---------------------|-----------------------|---------------------|
---------------------|-----------------------|---------------------|
------------1--------|--1/-2-----------------|------------4--4--4--|
------------1--2--2--|--1/-2--2--2--2--------|------------2--2--2--|
---------------0--0--|--------0--0--0--------|---------------------|


                                                      
--------------------------|--------------------------|
--------------------------|--------------------------|
--------------------------|--------------------------|
--4/-5--5--5--5--5--5--5--|--5/-7--7--7--------------|
--2/-3--3--3--3--3--3--3--|--3/-5--5--5--6h-7--------|
--------------------------|--------------------5h-7--|


                                                      
--------------------------|--------------------------|
--------------------------|--------------------------|
--------------------------|--------------------------|
--------------------------|--------------------------|
--------2--2--2--2--2--2--|--2--2--2--2--2--1--2--1--|
--0h-1--0--0--0--0--0--0--|--0--0--0--0--0-----0-----|


                                                          
---------------------------|-----------------------------|
---------------------------|-----------------------------|
---------------------------|--12/-11--------11/-9--------|
---------------------------|-----------------------------|
--1/-2--2--2--2-2-2--2--2--|--10/-9---2--2--9/--7--2--2--|
--------0--0--0-0-0--0--0--|----------0--0---------0--0--|


                                                      
--------------------------|--------------------------|
--------------------------|--------------------------|
--8/-9--------------------|--------------------------|
--------------------------|-----------------4-----4--|
--6/-7--2--2--2--2--2--2--|--2--2--2--2--2--2--2--2--|
--------0--0--0--0--0--0--|--0--0--0--0--0-----0-----|


                                                      
--------------------------|--------------------------|
--------------------------|--------------------------|
--------------------------|--------------------------|
--4/-5--5--5--5--5--5--5--|--5/-7--7--7--7--7--7--7--|
--2/-3--3--3--3--3--3--3--|--3/-5--5--5--5--5--5--5--|
--------------------------|--------------------------|


                                                      
--------------------------|--------------------------|
--------------------------|--------------------------|
--------------------------|--------------------------|
--4/-5--------------------|--------------------------|
--2/-3--2--2--2--2--2--2--|--2--2--2--2--2--1--2--1--|
--------0--0--0--0--0--0--|--0--0--0--0--0-----0-----|


                                                          
---------------------------|-----------------------------|
---------------------------|-----------------------------|
---------------------------|--12/-11--------11/-9--------|
---------------------------|-----------------------------|
--1/-2--2--2--2-2-2--2--2--|--10/-9---2--2--9/--7--2--2--|
--------0--0--0-0-0--0--0--|----------0--0---------0--0--|


                                                      
--------------------------|--------------------------|
--------------------------|--------------------------|
--8/-9--------------------|--------------------------|
--------------------------|-----------------4-----4--|
--6/-7--2--2--2--2--2--2--|--2--2--2--2--2--2--2--2--|
--------0--0--0--0--0--0--|--0--0--0--0--0-----0-----|


                                                      
--------------------------|--------------------------|
--------------------------|--------------------------|
--------------------------|--------------------------|
--4/-5--5--5--5--5--5--5--|--5/-7--7--7--------------|
--2/-3--3--3--3--3--3--3--|--3/-5--5--5--6h-7--------|
--------------------------|--------------------5h-7--|


                                                               
----------------------------|---------------------------------|
----------------------------|---------------------------------|
----------------------------|---------------------------------|
----------------------------|---------------------------------|
--2-------------------------|------------------------------2--|
--0----0-0-0--0-0-0--0-0-0--|--0-0-0-0-0-0-0-0-0-0-0-0-0-0-0--|


                                                            
----------------------------|------------------------------|
----------------------------|------------------------------|
----------------------------|------------------------------|
----------------------------|------------------------------|
----2-----------------------|------------------2--2--3--2--|
----0--0-0-0--0-0-0--0-0-0--|--0-0-0-0-0-0-0-0-0--0--1--0--|


                                                               
----------------------------|---------------------------------|
----------------------------|---------------------------------|
----------------------------|---------------------------------|
----------------------------|---------------------------------|
----2-----------------------|------------------------------2--|
----0--0-0-0--0-0-0--0-0-0--|--0-0-0-0-0-0-0-0-0-0-0-0-0-0-0--|


                                                          
----------------------------|----------------------------|
----------------------------|----------------------------|
----------------------------|----------------------------|
----------------------------|----------------------------|
----2-----------------------|-------------------------2--|
----0--0-0-0--0-0-0--0-0-0--|--2-2-2--3-3-3--1--0--1--0--|


                                                               
----------------------------|---------------------------------|
----------------------------|---------------------------------|
----------------------------|---------------------------------|
----------------------------|---------------------------------|
----2-----------------------|------------------------------2--|
----0--0-0-0--0-0-0--0-0-0--|--0-0-0-0-0-0-0-0-0-0-0-0-0-0-0--|


                                                            
----------------------------|------------------------------|
----------------------------|------------------------------|
----------------------------|------------------------------|
----------------------------|------------------------------|
----2-----------------------|------------------2--2--3--2--|
----0--0-0-0--0-0-0--0-0-0--|--0-0-0-0-0-0-0-0-0--0--1--0--|


                                                               
----------------------------|---------------------------------|
----------------------------|---------------------------------|
----------------------------|---------------------------------|
----------------------------|---------------------------------|
----2-----------------------|------------------------------2--|
----0--0-0-0--0-0-0--0-0-0--|--0-0-0-0-0-0-0-0-0-0-0-0-0-0-0--|


                                                          
----------------------------|----------------------------|
----------------------------|----------------------------|
----------------------------|-----------------7--9-------|
----------------------------|----------------------------|
----2-----------------------|--2----3----4----5--7----2--|
----0--0-0-0--0-0-0--0-0-0--|--0----1----2------------0--|


                                                               
----------------------------|---------------------------------|
----------------------------|---------------------------------|
----------------------------|---------------------------------|
----------------------------|---------------------------------|
----2-----------------------|------------------------------2--|
----0--0-0-0--0-0-0--0-0-0--|--0-0-0-0-0-0-0-0-0-0-0-0-0-0-0--|


                                                            
----------------------------|------------------------------|
----------------------------|------------------------------|
----------------------------|------------------------------|
----------------------------|------------------------------|
----2-----------------------|------------------2--2--3--2--|
----0--0-0-0--0-0-0--0-0-0--|--0-0-0-0-0-0-0-0-0--0--1--0--|


                                                               
----------------------------|---------------------------------|
----------------------------|---------------------------------|
----------------------------|---------------------------------|
----------------------------|---------------------------------|
----2-----------------------|------------------------------2--|
----0--0-0-0--0-0-0--0-0-0--|--0-0-0-0-0-0-0-0-0-0-0-0-0-0-0--|


                                                          
----------------------------|----------------------------|
----------------------------|----------------------------|
----------------------------|----------------------------|
----------------------------|----------------------------|
----2-----------------------|-------------------------2--|
----0--0-0-0--0-0-0--0-0-0--|--2-2-2--3-3-3--1--0--1--0--|


                                                               
----------------------------|---------------------------------|
----------------------------|---------------------------------|
----------------------------|---------------------------------|
----------------------------|---------------------------------|
----2-----------------------|------------------------------2--|
----0--0-0-0--0-0-0--0-0-0--|--0-0-0-0-0-0-0-0-0-0-0-0-0-0-0--|


                                                            
----------------------------|------------------------------|
----------------------------|------------------------------|
----------------------------|------------------------------|
----------------------------|------------------------------|
----2-----------------------|------------------2--2--3--2--|
----0--0-0-0--0-0-0--0-0-0--|--0-0-0-0-0-0-0-0-0--0--1--0--|


                                                      
----------------------------|------------------------|
----------------------------|------------------------|
----------------------------|------------------------|
----------------------------|------------------------|
----2-----------------------|--4----5----3----3------|
----0--0-0-0--0-0-0--0-0-0--|--2----3----1----1--2-2-|


                                    
--------------------------|-------||
--------------------------|-------||
--------------------------|-------||
--------------------------|----2--||
---------------------2----|----2--||
--2--3-3-3--1--0--1--0----|----0--||
comments
We did not receive enough feedback on this tab! Please rate:
print report bad tab
1 2 3 4 5
I want to post or [tab]
guest
You may want to rate the tab now too:
select rating
Please do not post tabs as comments. Select "correction" instead!