Oops, an error
Loading. Please wait.

Heaven Is Ready To Fall Tab

ver1
ver1

Whole song

Interactive

More versions @911Tabs.com
426 views 1 this week
1 commentread comment
1 2 3 4 5
please rate
add to favorites launch autoscroll
font size
0
reset
Autoscroll
+/-
esc
set tempo
stop
Contributor
WARNING: You are trying to view
                                    content from Ultimate-Guitar.com
                                    in an unauthorized application,
                                    which is prohibited.

                                    Please use an official Ultimate
                                    Guitar Tabs application for iPhone,
                                    iPad or Android to access legitimate
                                    chords, guitar, bass, and drum tabs
                                    from Ultimate-Guitar.com database.

                                    Type "ultimate guitar tabs" in Apple
                                    App Store's or Android Market's
                                    search to find the application.
                                                          
-------------------|---------------------|------------------|
-------------------|---------------------|------------------|
-------------------|---------------------|------------------|
--7----------------|--6--------3----5----|------------------|
--5----------------|--4--------1----5----|------------------|
--5----------------|--4--------1----3----|------------------|


                                                                            
------------------|------------------|------------------|------------------|
------------------|------------------|------------------|------------------|
------------------|------------------|------------------|------------------|
------------------|------------------|------------------|------------------|
------------------|------------------|------------------|------------------|
------------------|------------------|------------------|------------------|


                                                                      
------------------|----------------------|---------------------------|
------------------|----------------------|---------------------------|
------------------|----------------------|---------------------------|
------------------|----------------------|---------------------------|
------------------|----------------------|---------------------------|
------------------|--------------0-0-0-0-|--12--0--0--8--7--0--5--7--|


                                                                 
-------------------|------------------------|-------------------|
-------------------|------------------------|-------------------|
-------------------|------------------------|-------------------|
--7----------------|--6--------3----5-5-5-5-|--7----------------|
--5----------------|--4--------1----5-5-3-5-|--5----------------|
--5----------------|--4--------1----3-3-3-3-|--5----------------|


                                                    
---------------------|-----------------------------|
---------------------|-----------------------------|
---------------------|-----------------------------|
--6--------3--3------|-----------------------------|
--4--------1--1------|-----------------------------|
--4--------1--1------|--13h-0--13--15--12~---0--0--|


                                                             
-------------------------------|----------------------------|
-------------------------------|----------------------------|
-------------------------------|----------------------------|
-------------------------------|----------------------------|
-------------------------------|----------------------------|
--13h-0--13--15--12h-0--13h-0--|--13--15--12~-------0-0-0-0-|


                                                          
---------------------------|-----------------------------|
---------------------------|-----------------------------|
---------------------------|-----------------------------|
---------------------------|-----------------------------|
---------------------------|-----------------------------|
--12--0--0--8--7--0--5--7--|--13h-0--13--15--12~---0--0--|


                                                             
-------------------------------|----------------------------|
-------------------------------|----------------------------|
-------------------------------|----------------------------|
-------------------------------|----------------------------|
-------------------------------|----------------------------|
--13h-0--13--15--12h-0--13h-0--|--13--15--12~-------0-0-0-0-|


                                                       
---------------------------|--------------------------|
---------------------------|--------------------------|
---------------------------|--------------------------|
---------------------------|--------------------------|
---------------------------|--8----x--10--7--x--x--8--|
--12--0--0--8--7--0--5--7--|--0----0---------0--0--0--|


                                                        
---------------------------|---------------------------|
---------------------------|---------------------------|
---------------------------|---------------------------|
---------------------------|---------------------------|
--8--x--x--10--7--x--x--8--|--10--x--x--8--7--x--x--7--|
--0--0--0--0---0--0--0--0--|--0---0--0--0--0--0--0--0--|


                                                          
------------------------------|--------------------------|
------------------------------|--------------------------|
------------------------------|--------------------------|
------------------------------|--------------------------|
-------------5-------------9--|--8----x--10--7--x--x--8--|
--3-3-3-3-3-----7-7-7-7-7-----|--0----0---------0--0--0--|


                                                        
---------------------------|---------------------------|
---------------------------|---------------------------|
---------------------------|---------------------------|
---------------------------|---------------------------|
--8--x--x--10--7--x--x--8--|--10--x--x--8--7--x--x--7--|
--0--0--0--0---0--0--0--0--|--0---0--0--0--0--0--0--0--|


                                                       
---------------------------|--------------------------|
---------------------------|--------------------------|
---------------------------|--------------------------|
---------------------------|--------------------------|
--10--9--9--9--------------|--8----x--10--7--x--x--8--|
--7---7--7--7--3--6--6--6--|--0----0---------0--0--0--|


                                                        
---------------------------|---------------------------|
---------------------------|---------------------------|
---------------------------|---------------------------|
---------------------------|---------------------------|
--8--x--x--10--7--x--x--8--|--10--x--x--8--7--x--x--7--|
--0--0--0--0---0--0--0--0--|--0---0--0--0--0--0--0--0--|


                                                          
------------------------------|--------------------------|
------------------------------|--------------------------|
------------------------------|--------------------------|
------------------------------|--------------------------|
-------------5-------------9--|--8----x--10--7--x--x--8--|
--3-3-3-3-3-----7-7-7-7-7-----|--0----0---------0--0--0--|


                                                        
---------------------------|---------------------------|
---------------------------|---------------------------|
---------------------------|---------------------------|
---------------------------|---------------------------|
--8--x--x--10--7--x--x--8--|--10--x--x--8--7--x--x--7--|
--0--0--0--0---0--0--0--0--|--0---0--0--0--0--0--0--0--|


                                                          
---------------------------|-----------------------------|
---------------------------|-----------------------------|
---------------------------|-----------------------------|
---------------------------|-----------------------------|
--10--9--9--9--------------|-----------------------------|
--7---7--7--7--3--6--6--6--|--13h-0--13--15--12~---0--0--|


                                                             
-------------------------------|----------------------------|
-------------------------------|----------------------------|
-------------------------------|----------------------------|
-------------------------------|----------------------------|
-------------------------------|----------------------------|
--13h-0--13--15--12h-0--13h-0--|--13--15--12~-------0-0-0-0-|


                                                          
---------------------------|-----------------------------|
---------------------------|-----------------------------|
---------------------------|-----------------------------|
---------------------------|-----------------------------|
---------------------------|-----------------------------|
--12--0--0--8--7--0--5--7--|--13h-0--13--15--12~---0--0--|


                                                             
-------------------------------|----------------------------|
-------------------------------|----------------------------|
-------------------------------|----------------------------|
-------------------------------|----------------------------|
-------------------------------|----------------------------|
--13h-0--13--15--12h-0--13h-0--|--13--15--12~-------0-0-0-0-|


                                                       
---------------------------|--------------------------|
---------------------------|--------------------------|
---------------------------|--------------------------|
---------------------------|--------------------------|
---------------------------|--8----x--10--7--x--x--8--|
--12--0--0--8--7--0--5--7--|--0----0---------0--0--0--|


                                                        
---------------------------|---------------------------|
---------------------------|---------------------------|
---------------------------|---------------------------|
---------------------------|---------------------------|
--8--x--x--10--7--x--x--8--|--10--x--x--8--7--x--x--7--|
--0--0--0--0---0--0--0--0--|--0---0--0--0--0--0--0--0--|


                                                          
------------------------------|--------------------------|
------------------------------|--------------------------|
------------------------------|--------------------------|
------------------------------|--------------------------|
-------------5-------------9--|--8----x--10--7--x--x--8--|
--3-3-3-3-3-----7-7-7-7-7-----|--0----0---------0--0--0--|


                                                        
---------------------------|---------------------------|
---------------------------|---------------------------|
---------------------------|---------------------------|
---------------------------|---------------------------|
--8--x--x--10--7--x--x--8--|--10--x--x--8--7--x--x--7--|
--0--0--0--0---0--0--0--0--|--0---0--0--0--0--0--0--0--|


                                                       
---------------------------|--------------------------|
---------------------------|--------------------------|
---------------------------|--------------------------|
---------------------------|--------------------------|
--10--9--9--9--------------|--8----x--10--7--x--x--8--|
--7---7--7--7--3--6--6--6--|--0----0--0------0--0--0--|


                                                        
---------------------------|---------------------------|
---------------------------|---------------------------|
---------------------------|---------------------------|
---------------------------|---------------------------|
--8--x--x--10--7--x--x--8--|--10--x--x--8--7--x--x--7--|
--0--0--0--0---0--0--0--0--|--0---0--0--0--0--0--0--0--|


                                                          
------------------------------|--------------------------|
------------------------------|--------------------------|
------------------------------|--------------------------|
------------------------------|--------------------------|
-------------5-------------9--|--8----x--10--7--x--x--8--|
--3-3-3-3-3-----7-7-7-7-7-----|--0----0---------0--0--0--|


                                                        
---------------------------|---------------------------|
---------------------------|---------------------------|
---------------------------|---------------------------|
---------------------------|---------------------------|
--8--x--x--10--7--x--x--8--|--10--x--x--8--7--x--x--7--|
--0--0--0--0---0--0--0--0--|--0---0--0--0--0--0--0--0--|


                                                       
---------------------------|--------------------------|
---------------------------|--------------------------|
---------------9--9--8--8--|--7--7--7--7--7--7--7--7--|
---------------------------|--------------------------|
--10--8--7--0--7--7--6--6--|--5--5--5--5--5--5--5--5--|
---------------------------|--------------------------|


                                                        
--------------------------|----------------------------|
--------------------------|----------------------------|
--7--7--6--6--6--6--------|--------------------10--10--|
--------------------8--8--|--8--8--5--5--5--5----------|
--5--5--4--4--4--4--------|--------------------8---8---|
--------------------6--6--|--6--6--3--3--3--3----------|


                                                            
--------------------------------|--------------------------|
--------------------------------|--------------------------|
--10--10--12--12--12--12--9--9--|--7--7--7--7--7--7--7--7--|
--------------------------------|--------------------------|
--8---8---10--10--10--10--7--7--|--5--5--5--5--5--5--5--5--|
--------------------------------|--------------------------|


                                                        
--------------------------|----------------------------|
--------------------------|----------------------------|
--7--7--6--6--6--6--------|--------------------10--10--|
--------------------8--8--|--8--8--5--5--5--5----------|
--5--5--4--4--4--4--------|--------------------8---8---|
--------------------6--6--|--6--6--3--3--3--3----------|


                                                          
------------------------------|--------------------------|
------------------------------|--------------------------|
--10--10--12--12--9--9--9--9--|--7--7--7--7--7--7--7--7--|
------------------------------|--------------------------|
--8---8---10--10--7--7--7--7--|--5--5--5--5--5--5--5--5--|
------------------------------|--------------------------|


                                                        
--------------------------|----------------------------|
--------------------------|----------------------------|
--7--7--6--6--6--6--------|--------------------10--10--|
--------------------8--8--|--8--8--5--5--5--5----------|
--5--5--4--4--4--4--------|--------------------8---8---|
--------------------6--6--|--6--6--3--3--3--3----------|


                                                            
--------------------------------|--------------------------|
--------------------------------|--------------------------|
--10--10--12--12--12--12--9--9--|--7--7--7--7--7--7--7--7--|
--------------------------------|--------------------------|
--8---8---10--10--10--10--7--7--|--5--5--5--5--5--5--5--5--|
--------------------------------|--------------------------|


                                                        
--------------------------|----------------------------|
--------------------------|----------------------------|
--7--7--6--6--6--6--------|--------------------10--10--|
--------------------8--8--|--8--8--5--5--5--5----------|
--5--5--4--4--4--4--------|--------------------8---8---|
--------------------6--6--|--6--6--3--3--3--3----------|


                                                                       
------------------------------|--------------------|------------------|
------------------------------|--------------------|------------------|
--10--10--12--12--9--9--9--9--|--------------------|------------------|
------------------------------|--------------------|------------------|
--8---8---10--10--7--7--7--7--|--------------------|------------------|
------------------------------|--1h-0--------------|------------------|


                                                                    
------------------|------------------|-----------------------------|
------------------|------------------|-----------------------------|
------------------|------------------|-----------------------------|
------------------|------------------|-----------------------------|
------------------|------------------|-----------------------------|
------------------|------------------|--13h-0--13--15--12~---0--0--|


                                                             
-------------------------------|----------------------------|
-------------------------------|----------------------------|
-------------------------------|----------------------------|
-------------------------------|----------------------------|
-------------------------------|----------------------------|
--13h-0--13--15--12h-0--13h-0--|--13--15--12~-------0-0-0-0-|


                                                       
---------------------------|--------------------------|
---------------------------|--------------------------|
---------------------------|--------------------------|
---------------------------|--------------------------|
---------------------------|--8----x--10--7--x--x--8--|
--12--0--0--8--7--0--5--7--|--0----0---------0--0--0--|


                                                        
---------------------------|---------------------------|
---------------------------|---------------------------|
---------------------------|---------------------------|
---------------------------|---------------------------|
--8--x--x--10--7--x--x--8--|--10--x--x--8--7--x--x--7--|
--0--0--0--0---0--0--0--0--|--0---0--0--0--0--0--0--0--|


                                                          
------------------------------|--------------------------|
------------------------------|--------------------------|
------------------------------|--------------------------|
------------------------------|--------------------------|
-------------5-------------9--|--8----x--10--7--x--x--8--|
--3-3-3-3-3-----7-7-7-7-7-----|--0----0---------0--0--0--|


                                                        
---------------------------|---------------------------|
---------------------------|---------------------------|
---------------------------|---------------------------|
---------------------------|---------------------------|
--8--x--x--10--7--x--x--8--|--10--x--x--8--7--x--x--7--|
--0--0--0--0---0--0--0--0--|--0---0--0--0--0--0--0--0--|


                                                       
---------------------------|--------------------------|
---------------------------|--------------------------|
---------------------------|--------------------------|
---------------------------|--------------------------|
--10--9--9--9--------------|--8----x--10--7--x--x--8--|
--7---7--7--7--3--6--6--6--|--0----0---------0--0--0--|


                                                        
---------------------------|---------------------------|
---------------------------|---------------------------|
---------------------------|---------------------------|
---------------------------|---------------------------|
--8--x--x--10--7--x--x--8--|--10--x--x--8--7--x--x--7--|
--0--0--0--0---0--0--0--0--|--0---0--0--0--0--0--0--0--|


                                                          
------------------------------|--------------------------|
------------------------------|--------------------------|
------------------------------|--------------------------|
------------------------------|--------------------------|
-------------5-------------9--|--8----x--10--7--x--x--8--|
--3-3-3-3-3-----7-7-7-7-7-----|--0----0---------0--0--0--|


                                                        
---------------------------|---------------------------|
---------------------------|---------------------------|
---------------------------|---------------------------|
---------------------------|---------------------------|
--8--x--x--10--7--x--x--8--|--10--x--x--8--7--x--x--7--|
--0--0--0--0---0--0--0--0--|--0---0--0--0--0--0--0--0--|


                                                       
---------------------------|--------------------------|
---------------------------|--------------------------|
---------------9--9--8--8--|--7--7--7--7--7--7--7--7--|
---------------------------|--------------------------|
--10--8--7--0--7--7--6--6--|--5--5--5--5--5--5--5--5--|
---------------------------|--------------------------|


                                                        
--------------------------|----------------------------|
--------------------------|----------------------------|
--7--7--6--6--6--6--------|--------------------10--10--|
--------------------8--8--|--8--8--5--5--5--5----------|
--5--5--4--4--4--4--------|--------------------8---8---|
--------------------6--6--|--6--6--3--3--3--3----------|


                                                            
--------------------------------|--------------------------|
--------------------------------|--------------------------|
--10--10--12--12--12--12--9--9--|--7--7--7--7--7--7--7--7--|
--------------------------------|--------------------------|
--8---8---10--10--10--10--7--7--|--5--5--5--5--5--5--5--5--|
--------------------------------|--------------------------|


                                                        
--------------------------|----------------------------|
--------------------------|----------------------------|
--7--7--6--6--6--6--------|--------------------10--10--|
--------------------8--8--|--8--8--5--5--5--5----------|
--5--5--4--4--4--4--------|--------------------8---8---|
--------------------6--6--|--6--6--3--3--3--3----------|


                                                          
------------------------------|--------------------------|
------------------------------|--------------------------|
--10--10--12--12--9--9--9--9--|--7--7--7--7--7--7--7--7--|
------------------------------|--------------------------|
--8---8---10--10--7--7--7--7--|--5--5--5--5--5--5--5--5--|
------------------------------|--------------------------|


                                                        
--------------------------|----------------------------|
--------------------------|----------------------------|
--7--7--6--6--6--6--------|--------------------10--10--|
--------------------8--8--|--8--8--5--5--5--5----------|
--5--5--4--4--4--4--------|--------------------8---8---|
--------------------6--6--|--6--6--3--3--3--3----------|


                                                            
--------------------------------|--------------------------|
--------------------------------|--------------------------|
--10--10--12--12--12--12--9--9--|--7--7--7--7--7--7--7--7--|
--------------------------------|--------------------------|
--8---8---10--10--10--10--7--7--|--5--5--5--5--5--5--5--5--|
--------------------------------|--------------------------|


                                                        
--------------------------|----------------------------|
--------------------------|----------------------------|
--7--7--6--6--6--6--------|--------------------10--10--|
--------------------8--8--|--8--8--5--5--5--5----------|
--5--5--4--4--4--4--------|--------------------8---8---|
--------------------6--6--|--6--6--3--3--3--3----------|


                                                                        
------------------------------|-------------------|--------------------|
------------------------------|-------------------|--------------------|
--10--10--12--12--9--9--9--9--|-------------------|--------------------|
------------------------------|--7----------------|--6--------8/-------|
--8---8---10--10--7--7--7--7--|--5----------------|--4--------8/-------|
------------------------------|--5----------------|--4--------6/-------|


                                                                  
---------------------|-----------------------|-------------------|
---------------------|-----------------------|-------------------|
---------------------|-----------------------|-------------------|
--5------------10----|--10----12----9/-------|--7----------------|
--5------------8-----|--8-----10----7/-------|--5----------------|
--3------------8-----|--8-----10----7/-------|--5----------------|


                                                                   
--------------------|---------------------|-----------------------|
--------------------|---------------------|-----------------------|
--------------------|---------------------|-----------------------|
--6--------8/-------|------5--------10----|--10----12----9--------|
--4--------6/-------|------5--------8-----|--8-----10----7--------|
--4--------6/-------|------3--------8-----|--8-----10----7--------|


                                                               
-------------------|--------------------|---------------------|
-------------------|--------------------|---------------------|
-------------------|--------------------|---------------------|
--7----------------|--6--------8/-------|--5------------10----|
--5----------------|--4--------8/-------|--5------------8-----|
--5----------------|--4--------6/-------|--3------------8-----|


                                                                 
-----------------------|-------------------|--------------------|
-----------------------|-------------------|--------------------|
-----------------------|-------------------|--------------------|
--10----12----9/-------|--7----------------|--6--------8/-------|
--8-----10----7/-------|--5----------------|--4--------6/-------|
--8-----10----7/-------|--5----------------|--4--------6/-------|


                                                                  
---------------------|-----------------------|-------------------|
---------------------|-----------------------|-------------------|
---------------------|-----------------------|--7----------------|
------5--------10----|--10----12----9--------|--8----------------|
------5--------8-----|--8-----10----7--------|--5----------------|
------3--------8-----|--8-----10----7--------|--5----------------|


                                                                            
------------------|------------------|------------------|------------------|
------------------|------------------|------------------|------------------|
------------------|------------------|------------------|------------------|
------------------|------------------|------------------|------------------|
------------------|------------------|------------------|------------------|
------------------|------------------|------------------|------------------|


                                                                            
------------------|------------------|------------------|------------------|
------------------|------------------|------------------|------------------|
------------------|------------------|------------------|------------------|
------------------|------------------|------------------|------------------|
------------------|------------------|------------------|------------------|
------------------|------------------|------------------|------------------|


                                                                            
------------------|------------------|------------------|------------------|
------------------|------------------|------------------|------------------|
------------------|------------------|------------------|------------------|
------------------|------------------|------------------|------------------|
------------------|------------------|------------------|------------------|
------------------|------------------|------------------|------------------|


                                                                                
------------------|-------------------|------------5--------|------------------|
------------------|-------------------|------------5--------|------------------|
------------------|--7----------------|--7----7----7--------|------------------|
------------------|--8----------------|--8----8----7--------|------------------|
------------------|--5----------------|--5----5----5--------|------------------|
------------------|--5----------------|--5----5----5--------|------------------|


                                                                   
--5----5--------5/---|----------------------|---------------------|
--5----5--------5/---|----------------------|---------------------|
--7----7--------7/---|----------------------|---------------------|
--7----7--------7/---|------------7----7----|------------5--------|
--5----5--------5/---|-------5--------------|--5---------5--------|
--5----5--------5/---|--3-------------------|-------0----3--------|


                                                              
-------------------|--------------------|--------------------|
-------------------|--------------------|--------------------|
-------------------|--------------------|--------------------|
--------------5----|--5-----------------|--8------------8----|
--------------5----|--5-----------------|--5------------5----|
--------------3----|--3--------5b-------|--6------------6----|


                                                               
---------------------|------------------|---------------------|
---------------------|------------------|---------------------|
---------------------|------------------|---------------------|
--8----8----8--------|------------------|--8----8--------8/---|
--5----5----5--------|------------------|--5----5--------5/---|
--6----6----6--------|------------------|--6----6--------6/---|


                                                               
--------------------|---------------------|-------------------|
--------------------|---------------------|-------------------|
--6------------6----|------------6/-------|--7/---------------|
--7------------7----|--7----7----7/-------|--8/---------------|
--------------------|--7----7-------------|--5/---------------|
--5------------5----|--5----5----5/-------|--5/---------------|


                                                             
----------5--------|------------------|--5----5--------5/---|
----------5--------|------------------|--5----5--------5/---|
----------7--------|------------------|--7----7--------7/---|
----------7--------|------------------|--7----7--------7/---|
----------5--------|------------------|--5----5--------5/---|
----------5--------|------------------|--5----5--------5/---|


                                                                 
----------------------|---------------------|-------------------|
----------------------|---------------------|-------------------|
----------------------|---------------------|-------------------|
------------7----7----|------------5--------|--------------5----|
-------5--------------|--5---------5--------|--------------5----|
--3-------------------|-------0----3--------|--------------3----|


                                                                
--------------------|--------------------|---------------------|
--------------------|--------------------|---------------------|
--------------------|--------------------|---------------------|
--5-----------------|--8------------8----|--8----8----8--------|
--5-----------------|--5------------5----|--5----5----5--------|
--3--------5b-------|--6------------6----|--6----6----6--------|


                                                              
------------------|---------------------|--------------------|
------------------|---------------------|--------------------|
------------------|---------------------|--6------------6----|
------------------|--8----8--------8/---|--7------------7----|
------------------|--5----5--------5/---|--------------------|
------------------|--6----6--------6/---|--5------------5----|


                                                                                
---------------------|--0----------------|------------------|------------------|
---------------------|--0----------------|------------------|------------------|
------------6/-------|--x----------------|------------------|------------------|
--7----7----7/-------|--2----------------|------------------|------------------|
--7----7-------------|--2----------------|------------------|------------------|
--5----5----5/-------|--0----------------|------------------|------------------|


                                                                            
------------------|------------------|------------------|------------------|
------------------|------------------|------------------|------------------|
------------------|------------------|------------------|------------------|
------------------|------------------|------------------|------------------|
------------------|------------------|------------------|------------------|
------------------|------------------|------------------|------------------|


                                                                          
------------------|--------------------------|---------------------------|
------------------|--------------------------|---------------------------|
------------------|--------------------------|---------------------------|
------------------|--------------------------|---------------------------|
------------------|--8----x--x--8--10--x--x--|--7--8--x--x--8--10--x--x--|
------------------|--0----0--0--0--0---0--0--|--0--0--0--0--0--0---0--0--|


                                                       
---------------------------|--------------------------|
---------------------------|--------------------------|
---------------------------|--------------------------|
---------------------------|--------------------------|
--10--8--x--x--8--7--x--7--|--------5--5--------9--9--|
--0---0--0--0--0--0--0--0--|--3--3--------7--7--------|


                                                       
--------------------------|---------------------------|
--------------------------|---------------------------|
--------------------------|---------------------------|
--------------------------|---------------------------|
--8----x--x--8--10--x--x--|--7--8--x--x--8--10--x--x--|
--0----0--0--0--0---0--0--|--0--0--0--0--0--0---0--0--|


                                                        
---------------------------|---------------------------|
---------------------------|---------------------------|
---------------------------|---------------------------|
---------------------------|---------------------------|
--10--8--x--x--8--7--x--7--|--10--9--9--9--------------|
--0---0--0--0--0--0--0--0--|--7---7--7--7--3--6--6--6--|


                                                       
--------------------------|---------------------------|
--------------------------|---------------------------|
--------------------------|---------------------------|
--------------------------|---------------------------|
--8----x--x--8--10--x--x--|--7--8--x--x--8--10--x--x--|
--0----0--0--0--0---0--0--|--0--0--0--0--0--0---0--0--|


                                                       
---------------------------|--------------------------|
---------------------------|--------------------------|
---------------------------|--------------------------|
---------------------------|--------------------------|
--10--8--x--x--8--7--x--7--|--------5--5--------------|
--0---0--0--0--0--0--0--0--|--3--3--------1--1--0--0--|


                                                       
--------------------------|---------------------------|
--------------------------|---------------------------|
--------------------------|---------------------------|
--------------------------|---------------------------|
--8----x--x--8--10--x--x--|--7--8--x--x--8--10--x--x--|
--0----0--0--0--0---0--0--|--0--0--0--0--0--0---0--0--|


                                                          
---------------------------|-----------------------------|
---------------------------|-----------------------------|
---------------------------|-----------------------------|
---------------------------|-----------------------------|
--10--8--x--x--8--7--x--7--|--10--8--7------8--7---------|
--0---0--0--0--0--0--0--0--|------------10--------10--8--|


                                                       
--------------------------|---------------------------|
--------------------------|---------------------------|
--------------------------|---------------------------|
--------------------------|---------------------------|
--8----x--10--7--x--x--8--|--8--x--x--10--7--x--x--8--|
--0----0---------0--0--0--|--0--0--0--0---0--0--0--0--|


                                                           
---------------------------|------------------------------|
---------------------------|------------------------------|
---------------------------|------------------------------|
---------------------------|------------------------------|
--10--x--x--8--7--x--x--7--|-------------5-------------9--|
--0---0--0--0--0--0--0--0--|--3-3-3-3-3-----7-7-7-7-7-----|


                                                       
--------------------------|---------------------------|
--------------------------|---------------------------|
--------------------------|---------------------------|
--------------------------|---------------------------|
--8----x--10--7--x--x--8--|--8--x--x--10--7--x--x--8--|
--0----0---------0--0--0--|--0--0--0--0---0--0--0--0--|


                                                        
---------------------------|---------------------------|
---------------------------|---------------------------|
---------------------------|---------------------------|
---------------------------|---------------------------|
--10--x--x--8--7--x--x--7--|--10--9--9--9--------------|
--0---0--0--0--0--0--0--0--|--7---7--7--7--3--6--6--6--|


                                                       
--------------------------|---------------------------|
--------------------------|---------------------------|
--------------------------|---------------------------|
--------------------------|---------------------------|
--8----x--10--7--x--x--8--|--8--x--x--10--7--x--x--8--|
--0----0---------0--0--0--|--0--0--0--0---0--0--0--0--|


                                                           
---------------------------|------------------------------|
---------------------------|------------------------------|
---------------------------|------------------------------|
---------------------------|------------------------------|
--10--x--x--8--7--x--x--7--|-------------5-------------9--|
--0---0--0--0--0--0--0--0--|--3-3-3-3-3-----7-7-7-7-7-----|


                                                       
--------------------------|---------------------------|
--------------------------|---------------------------|
--------------------------|---------------------------|
--------------------------|---------------------------|
--8----x--10--7--x--x--8--|--8--x--x--10--7--x--x--8--|
--0----0---------0--0--0--|--0--0--0--0---0--0--0--0--|


                                                        
---------------------------|---------------------------|
---------------------------|---------------------------|
---------------------------|---------------9--9--8--8--|
---------------------------|---------------------------|
--10--x--x--8--7--x--x--7--|--10--8--7--0--7--7--6--6--|
--0---0--0--0--0--0--0--0--|---------------------------|


                                                      
--------------------------|--------------------------|
--------------------------|--------------------------|
--7--7--7--7--7--7--7--7--|--7--7--6--6--6--6--------|
--------------------------|--------------------8--8--|
--5--5--5--5--5--5--5--5--|--5--5--4--4--4--4--------|
--------------------------|--------------------6--6--|


                                                              
----------------------------|--------------------------------|
----------------------------|--------------------------------|
--------------------10--10--|--10--10--12--12--12--12--9--9--|
--8--8--5--5--5--5----------|--------------------------------|
--------------------8---8---|--8---8---10--10--10--10--7--7--|
--6--6--3--3--3--3----------|--------------------------------|


                                                      
--------------------------|--------------------------|
--------------------------|--------------------------|
--7--7--7--7--7--7--7--7--|--7--7--6--6--6--6--------|
--------------------------|--------------------8--8--|
--5--5--5--5--5--5--5--5--|--5--5--4--4--4--4--------|
--------------------------|--------------------6--6--|


                                                            
----------------------------|------------------------------|
----------------------------|------------------------------|
--------------------10--10--|--10--10--12--12--9--9--9--9--|
--8--8--5--5--5--5----------|------------------------------|
--------------------8---8---|--8---8---10--10--7--7--7--7--|
--6--6--3--3--3--3----------|------------------------------|


                                                      
--------------------------|--------------------------|
--------------------------|--------------------------|
--7--7--7--7--7--7--7--7--|--7--7--6--6--6--6--------|
--------------------------|--------------------8--8--|
--5--5--5--5--5--5--5--5--|--5--5--4--4--4--4--------|
--------------------------|--------------------6--6--|


                                                              
----------------------------|--------------------------------|
----------------------------|--------------------------------|
--------------------10--10--|--10--10--12--12--12--12--9--9--|
--8--8--5--5--5--5----------|--------------------------------|
--------------------8---8---|--8---8---10--10--10--10--7--7--|
--6--6--3--3--3--3----------|--------------------------------|


                                                      
--------------------------|--------------------------|
--------------------------|--------------------------|
--7--7--7--7--7--7--7--7--|--7--7--6--6--6--6--------|
--------------------------|--------------------8--8--|
--5--5--5--5--5--5--5--5--|--5--5--4--4--4--4--------|
--------------------------|--------------------6--6--|


                                                            
----------------------------|------------------------------|
----------------------------|------------------------------|
--------------------10--10--|--10--10--12--12--9--9--9--9--|
--8--8--5--5--5--5----------|------------------------------|
--------------------8---8---|--8---8---10--10--7--7--7--7--|
--6--6--3--3--3--3----------|------------------------------|


                                                      
--------------------------|--------------------------|
--------------------------|--------------------------|
--7--7--7--7--7--7--7--7--|--7--7--6--6--6--6--------|
--------------------------|--------------------8--8--|
--5--5--5--5--5--5--5--5--|--5--5--4--4--4--4--------|
--------------------------|--------------------6--6--|


                                                              
----------------------------|--------------------------------|
----------------------------|--------------------------------|
--------------------10--10--|--10--10--12--12--12--12--9--9--|
--8--8--5--5--5--5----------|--------------------------------|
--------------------8---8---|--8---8---10--10--10--10--7--7--|
--6--6--3--3--3--3----------|--------------------------------|


                                                      
--------------------------|--------------------------|
--------------------------|--------------------------|
--7--7--7--7--7--7--7--7--|--7--7--6--6--6--6--------|
--------------------------|--------------------8--8--|
--5--5--5--5--5--5--5--5--|--5--5--4--4--4--4--------|
--------------------------|--------------------6--6--|


                                                            
----------------------------|------------------------------|
----------------------------|------------------------------|
--------------------10--10--|--10--10--12--12--9--9--9--9--|
--8--8--5--5--5--5----------|------------------------------|
--------------------8---8---|--8---8---10--10--7--7--7--7--|
--6--6--3--3--3--3----------|------------------------------|


                                                      
--------------------------|--------------------------|
--------------------------|--------------------------|
--7--7--7--7--7--7--7--7--|--6--6--6--6--------------|
--------------------------|--------------8--8--8--8--|
--5--5--5--5--5--5--5--5--|--4--4--4--4--------------|
--------------------------|--------------6--6--6--6--|


                                                            
----------------------------|------------------------------|
----------------------------|------------------------------|
--------------------10--10--|--10--10--12--12--9--9--9--9--|
--5--5--5--5--5--5----------|------------------------------|
--------------------8---8---|--8---8---10--10--7--7--7--7--|
--3--3--3--3--3--3----------|------------------------------|


                                                                            
--------------------------|--------------------------|---------------------|
--------------------------|--------------------------|---------------------|
--7--7--7--7--7--7--7--7--|--6--6--6--6--------------|---------------------|
--------------------------|--------------8--8--8--8--|------5--------10----|
--5--5--5--5--5--5--5--5--|--4--4--4--4--------------|------5--------8-----|
--------------------------|--------------6--6--6--6--|------3--------8-----|


                                                                
------------------------|-------------------|------------------|
------------------------|-------------------|------------------|
------------------------|--7----------------|------------------|
--10----12----9----6----|--7----------------|------------------|
--8-----10----7----4----|--5----------------|------------------|
--8-----10----7----4----|--5----------------|------------------|
comments
We did not receive enough feedback on this tab! Please rate:
print report bad tab
1 2 3 4 5
1 comment total.
0 reply
the_wickerman wrote on February 20 2008, 09:31 pm

WTF?

I want to post or [tab]
guest
You may want to rate the tab now too:
select rating
Please do not post tabs as comments. Select "correction" instead!