Oops, an error
Loading. Please wait.

Sickness Within Tab

1,751 views 1 this week
no commentswrite comment
1 2 3 4 5
please rate
Autoscroll
+/-
esc
set tempo
stop
Contributor
WARNING: You are trying to view
                                    content from Ultimate-Guitar.com
                                    in an unauthorized application,
                                    which is prohibited.

                                    Please use an official Ultimate
                                    Guitar Tabs application for iPhone,
                                    iPad or Android to access legitimate
                                    chords, guitar, bass, and drum tabs
                                    from Ultimate-Guitar.com database.

                                    Type "ultimate guitar tabs" in Apple
                                    App Store's or Android Market's
                                    search to find the application.
                                                         
-------------------------|--------------------------|
-------------------------|--------------------------|
-------------------------|--------------------------|
----------------------2--|-----------2--3--------3--|
----------------------2--|-----------2--3--------3--|
----------0--1--2--3-----|--0--0--0--------0--0-----|


                                                         
-----------------------------|--------------------------|
-----------------------------|--------------------------|
-----------------------------|--------------------------|
--2-----------------------2--|-----------2--3--------3--|
--2-----------------------2--|-----------2--3--------3--|
-----0--0--0--0--1--2--3-----|--0--0--0--------0--0-----|


                                                         
-----------------------------|--------------------------|
-----------------------------|--------------------------|
-----------------------------|--------------------------|
--2-----------------------2--|-----------2--3--------3--|
--2-----------------------2--|-----------2--3--------3--|
-----0--0--0--0--1--2--3-----|--0--0--0--------0--0-----|


                                                           
-----------------------------|----------------------------|
-----------------------------|----------------------------|
-----------------------------|----------------------------|
--2-----------------------2--|-------------------------2--|
--2-----------------------2--|-------------------------2--|
-----0--0--0--0--1--2--3-----|----x--x--x--0--1--2--3-----|


                                                                            
---------------------|--------------------------|--------------------------|
---------------------|--------------------------|--------------------------|
---------------------|--5--------------5--------|--4--------------4--------|
---------------------|--------------------------|--------------------------|
---------------------|--3--------------3--------|--2--------------2--------|
----3--2--1----------|-------0-0-0--0-----0--0--|-------0-0-0--0-----0--0--|


                                                      
--------------------------|--------------------------|
--------------------------|--------------------------|
--5-----------4-----------|--8--------------8--------|
--------------------------|--------------------------|
--3-----------2-----------|--6--------------6--------|
-------0-0-0-------0-0-0--|-------0-0-0--0-----0--0--|


                                                      
--------------------------|--------------------------|
--------------------------|--------------------------|
--5--------------5--------|--4--------------4--------|
--------------------------|--------------------------|
--3--------------3--------|--2--------------2--------|
-------0-0-0--0-----0--0--|-------0-0-0--0-----0--0--|


                                                      
--------------------------|--------------------------|
--------------------------|--------------------------|
--5-----------4-----------|--8--8--8--8--8--8--8--8--|
--------------------------|--------------------------|
--3-----------2-----------|--6--6--6--6--6--6--6--6--|
-------0-0-0-------0-0-0--|--------------------------|


                                                         
---------------------------|----------------------------|
---------------------------|----------------------------|
-------11--------11--------|--11--11--------9--9--------|
-------9---------9---------|--9---9---------9--9--------|
-------7---------7---------|--7---7---------7--7--------|
--0--------0--0------0--0--|----------0--0--------0--0--|


                                                         
---------------------------|----------------------------|
---------------------------|----------------------------|
-------11--------11--------|--11--11--------9--9--------|
-------9---------9---------|--9---9---------9--9--------|
-------7---------7---------|--7---7---------7--7--------|
--0--------0--0------0--0--|----------0--0--------0--0--|


                                                           
---------------------------|------------------------------|
---------------------------|------------------------------|
-------12--------12--------|--12--12--------11--11--------|
--2----9---------9---------|--9---9---------9---9---------|
--0--------0--0------0--0--|----------0--0----------0--0--|
---------------------------|------------------------------|


                                                              
----------------------------------|--------------------------|
----------------------------------|--------------------------|
--12--12--12--12--12--12--12--12--|--7--7--7--7--7--7--7--7--|
--9---9---9---9---9---9---9---9---|--------------------------|
--10--10--10--10--10--10--10--10--|--5--5--5--5--5--5--5--5--|
----------------------------------|--------------------------|


                                                                
|-------------------------------|------------------------------|
|-------------------------------|------------------------------|
|*--5--5--5--5----5--5--5--5----|--5--5--5--5----5--5--5--5----|
|*------------------------------|------------------------------|
|---3--3--3--3----3--3--3--3----|--3--3--3--3----3--3--3--3----|
|---0--0--0--0----0--0--0--0----|--0--0--0--0----0--0--0--0----|


                                                              
------------------------------|------------------------------|
------------------------------|------------------------------|
--4--4--4--4----4--4--4--4----|--4--4--4--4----4--4--4--4----|
------------------------------|------------------------------|
--2--2--2--2----2--2--2--2----|--2--2--2--2----2--2--2--2----|
--0--0--0--0----0--0--0--0----|--0--0--0--0----0--0--0--0----|


                                                              
------------------------------|------------------------------|
------------------------------|------------------------------|
--5--5--5--5----5--5--5--5----|--4--4--4--4----4--4--4--4----|
------------------------------|------------------------------|
--3--3--3--3----3--3--3--3----|--2--2--2--2----2--2--2--2----|
--0--0--0--0----0--0--0--0----|--0--0--0--0----0--0--0--0----|


                                                                
------------------------------|-------------------------------||
------------------------------|-------------------------------||
--8--8--8--8----8--8--8--8----|--8--8--8--8----8--8--8--8----*||
------------------------------|------------------------------*||
--6--6--6--6----6--6--6--6----|--6--6--6--6----6--6--6--6-----||
--0--0--0--0----0--0--0--0----|--0--0--0--0----0--0--0--0-----||


                                                                               
--------------------|------------------|-------------------|------------------|
--------------------|------------------|-------------------|------------------|
*--5----------------|------------------|--4----------------|------------------|
*-------------------|------------------|-------------------|------------------|
---3----------------|------------------|--2----------------|------------------|
---0----------------|------------------|--0----------------|------------------|


                                                            
-------------------|-------------------|-------------------|
-------------------|-------------------|-------------------|
--5----------------|--4----------------|--8----------------|
-------------------|-------------------|-------------------|
--3----------------|--2----------------|--6----------------|
--0----------------|--0----------------|--0----------------|


                                                                   
-------------------||----------------------|----------------------|
-------------------||----------------------|----------------------|
------------------*||----------------------|----------------------|
------------------*||--8----8----8----8----|--8----8----8----8----|
-------------------||--6----6----6----6----|--6----6----6----6----|
-------------------||--6----6----6----6----|--6----6----6----6----|


                                                                      
|-----------------------|---------------------|----------------------|
|-----------------------|---------------------|----------------------|
|*--5-------------------|-------5--------5----|--4-------------------|
|*----------------------|---------------------|----------------------|
|---3-------------------|-------3--------3----|--2-------------------|
|--------0----0----0----|--0------------------|-------0----0----0----|


                                                                     
----------------------|----------------------|----------------------|
----------------------|----------------------|----------------------|
-------4----4----4----|--5-------------------|--4-------------------|
----------------------|----------------------|----------------------|
-------2----2----2----|--3-------------------|--2-------------------|
--0-------------------|-------0----0----0----|-------0----0----0----|


                                                                       
----------------------|-----------------------||----------------------|
----------------------|-----------------------||----------------------|
--8-------------------|-------8----8----8----*||--4-------------------|
----------------------|----------------------*||----------------------|
--6-------------------|-------6----6----6-----||--2-------------------|
-------0----0----0----|--0--------------------||-------0----0----0----|


                                                
----------------------|-----------------------||
----------------------|-----------------------||
--8----8----8----8----|--8/-9--9----9----9----||
--8----8----8----8----|--8/-9--9----9----9----||
--6----6----6----6----|--6/-7--7----7----7----||
--6----6----6----6----|--6/-7--7----7----7----||

comments
We did not receive enough feedback on this tab! Please rate:
1 2 3 4 5
I want to post or [tab]
guest
You may want to rate the tab now too:
select rating
Please do not post tabs as comments. Select "correction" instead!